  0
SECTION
  2
HEADER
  9
$ACADVER
  1
AC1014
  9
$ACADMAINTVER
 70
     9
  9
$DWGCODEPAGE
  3
ANSI_1250
  9
$INSBASE
 10
0.0
 20
0.0
 30
0.0
  9
$EXTMIN
 10
-26.4455
 20
-30.0771
 30
0.0
  9
$EXTMAX
 10
26.4455
 20
30.0771
 30
0.0
  9
$LIMMIN
 10
0.0
 20
0.0
  9
$LIMMAX
 10
12.0
 20
9.0
  9
$ORTHOMODE
 70
     0
  9
$REGENMODE
 70
     1
  9
$FILLMODE
 70
     1
  9
$QTEXTMODE
 70
     0
  9
$MIRRTEXT
 70
     1
  9
$DRAGMODE
 70
     2
  9
$LTSCALE
 40
1.0
  9
$OSMODE
 70
    37
  9
$ATTMODE
 70
     1
  9
$TEXTSIZE
 40
0.2
  9
$TRACEWID
 40
0.05
  9
$TEXTSTYLE
  7
STANDARD
  9
$CLAYER
  8
0
  9
$CELTYPE
  6
BYLAYER
  9
$CECOLOR
 62
   256
  9
$CELTSCALE
 40
1.0
  9
$DELOBJ
 70
     1
  9
$DISPSILH
 70
     0
  9
$DIMSCALE
 40
1.0
  9
$DIMASZ
 40
0.18
  9
$DIMEXO
 40
0.0625
  9
$DIMDLI
 40
0.38
  9
$DIMRND
 40
0.0
  9
$DIMDLE
 40
0.0
  9
$DIMEXE
 40
0.18
  9
$DIMTP
 40
0.0
  9
$DIMTM
 40
0.0
  9
$DIMTXT
 40
0.18
  9
$DIMCEN
 40
0.09
  9
$DIMTSZ
 40
0.0
  9
$DIMTOL
 70
     0
  9
$DIMLIM
 70
     0
  9
$DIMTIH
 70
     1
  9
$DIMTOH
 70
     1
  9
$DIMSE1
 70
     0
  9
$DIMSE2
 70
     0
  9
$DIMTAD
 70
     0
  9
$DIMZIN
 70
     0
  9
$DIMBLK
  1

  9
$DIMASO
 70
     1
  9
$DIMSHO
 70
     1
  9
$DIMPOST
  1

  9
$DIMAPOST
  1

  9
$DIMALT
 70
     0
  9
$DIMALTD
 70
     2
  9
$DIMALTF
 40
25.4
  9
$DIMLFAC
 40
1.0
  9
$DIMTOFL
 70
     0
  9
$DIMTVP
 40
0.0
  9
$DIMTIX
 70
     0
  9
$DIMSOXD
 70
     0
  9
$DIMSAH
 70
     0
  9
$DIMBLK1
  1

  9
$DIMBLK2
  1

  9
$DIMSTYLE
  2
STANDARD
  9
$DIMCLRD
 70
     0
  9
$DIMCLRE
 70
     0
  9
$DIMCLRT
 70
     0
  9
$DIMTFAC
 40
1.0
  9
$DIMGAP
 40
0.09
  9
$DIMJUST
 70
     0
  9
$DIMSD1
 70
     0
  9
$DIMSD2
 70
     0
  9
$DIMTOLJ
 70
     1
  9
$DIMTZIN
 70
     0
  9
$DIMALTZ
 70
     0
  9
$DIMALTTZ
 70
     0
  9
$DIMFIT
 70
     3
  9
$DIMUPT
 70
     0
  9
$DIMUNIT
 70
     2
  9
$DIMDEC
 70
     4
  9
$DIMTDEC
 70
     4
  9
$DIMALTU
 70
     2
  9
$DIMALTTD
 70
     2
  9
$DIMTXSTY
  7
STANDARD
  9
$DIMAUNIT
 70
     0
  9
$LUNITS
 70
     2
  9
$LUPREC
 70
     4
  9
$SKETCHINC
 40
0.1
  9
$FILLETRAD
 40
0.5
  9
$AUNITS
 70
     0
  9
$AUPREC
 70
     0
  9
$MENU
  1
.
  9
$ELEVATION
 40
0.0
  9
$PELEVATION
 40
0.0
  9
$THICKNESS
 40
0.0
  9
$LIMCHECK
 70
     0
  9
$CHAMFERA
 40
0.5
  9
$CHAMFERB
 40
0.5
  9
$CHAMFERC
 40
1.0
  9
$CHAMFERD
 40
0.0
  9
$SKPOLY
 70
     0
  9
$TDCREATE
 40
2456266.385435845
  9
$TDUPDATE
 40
2456266.385435856
  9
$TDINDWG
 40
0.0000000116
  9
$TDUSRTIMER
 40
0.0000000116
  9
$USRTIMER
 70
     1
  9
$ANGBASE
 50
0.0
  9
$ANGDIR
 70
     0
  9
$PDMODE
 70
     0
  9
$PDSIZE
 40
0.0
  9
$PLINEWID
 40
0.0
  9
$COORDS
 70
     1
  9
$SPLFRAME
 70
     0
  9
$SPLINETYPE
 70
     6
  9
$SPLINESEGS
 70
     8
  9
$ATTDIA
 70
     0
  9
$ATTREQ
 70
     1
  9
$HANDLING
 70
     1
  9
$HANDSEED
  5
152
  9
$SURFTAB1
 70
     6
  9
$SURFTAB2
 70
     6
  9
$SURFTYPE
 70
     6
  9
$SURFU
 70
     6
  9
$SURFV
 70
     6
  9
$UCSNAME
  2

  9
$UCSORG
 10
0.0
 20
0.0
 30
0.0
  9
$UCSXDIR
 10
1.0
 20
0.0
 30
0.0
  9
$UCSYDIR
 10
0.0
 20
1.0
 30
0.0
  9
$PUCSNAME
  2

  9
$PUCSORG
 10
0.0
 20
0.0
 30
0.0
  9
$PUCSXDIR
 10
1.0
 20
0.0
 30
0.0
  9
$PUCSYDIR
 10
0.0
 20
1.0
 30
0.0
  9
$USERI1
 70
     0
  9
$USERI2
 70
     0
  9
$USERI3
 70
     0
  9
$USERI4
 70
     0
  9
$USERI5
 70
     0
  9
$USERR1
 40
0.0
  9
$USERR2
 40
0.0
  9
$USERR3
 40
0.0
  9
$USERR4
 40
0.0
  9
$USERR5
 40
0.0
  9
$WORLDVIEW
 70
     1
  9
$SHADEDGE
 70
     3
  9
$SHADEDIF
 70
    70
  9
$TILEMODE
 70
     1
  9
$MAXACTVP
 70
    64
  9
$PINSBASE
 10
0.0
 20
0.0
 30
0.0
  9
$PLIMCHECK
 70
     0
  9
$PEXTMIN
 10
1.000000000000000E+20
 20
1.000000000000000E+20
 30
1.000000000000000E+20
  9
$PEXTMAX
 10
-1.000000000000000E+20
 20
-1.000000000000000E+20
 30
-1.000000000000000E+20
  9
$PLIMMIN
 10
0.0
 20
0.0
  9
$PLIMMAX
 10
12.0
 20
9.0
  9
$UNITMODE
 70
     0
  9
$VISRETAIN
 70
     1
  9
$PLINEGEN
 70
     0
  9
$PSLTSCALE
 70
     1
  9
$TREEDEPTH
 70
  3020
  9
$PICKSTYLE
 70
     1
  9
$CMLSTYLE
  2
STANDARD
  9
$CMLJUST
 70
     0
  9
$CMLSCALE
 40
1.0
  9
$PROXYGRAPHICS
 70
     1
  9
$MEASUREMENT
 70
     0
  0
ENDSEC
  0
SECTION
  2
CLASSES
  0
CLASS
  1
ACDBDICTIONARYWDFLT
  2
AcDbDictionaryWithDefault
  3
ObjectDBX Classes
 90
        0
280
     0
281
     0
  0
CLASS
  1
VISUALSTYLE
  2
AcDbVisualStyle
  3
ObjectDBX Classes
 90
     4095
280
     0
281
     0
  0
CLASS
  1
MATERIAL
  2
AcDbMaterial
  3
ObjectDBX Classes
 90
     1153
280
     0
281
     0
  0
CLASS
  1
DICTIONARYVAR
  2
AcDbDictionaryVar
  3
ObjectDBX Classes
 90
        0
280
     0
281
     0
  0
CLASS
  1
XRECORD
  2
AcDbXrecord
  3
AutoCAD 2000
 90
        0
280
     0
281
     0
  0
CLASS
  1
LWPOLYLINE
  2
AcDbPolyline
  3
AutoCAD 2000
 90
        0
280
     0
281
     1
  0
CLASS
  1
HATCH
  2
AcDbHatch
  3
AutoCAD 2000
 90
        0
280
     0
281
     1
  0
CLASS
  1
ACDBPLACEHOLDER
  2
AcDbPlaceHolder
  3
ObjectDBX Classes
 90
        0
280
     0
281
     0
  0
CLASS
  1
LAYOUT
  2
AcDbLayout
  3
ObjectDBX Classes
 90
        0
280
     0
281
     0
  0
ENDSEC
  0
SECTION
  2
TABLES
  0
TABLE
  2
VPORT
  5
8
330
0
100
AcDbSymbolTable
 70
     1
  0
VPORT
  5
29
330
8
100
AcDbSymbolTableRecord
100
AcDbViewportTableRecord
  2
*ACTIVE
 70
     0
 10
0.0
 20
0.0
 11
1.0
 21
1.0
 12
10.42990654205607
 22
4.5
 13
0.0
 23
0.0
 14
0.5
 24
0.5
 15
0.5
 25
0.5
 16
0.0
 26
0.0
 36
1.0
 17
0.0
 27
0.0
 37
0.0
 40
9.0
 41
1.972972972850329
 42
50.0
 43
0.0
 44
0.0
 50
0.0
 51
0.0
 71
     0
 72
   100
 73
     1
 74
     3
 75
     0
 76
     0
 77
     0
 78
     0
  0
ENDTAB
  0
TABLE
  2
LTYPE
  5
5
330
0
100
AcDbSymbolTable
 70
    17
  0
LTYPE
  5
14
330
5
100
AcDbSymbolTableRecord
100
AcDbLinetypeTableRecord
  2
BYBLOCK
 70
     0
  3

 72
    65
 73
     0
 40
0.0
  0
LTYPE
  5
15
330
5
100
AcDbSymbolTableRecord
100
AcDbLinetypeTableRecord
  2
BYLAYER
 70
     0
  3

 72
    65
 73
     0
 40
0.0
  0
LTYPE
  5
16
330
5
100
AcDbSymbolTableRecord
100
AcDbLinetypeTableRecord
  2
CONTINUOUS
 70
     0
  3
Solid line
 72
    65
 73
     0
 40
0.0
  0
LTYPE
  5
5F
330
5
100
AcDbSymbolTableRecord
100
AcDbLinetypeTableRecord
  2
NEW_LINE1
 70
     0
  3

 72
    65
 73
     4
 40
1.2
 49
0.5
 74
     4
 75
     0
340
0
 46
1.0
 50
0.0
 44
0.0
 45
0.0
 49
-0.3
 74
     4
 75
     0
340
0
 46
1.0
 50
0.0
 44
0.0
 45
0.0
 49
0.1
 74
     4
 75
     0
340
0
 46
1.0
 50
0.0
 44
0.0
 45
0.0
 49
-0.3
 74
     4
 75
     0
340
0
 46
1.0
 50
0.0
 44
0.0
 45
0.0
  0
LTYPE
  5
6F
330
5
100
AcDbSymbolTableRecord
100
AcDbLinetypeTableRecord
  2
NEW_LINE2
 70
     0
  3

 72
    65
 73
     4
 40
1.2
 49
0.5
 74
     4
 75
     0
340
0
 46
1.0
 50
0.0
 44
0.0
 45
0.0
 49
-0.3
 74
     4
 75
     0
340
0
 46
1.0
 50
0.0
 44
0.0
 45
0.0
 49
0.1
 74
     4
 75
     0
340
0
 46
1.0
 50
0.0
 44
0.0
 45
0.0
 49
-0.3
 74
     4
 75
     0
340
0
 46
1.0
 50
0.0
 44
0.0
 45
0.0
  0
LTYPE
  5
71
330
5
100
AcDbSymbolTableRecord
100
AcDbLinetypeTableRecord
  2
NEW_LINE3
 70
     0
  3

 72
    65
 73
     4
 40
1.2
 49
0.5
 74
     4
 75
     0
340
0
 46
1.0
 50
0.0
 44
0.0
 45
0.0
 49
-0.3
 74
     4
 75
     0
340
0
 46
1.0
 50
0.0
 44
0.0
 45
0.0
 49
0.1
 74
     4
 75
     0
340
0
 46
1.0
 50
0.0
 44
0.0
 45
0.0
 49
-0.3
 74
     4
 75
     0
340
0
 46
1.0
 50
0.0
 44
0.0
 45
0.0
  0
LTYPE
  5
73
330
5
100
AcDbSymbolTableRecord
100
AcDbLinetypeTableRecord
  2
NEW_LINE4
 70
     0
  3

 72
    65
 73
     4
 40
1.2
 49
0.5
 74
     4
 75
     0
340
0
 46
1.0
 50
0.0
 44
0.0
 45
0.0
 49
-0.3
 74
     4
 75
     0
340
0
 46
1.0
 50
0.0
 44
0.0
 45
0.0
 49
0.1
 74
     4
 75
     0
340
0
 46
1.0
 50
0.0
 44
0.0
 45
0.0
 49
-0.3
 74
     4
 75
     0
340
0
 46
1.0
 50
0.0
 44
0.0
 45
0.0
  0
LTYPE
  5
75
330
5
100
AcDbSymbolTableRecord
100
AcDbLinetypeTableRecord
  2
NEW_LINE5
 70
     0
  3

 72
    65
 73
     4
 40
1.2
 49
0.5
 74
     4
 75
     0
340
0
 46
1.0
 50
0.0
 44
0.0
 45
0.0
 49
-0.3
 74
     4
 75
     0
340
0
 46
1.0
 50
0.0
 44
0.0
 45
0.0
 49
0.1
 74
     4
 75
     0
340
0
 46
1.0
 50
0.0
 44
0.0
 45
0.0
 49
-0.3
 74
     4
 75
     0
340
0
 46
1.0
 50
0.0
 44
0.0
 45
0.0
  0
LTYPE
  5
77
330
5
100
AcDbSymbolTableRecord
100
AcDbLinetypeTableRecord
  2
NEW_LINE6
 70
     0
  3

 72
    65
 73
     4
 40
1.2
 49
0.5
 74
     4
 75
     0
340
0
 46
1.0
 50
0.0
 44
0.0
 45
0.0
 49
-0.3
 74
     4
 75
     0
340
0
 46
1.0
 50
0.0
 44
0.0
 45
0.0
 49
0.1
 74
     4
 75
     0
340
0
 46
1.0
 50
0.0
 44
0.0
 45
0.0
 49
-0.3
 74
     4
 75
     0
340
0
 46
1.0
 50
0.0
 44
0.0
 45
0.0
  0
LTYPE
  5
79
330
5
100
AcDbSymbolTableRecord
100
AcDbLinetypeTableRecord
  2
NEW_LINE7
 70
     0
  3

 72
    65
 73
     4
 40
1.2
 49
0.5
 74
     4
 75
     0
340
0
 46
1.0
 50
0.0
 44
0.0
 45
0.0
 49
-0.3
 74
     4
 75
     0
340
0
 46
1.0
 50
0.0
 44
0.0
 45
0.0
 49
0.1
 74
     4
 75
     0
340
0
 46
1.0
 50
0.0
 44
0.0
 45
0.0
 49
-0.3
 74
     4
 75
     0
340
0
 46
1.0
 50
0.0
 44
0.0
 45
0.0
  0
LTYPE
  5
7B
330
5
100
AcDbSymbolTableRecord
100
AcDbLinetypeTableRecord
  2
NEW_LINE8
 70
     0
  3

 72
    65
 73
     4
 40
1.2
 49
0.5
 74
     4
 75
     0
340
0
 46
1.0
 50
0.0
 44
0.0
 45
0.0
 49
-0.3
 74
     4
 75
     0
340
0
 46
1.0
 50
0.0
 44
0.0
 45
0.0
 49
0.1
 74
     4
 75
     0
340
0
 46
1.0
 50
0.0
 44
0.0
 45
0.0
 49
-0.3
 74
     4
 75
     0
340
0
 46
1.0
 50
0.0
 44
0.0
 45
0.0
  0
LTYPE
  5
7D
330
5
100
AcDbSymbolTableRecord
100
AcDbLinetypeTableRecord
  2
NEW_LINE9
 70
     0
  3

 72
    65
 73
     4
 40
1.2
 49
0.5
 74
     4
 75
     0
340
0
 46
1.0
 50
0.0
 44
0.0
 45
0.0
 49
-0.3
 74
     4
 75
     0
340
0
 46
1.0
 50
0.0
 44
0.0
 45
0.0
 49
0.1
 74
     4
 75
     0
340
0
 46
1.0
 50
0.0
 44
0.0
 45
0.0
 49
-0.3
 74
     4
 75
     0
340
0
 46
1.0
 50
0.0
 44
0.0
 45
0.0
  0
LTYPE
  5
7F
330
5
100
AcDbSymbolTableRecord
100
AcDbLinetypeTableRecord
  2
NEW_LINE10
 70
     0
  3

 72
    65
 73
     4
 40
1.2
 49
0.5
 74
     4
 75
     0
340
0
 46
1.0
 50
0.0
 44
0.0
 45
0.0
 49
-0.3
 74
     4
 75
     0
340
0
 46
1.0
 50
0.0
 44
0.0
 45
0.0
 49
0.1
 74
     4
 75
     0
340
0
 46
1.0
 50
0.0
 44
0.0
 45
0.0
 49
-0.3
 74
     4
 75
     0
340
0
 46
1.0
 50
0.0
 44
0.0
 45
0.0
  0
LTYPE
  5
81
330
5
100
AcDbSymbolTableRecord
100
AcDbLinetypeTableRecord
  2
NEW_LINE11
 70
     0
  3

 72
    65
 73
     4
 40
1.2
 49
0.5
 74
     4
 75
     0
340
0
 46
1.0
 50
0.0
 44
0.0
 45
0.0
 49
-0.3
 74
     4
 75
     0
340
0
 46
1.0
 50
0.0
 44
0.0
 45
0.0
 49
0.1
 74
     4
 75
     0
340
0
 46
1.0
 50
0.0
 44
0.0
 45
0.0
 49
-0.3
 74
     4
 75
     0
340
0
 46
1.0
 50
0.0
 44
0.0
 45
0.0
  0
LTYPE
  5
83
330
5
100
AcDbSymbolTableRecord
100
AcDbLinetypeTableRecord
  2
NEW_LINE12
 70
     0
  3

 72
    65
 73
     4
 40
1.2
 49
0.5
 74
     4
 75
     0
340
0
 46
1.0
 50
0.0
 44
0.0
 45
0.0
 49
-0.3
 74
     4
 75
     0
340
0
 46
1.0
 50
0.0
 44
0.0
 45
0.0
 49
0.1
 74
     4
 75
     0
340
0
 46
1.0
 50
0.0
 44
0.0
 45
0.0
 49
-0.3
 74
     4
 75
     0
340
0
 46
1.0
 50
0.0
 44
0.0
 45
0.0
  0
LTYPE
  5
85
330
5
100
AcDbSymbolTableRecord
100
AcDbLinetypeTableRecord
  2
NEW_LINE13
 70
     0
  3

 72
    65
 73
     4
 40
1.2
 49
0.5
 74
     4
 75
     0
340
0
 46
1.0
 50
0.0
 44
0.0
 45
0.0
 49
-0.3
 74
     4
 75
     0
340
0
 46
1.0
 50
0.0
 44
0.0
 45
0.0
 49
0.1
 74
     4
 75
     0
340
0
 46
1.0
 50
0.0
 44
0.0
 45
0.0
 49
-0.3
 74
     4
 75
     0
340
0
 46
1.0
 50
0.0
 44
0.0
 45
0.0
  0
LTYPE
  5
105
330
5
100
AcDbSymbolTableRecord
100
AcDbLinetypeTableRecord
  2
NEW_LINE14
 70
     0
  3

 72
    65
 73
     4
 40
1.2
 49
0.5
 74
     4
 75
     0
340
0
 46
1.0
 50
0.0
 44
0.0
 45
0.0
 49
-0.3
 74
     4
 75
     0
340
0
 46
1.0
 50
0.0
 44
0.0
 45
0.0
 49
0.1
 74
     4
 75
     0
340
0
 46
1.0
 50
0.0
 44
0.0
 45
0.0
 49
-0.3
 74
     4
 75
     0
340
0
 46
1.0
 50
0.0
 44
0.0
 45
0.0
  0
LTYPE
  5
11E
330
5
100
AcDbSymbolTableRecord
100
AcDbLinetypeTableRecord
  2
NEW_LINE15
 70
     0
  3

 72
    65
 73
     4
 40
1.2
 49
0.5
 74
     4
 75
     0
340
0
 46
1.0
 50
0.0
 44
0.0
 45
0.0
 49
-0.3
 74
     4
 75
     0
340
0
 46
1.0
 50
0.0
 44
0.0
 45
0.0
 49
0.1
 74
     4
 75
     0
340
0
 46
1.0
 50
0.0
 44
0.0
 45
0.0
 49
-0.3
 74
     4
 75
     0
340
0
 46
1.0
 50
0.0
 44
0.0
 45
0.0
  0
LTYPE
  5
120
330
5
100
AcDbSymbolTableRecord
100
AcDbLinetypeTableRecord
  2
NEW_LINE16
 70
     0
  3

 72
    65
 73
     4
 40
1.2
 49
0.5
 74
     4
 75
     0
340
0
 46
1.0
 50
0.0
 44
0.0
 45
0.0
 49
-0.3
 74
     4
 75
     0
340
0
 46
1.0
 50
0.0
 44
0.0
 45
0.0
 49
0.1
 74
     4
 75
     0
340
0
 46
1.0
 50
0.0
 44
0.0
 45
0.0
 49
-0.3
 74
     4
 75
     0
340
0
 46
1.0
 50
0.0
 44
0.0
 45
0.0
  0
ENDTAB
  0
TABLE
  2
LAYER
  5
2
330
0
100
AcDbSymbolTable
 70
     2
  0
LAYER
  5
10
330
2
100
AcDbSymbolTableRecord
100
AcDbLayerTableRecord
  2
0
 70
     0
 62
     7
  6
CONTINUOUS
  0
LAYER
  5
40
330
2
100
AcDbSymbolTableRecord
100
AcDbLayerTableRecord
  2
ROUND
 70
     0
 62
     7
  6
CONTINUOUS
  0
ENDTAB
  0
TABLE
  2
STYLE
  5
3
330
0
100
AcDbSymbolTable
 70
     1
  0
STYLE
  5
11
330
3
100
AcDbSymbolTableRecord
100
AcDbTextStyleTableRecord
  2
STANDARD
 70
     0
 40
0.0
 41
1.0
 50
0.0
 71
     0
 42
0.2
  3
txt
  4

  0
ENDTAB
  0
TABLE
  2
VIEW
  5
6
330
0
100
AcDbSymbolTable
 70
     0
  0
ENDTAB
  0
TABLE
  2
UCS
  5
7
330
0
100
AcDbSymbolTable
 70
     0
  0
ENDTAB
  0
TABLE
  2
APPID
  5
9
330
0
100
AcDbSymbolTable
 70
     2
  0
APPID
  5
12
330
9
100
AcDbSymbolTableRecord
100
AcDbRegAppTableRecord
  2
ACAD
 70
     0
  0
APPID
  5
3F
330
9
100
AcDbSymbolTableRecord
100
AcDbRegAppTableRecord
  2
ODA
 70
     0
  0
ENDTAB
  0
TABLE
  2
DIMSTYLE
  5
A
330
0
100
AcDbSymbolTable
 70
     1
  0
DIMSTYLE
105
27
330
A
100
AcDbSymbolTableRecord
100
AcDbDimStyleTableRecord
  2
STANDARD
 70
     0
  3

  4

  5

  6

  7

 40
1.0
 41
0.18
 42
0.0625
 43
0.38
 44
0.18
 45
0.0
 46
0.0
 47
0.0
 48
0.0
140
0.18
141
0.09
142
0.0
143
25.4
144
1.0
145
0.0
146
1.0
147
0.09
 71
     0
 72
     0
 73
     1
 74
     1
 75
     0
 76
     0
 77
     0
 78
     0
170
     0
171
     2
172
     0
173
     0
174
     0
175
     0
176
     0
177
     0
178
     0
270
     2
271
     4
272
     4
273
     2
274
     2
340
11
275
     0
280
     0
281
     0
282
     0
283
     1
284
     0
285
     0
286
     0
287
     3
288
     0
  0
ENDTAB
  0
TABLE
  2
BLOCK_RECORD
  5
1
330
0
100
AcDbSymbolTable
 70
     1
  0
BLOCK_RECORD
  5
1F
330
1
100
AcDbSymbolTableRecord
100
AcDbBlockTableRecord
  2
*MODEL_SPACE
  0
BLOCK_RECORD
  5
1B
330
1
100
AcDbSymbolTableRecord
100
AcDbBlockTableRecord
  2
*PAPER_SPACE
  0
ENDTAB
  0
ENDSEC
  0
SECTION
  2
BLOCKS
  0
BLOCK
  5
20
330
1F
100
AcDbEntity
  8
0
100
AcDbBlockBegin
  2
*MODEL_SPACE
 70
     0
 10
0.0
 20
0.0
 30
0.0
  3
*MODEL_SPACE
  1

  0
ENDBLK
  5
21
330
1F
100
AcDbEntity
  8
0
100
AcDbBlockEnd
  0
BLOCK
  5
1C
330
1B
100
AcDbEntity
 67
     1
  8
0
100
AcDbBlockBegin
  2
*PAPER_SPACE
 70
     0
 10
0.0
 20
0.0
 30
0.0
  3
*PAPER_SPACE
  1

  0
ENDBLK
  5
1D
330
1B
100
AcDbEntity
 67
     1
  8
0
100
AcDbBlockEnd
  0
ENDSEC
  0
SECTION
  2
ENTITIES
  0
SPLINE
  5
41
330
1F
100
AcDbEntity
  8
ROUND
 62
   250
100
AcDbSpline
210
0.0
220
0.0
230
1.0
 70
    11
 71
     3
 72
    40
 73
    36
 74
     0
 42
0.0000000001
 43
0.0000000001
 40
0.0
 40
0.0
 40
0.0
 40
0.0
 40
0.1
 40
0.1
 40
0.1
 40
0.1
 40
0.2
 40
0.2
 40
0.2
 40
0.2
 40
0.3
 40
0.3
 40
0.3
 40
0.3
 40
0.4
 40
0.4
 40
0.4
 40
0.4
 40
0.5
 40
0.5
 40
0.5
 40
0.5
 40
0.6
 40
0.6
 40
0.6
 40
0.6
 40
0.7
 40
0.7
 40
0.7
 40
0.7
 40
0.8
 40
0.8
 40
0.8
 40
0.8
 40
1.0
 40
1.0
 40
1.0
 40
1.0
 10
-24.4168
 20
0.4539
 30
0.0
 10
-24.4168
 20
0.4539
 30
0.0
 10
-24.4168
 20
0.206
 30
0.0
 10
-24.4168
 20
0.206
 30
0.0
 10
-24.4168
 20
0.206
 30
0.0
 10
-24.4168
 20
0.206
 30
0.0
 10
-25.9972
 20
0.206
 30
0.0
 10
-25.9972
 20
0.206
 30
0.0
 10
-25.9972
 20
0.206
 30
0.0
 10
-25.9403
 20
0.1462
 30
0.0
 10
-25.8834
 20
0.0682
 30
0.0
 10
-25.8265
 20
-0.0287
 30
0.0
 10
-25.8265
 20
-0.0287
 30
0.0
 10
-25.7696
 20
-0.1261
 30
0.0
 10
-25.7268
 20
-0.2131
 30
0.0
 10
-25.6985
 20
-0.2903
 30
0.0
 10
-25.6985
 20
-0.2903
 30
0.0
 10
-25.6985
 20
-0.2903
 30
0.0
 10
-25.938
 20
-0.2903
 30
0.0
 10
-25.938
 20
-0.2903
 30
0.0
 10
-25.938
 20
-0.2903
 30
0.0
 10
-26.0033
 20
-0.1515
 30
0.0
 10
-26.0824
 20
-0.0301
 30
0.0
 10
-26.175
 20
0.0738
 30
0.0
 10
-26.175
 20
0.0738
 30
0.0
 10
-26.2682
 20
0.1773
 30
0.0
 10
-26.358
 20
0.2511
 30
0.0
 10
-26.4455
 20
0.2944
 30
0.0
 10
-26.4455
 20
0.2944
 30
0.0
 10
-26.4455
 20
0.2944
 30
0.0
 10
-26.4455
 20
0.4539
 30
0.0
 10
-26.4455
 20
0.4539
 30
0.0
 10
-26.4455
 20
0.4539
 30
0.0
 10
-26.4455
 20
0.4539
 30
0.0
 10
-24.4168
 20
0.4539
 30
0.0
 10
-24.4168
 20
0.4539
 30
0.0
  0
SPLINE
  5
42
330
1F
100
AcDbEntity
  8
ROUND
 62
   250
100
AcDbSpline
210
0.0
220
0.0
230
1.0
 70
    11
 71
     3
 72
    40
 73
    36
 74
     0
 42
0.0000000001
 43
0.0000000001
 40
0.0
 40
0.0
 40
0.0
 40
0.0
 40
0.1
 40
0.1
 40
0.1
 40
0.1
 40
0.2
 40
0.2
 40
0.2
 40
0.2
 40
0.3
 40
0.3
 40
0.3
 40
0.3
 40
0.4
 40
0.4
 40
0.4
 40
0.4
 40
0.5
 40
0.5
 40
0.5
 40
0.5
 40
0.6
 40
0.6
 40
0.6
 40
0.6
 40
0.7
 40
0.7
 40
0.7
 40
0.7
 40
0.8
 40
0.8
 40
0.8
 40
0.8
 40
1.0
 40
1.0
 40
1.0
 40
1.0
 10
-24.4168
 20
1.8142
 30
0.0
 10
-24.4168
 20
1.8142
 30
0.0
 10
-24.4168
 20
1.5663
 30
0.0
 10
-24.4168
 20
1.5663
 30
0.0
 10
-24.4168
 20
1.5663
 30
0.0
 10
-24.4168
 20
1.5663
 30
0.0
 10
-25.9972
 20
1.5663
 30
0.0
 10
-25.9972
 20
1.5663
 30
0.0
 10
-25.9972
 20
1.5663
 30
0.0
 10
-25.9403
 20
1.5065
 30
0.0
 10
-25.8834
 20
1.4285
 30
0.0
 10
-25.8265
 20
1.3316
 30
0.0
 10
-25.8265
 20
1.3316
 30
0.0
 10
-25.7696
 20
1.2342
 30
0.0
 10
-25.7268
 20
1.1472
 30
0.0
 10
-25.6985
 20
1.07
 30
0.0
 10
-25.6985
 20
1.07
 30
0.0
 10
-25.6985
 20
1.07
 30
0.0
 10
-25.938
 20
1.07
 30
0.0
 10
-25.938
 20
1.07
 30
0.0
 10
-25.938
 20
1.07
 30
0.0
 10
-26.0033
 20
1.2088
 30
0.0
 10
-26.0824
 20
1.3302
 30
0.0
 10
-26.175
 20
1.4341
 30
0.0
 10
-26.175
 20
1.4341
 30
0.0
 10
-26.2682
 20
1.5376
 30
0.0
 10
-26.358
 20
1.6114
 30
0.0
 10
-26.4455
 20
1.6547
 30
0.0
 10
-26.4455
 20
1.6547
 30
0.0
 10
-26.4455
 20
1.6547
 30
0.0
 10
-26.4455
 20
1.8142
 30
0.0
 10
-26.4455
 20
1.8142
 30
0.0
 10
-26.4455
 20
1.8142
 30
0.0
 10
-26.4455
 20
1.8142
 30
0.0
 10
-24.4168
 20
1.8142
 30
0.0
 10
-24.4168
 20
1.8142
 30
0.0
  0
SPLINE
  5
43
330
1F
100
AcDbEntity
  8
ROUND
 62
   250
100
AcDbSpline
210
0.0
220
0.0
230
1.0
 70
    11
 71
     3
 72
    92
 73
    88
 74
     0
 42
0.0000000001
 43
0.0000000001
 40
0.0
 40
0.0
 40
0.0
 40
0.0
 40
0.0434782608695652
 40
0.0434782608695652
 40
0.0434782608695652
 40
0.0434782608695652
 40
0.0869565217391304
 40
0.0869565217391304
 40
0.0869565217391304
 40
0.0869565217391304
 40
0.1304347826086956
 40
0.1304347826086956
 40
0.1304347826086956
 40
0.1304347826086956
 40
0.1739130434782609
 40
0.1739130434782609
 40
0.1739130434782609
 40
0.1739130434782609
 40
0.2173913043478261
 40
0.2173913043478261
 40
0.2173913043478261
 40
0.2173913043478261
 40
0.2608695652173913
 40
0.2608695652173913
 40
0.2608695652173913
 40
0.2608695652173913
 40
0.3043478260869565
 40
0.3043478260869565
 40
0.3043478260869565
 40
0.3043478260869565
 40
0.3478260869565217
 40
0.3478260869565217
 40
0.3478260869565217
 40
0.3478260869565217
 40
0.391304347826087
 40
0.391304347826087
 40
0.391304347826087
 40
0.391304347826087
 40
0.4347826086956522
 40
0.4347826086956522
 40
0.4347826086956522
 40
0.4347826086956522
 40
0.4782608695652174
 40
0.4782608695652174
 40
0.4782608695652174
 40
0.4782608695652174
 40
0.5217391304347826
 40
0.5217391304347826
 40
0.5217391304347826
 40
0.5217391304347826
 40
0.5652173913043478
 40
0.5652173913043478
 40
0.5652173913043478
 40
0.5652173913043478
 40
0.6086956521739131
 40
0.6086956521739131
 40
0.6086956521739131
 40
0.6086956521739131
 40
0.6521739130434783
 40
0.6521739130434783
 40
0.6521739130434783
 40
0.6521739130434783
 40
0.6956521739130435
 40
0.6956521739130435
 40
0.6956521739130435
 40
0.6956521739130435
 40
0.7391304347826086
 40
0.7391304347826086
 40
0.7391304347826086
 40
0.7391304347826086
 40
0.782608695652174
 40
0.782608695652174
 40
0.782608695652174
 40
0.782608695652174
 40
0.8260869565217391
 40
0.8260869565217391
 40
0.8260869565217391
 40
0.8260869565217391
 40
0.8695652173913043
 40
0.8695652173913043
 40
0.8695652173913043
 40
0.8695652173913043
 40
0.9130434782608695
 40
0.9130434782608695
 40
0.9130434782608695
 40
0.9130434782608695
 40
1.0
 40
1.0
 40
1.0
 40
1.0
 10
-24.946
 20
2.4496
 30
0.0
 10
-24.946
 20
2.4496
 30
0.0
 10
-24.9681
 20
2.7102
 30
0.0
 10
-24.9681
 20
2.7102
 30
0.0
 10
-24.9681
 20
2.7102
 30
0.0
 10
-24.8411
 20
2.7295
 30
0.0
 10
-24.7461
 20
2.7742
 30
0.0
 10
-24.6821
 20
2.8443
 30
0.0
 10
-24.6821
 20
2.8443
 30
0.0
 10
-24.6181
 20
2.9148
 30
0.0
 10
-24.5861
 20
2.9995
 30
0.0
 10
-24.5861
 20
3.0987
 30
0.0
 10
-24.5861
 20
3.0987
 30
0.0
 10
-24.5861
 20
3.2182
 30
0.0
 10
-24.6313
 20
3.3193
 30
0.0
 10
-24.7211
 20
3.4016
 30
0.0
 10
-24.7211
 20
3.4016
 30
0.0
 10
-24.8114
 20
3.4844
 30
0.0
 10
-24.9309
 20
3.5258
 30
0.0
 10
-25.0795
 20
3.5258
 30
0.0
 10
-25.0795
 20
3.5258
 30
0.0
 10
-25.2211
 20
3.5258
 30
0.0
 10
-25.3326
 20
3.4863
 30
0.0
 10
-25.4144
 20
3.4068
 30
0.0
 10
-25.4144
 20
3.4068
 30
0.0
 10
-25.4963
 20
3.3273
 30
0.0
 10
-25.5372
 20
3.2234
 30
0.0
 10
-25.5372
 20
3.0945
 30
0.0
 10
-25.5372
 20
3.0945
 30
0.0
 10
-25.5372
 20
3.0145
 30
0.0
 10
-25.5189
 20
2.9426
 30
0.0
 10
-25.4827
 20
2.8781
 30
0.0
 10
-25.4827
 20
2.8781
 30
0.0
 10
-25.4464
 20
2.8137
 30
0.0
 10
-25.3994
 20
2.7634
 30
0.0
 10
-25.3415
 20
2.7267
 30
0.0
 10
-25.3415
 20
2.7267
 30
0.0
 10
-25.3415
 20
2.7267
 30
0.0
 10
-25.3716
 20
2.4938
 30
0.0
 10
-25.3716
 20
2.4938
 30
0.0
 10
-25.3716
 20
2.4938
 30
0.0
 10
-25.3716
 20
2.4938
 30
0.0
 10
-26.4093
 20
2.6895
 30
0.0
 10
-26.4093
 20
2.6895
 30
0.0
 10
-26.4093
 20
2.6895
 30
0.0
 10
-26.4093
 20
2.6895
 30
0.0
 10
-26.4093
 20
3.6942
 30
0.0
 10
-26.4093
 20
3.6942
 30
0.0
 10
-26.4093
 20
3.6942
 30
0.0
 10
-26.4093
 20
3.6942
 30
0.0
 10
-26.1722
 20
3.6942
 30
0.0
 10
-26.1722
 20
3.6942
 30
0.0
 10
-26.1722
 20
3.6942
 30
0.0
 10
-26.1722
 20
3.6942
 30
0.0
 10
-26.1722
 20
2.888
 30
0.0
 10
-26.1722
 20
2.888
 30
0.0
 10
-26.1722
 20
2.888
 30
0.0
 10
-26.1722
 20
2.888
 30
0.0
 10
-25.6294
 20
2.7789
 30
0.0
 10
-25.6294
 20
2.7789
 30
0.0
 10
-25.6294
 20
2.7789
 30
0.0
 10
-25.7141
 20
2.9002
 30
0.0
 10
-25.7564
 20
3.0277
 30
0.0
 10
-25.7564
 20
3.1608
 30
0.0
 10
-25.7564
 20
3.1608
 30
0.0
 10
-25.7564
 20
3.3372
 30
0.0
 10
-25.6953
 20
3.4858
 30
0.0
 10
-25.573
 20
3.6072
 30
0.0
 10
-25.573
 20
3.6072
 30
0.0
 10
-25.4507
 20
3.7285
 30
0.0
 10
-25.2936
 20
3.7892
 30
0.0
 10
-25.1017
 20
3.7892
 30
0.0
 10
-25.1017
 20
3.7892
 30
0.0
 10
-24.9187
 20
3.7892
 30
0.0
 10
-24.7606
 20
3.7356
 30
0.0
 10
-24.6275
 20
3.6293
 30
0.0
 10
-24.6275
 20
3.6293
 30
0.0
 10
-24.4643
 20
3.4995
 30
0.0
 10
-24.3825
 20
3.3226
 30
0.0
 10
-24.3825
 20
3.0987
 30
0.0
 10
-24.3825
 20
3.0987
 30
0.0
 10
-24.3825
 20
2.9148
 30
0.0
 10
-24.4337
 20
2.7648
 30
0.0
 10
-24.5367
 20
2.6486
 30
0.0
 10
-24.5367
 20
2.6486
 30
0.0
 10
-24.6398
 20
2.5324
 30
0.0
 10
-24.7762
 20
2.4661
 30
0.0
 10
-24.946
 20
2.4496
 30
0.0
  0
SPLINE
  5
44
330
1F
100
AcDbEntity
  8
ROUND
 62
   250
100
AcDbSpline
210
0.0
220
0.0
230
1.0
 70
    11
 71
     3
 72
    20
 73
    16
 74
     0
 42
0.0000000001
 43
0.0000000001
 40
0.0
 40
0.0
 40
0.0
 40
0.0
 40
0.2
 40
0.2
 40
0.2
 40
0.2
 40
0.4
 40
0.4
 40
0.4
 40
0.4
 40
0.6
 40
0.6
 40
0.6
 40
0.6
 40
1.0
 40
1.0
 40
1.0
 40
1.0
 10
-3.2371
 20
-23.5927
 30
0.0
 10
-3.2371
 20
-23.5927
 30
0.0
 10
-0.7371
 20
-23.9456
 30
0.0
 10
-0.7371
 20
-23.9456
 30
0.0
 10
-0.7371
 20
-23.9456
 30
0.0
 10
-0.7371
 20
-23.9456
 30
0.0
 10
-0.7371
 20
-24.0239
 30
0.0
 10
-0.7371
 20
-24.0239
 30
0.0
 10
-0.7371
 20
-24.0239
 30
0.0
 10
-0.7371
 20
-24.0239
 30
0.0
 10
-3.2371
 20
-24.4002
 30
0.0
 10
-3.2371
 20
-24.4002
 30
0.0
 10
-3.2371
 20
-24.4002
 30
0.0
 10
-3.2371
 20
-24.4002
 30
0.0
 10
-3.2371
 20
-23.5927
 30
0.0
 10
-3.2371
 20
-23.5927
 30
0.0
  0
SPLINE
  5
45
330
1F
100
AcDbEntity
  8
ROUND
 62
   250
100
AcDbSpline
210
0.0
220
0.0
230
1.0
 70
    11
 71
     3
 72
    20
 73
    16
 74
     0
 42
0.0000000001
 43
0.0000000001
 40
0.0
 40
0.0
 40
0.0
 40
0.0
 40
0.2
 40
0.2
 40
0.2
 40
0.2
 40
0.4
 40
0.4
 40
0.4
 40
0.4
 40
0.6
 40
0.6
 40
0.6
 40
0.6
 40
1.0
 40
1.0
 40
1.0
 40
1.0
 10
-13.4169
 20
-24.3917
 30
0.0
 10
-13.4169
 20
-24.3917
 30
0.0
 10
-15.9169
 20
-24.0388
 30
0.0
 10
-15.9169
 20
-24.0388
 30
0.0
 10
-15.9169
 20
-24.0388
 30
0.0
 10
-15.9169
 20
-24.0388
 30
0.0
 10
-15.9169
 20
-23.9605
 30
0.0
 10
-15.9169
 20
-23.9605
 30
0.0
 10
-15.9169
 20
-23.9605
 30
0.0
 10
-15.9169
 20
-23.9605
 30
0.0
 10
-13.4169
 20
-23.5842
 30
0.0
 10
-13.4169
 20
-23.5842
 30
0.0
 10
-13.4169
 20
-23.5842
 30
0.0
 10
-13.4169
 20
-23.5842
 30
0.0
 10
-13.4169
 20
-24.3917
 30
0.0
 10
-13.4169
 20
-24.3917
 30
0.0
  0
SPLINE
  5
46
330
1F
100
AcDbEntity
  8
ROUND
 62
   250
100
AcDbSpline
210
0.0
220
0.0
230
1.0
 70
    11
 71
     3
 72
   120
 73
   116
 74
     0
 42
0.0000000001
 43
0.0000000001
 40
0.0
 40
0.0
 40
0.0
 40
0.0
 40
0.0333333333333333
 40
0.0333333333333333
 40
0.0333333333333333
 40
0.0333333333333333
 40
0.0666666666666667
 40
0.0666666666666667
 40
0.0666666666666667
 40
0.0666666666666667
 40
0.1
 40
0.1
 40
0.1
 40
0.1
 40
0.1333333333333333
 40
0.1333333333333333
 40
0.1333333333333333
 40
0.1333333333333333
 40
0.1666666666666667
 40
0.1666666666666667
 40
0.1666666666666667
 40
0.1666666666666667
 40
0.2
 40
0.2
 40
0.2
 40
0.2
 40
0.2333333333333333
 40
0.2333333333333333
 40
0.2333333333333333
 40
0.2333333333333333
 40
0.2666666666666667
 40
0.2666666666666667
 40
0.2666666666666667
 40
0.2666666666666667
 40
0.3
 40
0.3
 40
0.3
 40
0.3
 40
0.3333333333333333
 40
0.3333333333333333
 40
0.3333333333333333
 40
0.3333333333333333
 40
0.3666666666666666
 40
0.3666666666666666
 40
0.3666666666666666
 40
0.3666666666666666
 40
0.4
 40
0.4
 40
0.4
 40
0.4
 40
0.4333333333333333
 40
0.4333333333333333
 40
0.4333333333333333
 40
0.4333333333333333
 40
0.4666666666666667
 40
0.4666666666666667
 40
0.4666666666666667
 40
0.4666666666666667
 40
0.5
 40
0.5
 40
0.5
 40
0.5
 40
0.5333333333333333
 40
0.5333333333333333
 40
0.5333333333333333
 40
0.5333333333333333
 40
0.5666666666666667
 40
0.5666666666666667
 40
0.5666666666666667
 40
0.5666666666666667
 40
0.6
 40
0.6
 40
0.6
 40
0.6
 40
0.6333333333333333
 40
0.6333333333333333
 40
0.6333333333333333
 40
0.6333333333333333
 40
0.6666666666666666
 40
0.6666666666666666
 40
0.6666666666666666
 40
0.6666666666666666
 40
0.7
 40
0.7
 40
0.7
 40
0.7
 40
0.7333333333333333
 40
0.7333333333333333
 40
0.7333333333333333
 40
0.7333333333333333
 40
0.7666666666666667
 40
0.7666666666666667
 40
0.7666666666666667
 40
0.7666666666666667
 40
0.8
 40
0.8
 40
0.8
 40
0.8
 40
0.8333333333333334
 40
0.8333333333333334
 40
0.8333333333333334
 40
0.8333333333333334
 40
0.8666666666666667
 40
0.8666666666666667
 40
0.8666666666666667
 40
0.8666666666666667
 40
0.9
 40
0.9
 40
0.9
 40
0.9
 40
0.9333333333333333
 40
0.9333333333333333
 40
0.9333333333333333
 40
0.9333333333333333
 40
1.0
 40
1.0
 40
1.0
 40
1.0
 10
-10.6672
 20
-22.3186
 30
0.0
 10
-10.6672
 20
-22.3186
 30
0.0
 10
-10.6672
 20
-22.082
 30
0.0
 10
-10.6672
 20
-22.082
 30
0.0
 10
-10.6672
 20
-22.082
 30
0.0
 10
-10.6672
 20
-22.082
 30
0.0
 10
-9.8116
 20
-22.0806
 30
0.0
 10
-9.8116
 20
-22.0806
 30
0.0
 10
-9.8116
 20
-22.0806
 30
0.0
 10
-9.8116
 20
-22.0806
 30
0.0
 10
-9.8116
 20
-22.8299
 30
0.0
 10
-9.8116
 20
-22.8299
 30
0.0
 10
-9.8116
 20
-22.8299
 30
0.0
 10
-9.9428
 20
-22.9348
 30
0.0
 10
-10.0783
 20
-23.0134
 30
0.0
 10
-10.218
 20
-23.0665
 30
0.0
 10
-10.218
 20
-23.0665
 30
0.0
 10
-10.3577
 20
-23.1192
 30
0.0
 10
-10.5011
 20
-23.1455
 30
0.0
 10
-10.6479
 20
-23.1455
 30
0.0
 10
-10.6479
 20
-23.1455
 30
0.0
 10
-10.8464
 20
-23.1455
 30
0.0
 10
-11.027
 20
-23.1032
 30
0.0
 10
-11.1888
 20
-23.0181
 30
0.0
 10
-11.1888
 20
-23.0181
 30
0.0
 10
-11.3511
 20
-22.9334
 30
0.0
 10
-11.4734
 20
-22.8102
 30
0.0
 10
-11.5562
 20
-22.6498
 30
0.0
 10
-11.5562
 20
-22.6498
 30
0.0
 10
-11.639
 20
-22.4889
 30
0.0
 10
-11.6804
 20
-22.3092
 30
0.0
 10
-11.6804
 20
-22.1107
 30
0.0
 10
-11.6804
 20
-22.1107
 30
0.0
 10
-11.6804
 20
-21.9141
 30
0.0
 10
-11.639
 20
-21.7307
 30
0.0
 10
-11.5566
 20
-21.5604
 30
0.0
 10
-11.5566
 20
-21.5604
 30
0.0
 10
-11.4748
 20
-21.3897
 30
0.0
 10
-11.3563
 20
-21.2631
 30
0.0
 10
-11.202
 20
-21.1803
 30
0.0
 10
-11.202
 20
-21.1803
 30
0.0
 10
-11.0477
 20
-21.098
 30
0.0
 10
-10.8699
 20
-21.0566
 30
0.0
 10
-10.6686
 20
-21.0566
 30
0.0
 10
-10.6686
 20
-21.0566
 30
0.0
 10
-10.5228
 20
-21.0566
 30
0.0
 10
-10.3906
 20
-21.0802
 30
0.0
 10
-10.2725
 20
-21.1277
 30
0.0
 10
-10.2725
 20
-21.1277
 30
0.0
 10
-10.1545
 20
-21.1747
 30
0.0
 10
-10.0618
 20
-21.2406
 30
0.0
 10
-9.995
 20
-21.3252
 30
0.0
 10
-9.995
 20
-21.3252
 30
0.0
 10
-9.9278
 20
-21.4099
 30
0.0
 10
-9.877
 20
-21.5199
 30
0.0
 10
-9.8417
 20
-21.6559
 30
0.0
 10
-9.8417
 20
-21.6559
 30
0.0
 10
-9.8417
 20
-21.6559
 30
0.0
 10
-10.083
 20
-21.7222
 30
0.0
 10
-10.083
 20
-21.7222
 30
0.0
 10
-10.083
 20
-21.7222
 30
0.0
 10
-10.1136
 20
-21.6192
 30
0.0
 10
-10.1512
 20
-21.5383
 30
0.0
 10
-10.1959
 20
-21.4795
 30
0.0
 10
-10.1959
 20
-21.4795
 30
0.0
 10
-10.241
 20
-21.4207
 30
0.0
 10
-10.3055
 20
-21.3737
 30
0.0
 10
-10.3892
 20
-21.3384
 30
0.0
 10
-10.3892
 20
-21.3384
 30
0.0
 10
-10.4725
 20
-21.3031
 30
0.0
 10
-10.5656
 20
-21.2852
 30
0.0
 10
-10.6672
 20
-21.2852
 30
0.0
 10
-10.6672
 20
-21.2852
 30
0.0
 10
-10.7895
 20
-21.2852
 30
0.0
 10
-10.8953
 20
-21.3041
 30
0.0
 10
-10.9842
 20
-21.3412
 30
0.0
 10
-10.9842
 20
-21.3412
 30
0.0
 10
-11.0736
 20
-21.3784
 30
0.0
 10
-11.1451
 20
-21.4273
 30
0.0
 10
-11.2001
 20
-21.488
 30
0.0
 10
-11.2001
 20
-21.488
 30
0.0
 10
-11.2547
 20
-21.5486
 30
0.0
 10
-11.297
 20
-21.615
 30
0.0
 10
-11.3276
 20
-21.6879
 30
0.0
 10
-11.3276
 20
-21.6879
 30
0.0
 10
-11.3788
 20
-21.8125
 30
0.0
 10
-11.4047
 20
-21.948
 30
0.0
 10
-11.4047
 20
-22.0943
 30
0.0
 10
-11.4047
 20
-22.0943
 30
0.0
 10
-11.4047
 20
-22.2744
 30
0.0
 10
-11.3737
 20
-22.4249
 30
0.0
 10
-11.3116
 20
-22.5463
 30
0.0
 10
-11.3116
 20
-22.5463
 30
0.0
 10
-11.2495
 20
-22.6676
 30
0.0
 10
-11.1592
 20
-22.7575
 30
0.0
 10
-11.0407
 20
-22.8163
 30
0.0
 10
-11.0407
 20
-22.8163
 30
0.0
 10
-10.9221
 20
-22.8751
 30
0.0
 10
-10.7965
 20
-22.9047
 30
0.0
 10
-10.6634
 20
-22.9047
 30
0.0
 10
-10.6634
 20
-22.9047
 30
0.0
 10
-10.5472
 20
-22.9047
 30
0.0
 10
-10.4344
 20
-22.8821
 30
0.0
 10
-10.3243
 20
-22.8374
 30
0.0
 10
-10.3243
 20
-22.8374
 30
0.0
 10
-10.2137
 20
-22.7932
 30
0.0
 10
-10.1305
 20
-22.7457
 30
0.0
 10
-10.0736
 20
-22.6949
 30
0.0
 10
-10.0736
 20
-22.6949
 30
0.0
 10
-10.0736
 20
-22.6949
 30
0.0
 10
-10.0736
 20
-22.3186
 30
0.0
 10
-10.0736
 20
-22.3186
 30
0.0
 10
-10.0736
 20
-22.3186
 30
0.0
 10
-10.0736
 20
-22.3186
 30
0.0
 10
-10.6672
 20
-22.3186
 30
0.0
 10
-10.6672
 20
-22.3186
 30
0.0
  0
SPLINE
  5
47
330
1F
100
AcDbEntity
  8
ROUND
 62
   250
100
AcDbSpline
210
0.0
220
0.0
230
1.0
 70
    11
 71
     3
 72
    92
 73
    88
 74
     0
 42
0.0000000001
 43
0.0000000001
 40
0.0
 40
0.0
 40
0.0
 40
0.0
 40
0.0434782608695652
 40
0.0434782608695652
 40
0.0434782608695652
 40
0.0434782608695652
 40
0.0869565217391304
 40
0.0869565217391304
 40
0.0869565217391304
 40
0.0869565217391304
 40
0.1304347826086956
 40
0.1304347826086956
 40
0.1304347826086956
 40
0.1304347826086956
 40
0.1739130434782609
 40
0.1739130434782609
 40
0.1739130434782609
 40
0.1739130434782609
 40
0.2173913043478261
 40
0.2173913043478261
 40
0.2173913043478261
 40
0.2173913043478261
 40
0.2608695652173913
 40
0.2608695652173913
 40
0.2608695652173913
 40
0.2608695652173913
 40
0.3043478260869565
 40
0.3043478260869565
 40
0.3043478260869565
 40
0.3043478260869565
 40
0.3478260869565217
 40
0.3478260869565217
 40
0.3478260869565217
 40
0.3478260869565217
 40
0.391304347826087
 40
0.391304347826087
 40
0.391304347826087
 40
0.391304347826087
 40
0.4347826086956522
 40
0.4347826086956522
 40
0.4347826086956522
 40
0.4347826086956522
 40
0.4782608695652174
 40
0.4782608695652174
 40
0.4782608695652174
 40
0.4782608695652174
 40
0.5217391304347826
 40
0.5217391304347826
 40
0.5217391304347826
 40
0.5217391304347826
 40
0.5652173913043478
 40
0.5652173913043478
 40
0.5652173913043478
 40
0.5652173913043478
 40
0.6086956521739131
 40
0.6086956521739131
 40
0.6086956521739131
 40
0.6086956521739131
 40
0.6521739130434783
 40
0.6521739130434783
 40
0.6521739130434783
 40
0.6521739130434783
 40
0.6956521739130435
 40
0.6956521739130435
 40
0.6956521739130435
 40
0.6956521739130435
 40
0.7391304347826086
 40
0.7391304347826086
 40
0.7391304347826086
 40
0.7391304347826086
 40
0.782608695652174
 40
0.782608695652174
 40
0.782608695652174
 40
0.782608695652174
 40
0.8260869565217391
 40
0.8260869565217391
 40
0.8260869565217391
 40
0.8260869565217391
 40
0.8695652173913043
 40
0.8695652173913043
 40
0.8695652173913043
 40
0.8695652173913043
 40
0.9130434782608695
 40
0.9130434782608695
 40
0.9130434782608695
 40
0.9130434782608695
 40
1.0
 40
1.0
 40
1.0
 40
1.0
 10
-8.734
 20
-22.582
 30
0.0
 10
-8.734
 20
-22.582
 30
0.0
 10
-8.4734
 20
-22.5599
 30
0.0
 10
-8.4734
 20
-22.5599
 30
0.0
 10
-8.4734
 20
-22.5599
 30
0.0
 10
-8.4541
 20
-22.6869
 30
0.0
 10
-8.4094
 20
-22.7819
 30
0.0
 10
-8.3393
 20
-22.8459
 30
0.0
 10
-8.3393
 20
-22.8459
 30
0.0
 10
-8.2688
 20
-22.9099
 30
0.0
 10
-8.1841
 20
-22.9419
 30
0.0
 10
-8.0849
 20
-22.9419
 30
0.0
 10
-8.0849
 20
-22.9419
 30
0.0
 10
-7.9654
 20
-22.9419
 30
0.0
 10
-7.8643
 20
-22.8967
 30
0.0
 10
-7.782
 20
-22.8069
 30
0.0
 10
-7.782
 20
-22.8069
 30
0.0
 10
-7.6992
 20
-22.7166
 30
0.0
 10
-7.6578
 20
-22.5971
 30
0.0
 10
-7.6578
 20
-22.4485
 30
0.0
 10
-7.6578
 20
-22.4485
 30
0.0
 10
-7.6578
 20
-22.3069
 30
0.0
 10
-7.6973
 20
-22.1954
 30
0.0
 10
-7.7768
 20
-22.1136
 30
0.0
 10
-7.7768
 20
-22.1136
 30
0.0
 10
-7.8563
 20
-22.0317
 30
0.0
 10
-7.9602
 20
-21.9908
 30
0.0
 10
-8.0891
 20
-21.9908
 30
0.0
 10
-8.0891
 20
-21.9908
 30
0.0
 10
-8.1691
 20
-21.9908
 30
0.0
 10
-8.241
 20
-22.0091
 30
0.0
 10
-8.3055
 20
-22.0453
 30
0.0
 10
-8.3055
 20
-22.0453
 30
0.0
 10
-8.3699
 20
-22.0816
 30
0.0
 10
-8.4202
 20
-22.1286
 30
0.0
 10
-8.4569
 20
-22.1865
 30
0.0
 10
-8.4569
 20
-22.1865
 30
0.0
 10
-8.4569
 20
-22.1865
 30
0.0
 10
-8.6898
 20
-22.1564
 30
0.0
 10
-8.6898
 20
-22.1564
 30
0.0
 10
-8.6898
 20
-22.1564
 30
0.0
 10
-8.6898
 20
-22.1564
 30
0.0
 10
-8.4941
 20
-21.1187
 30
0.0
 10
-8.4941
 20
-21.1187
 30
0.0
 10
-8.4941
 20
-21.1187
 30
0.0
 10
-8.4941
 20
-21.1187
 30
0.0
 10
-7.4894
 20
-21.1187
 30
0.0
 10
-7.4894
 20
-21.1187
 30
0.0
 10
-7.4894
 20
-21.1187
 30
0.0
 10
-7.4894
 20
-21.1187
 30
0.0
 10
-7.4894
 20
-21.3558
 30
0.0
 10
-7.4894
 20
-21.3558
 30
0.0
 10
-7.4894
 20
-21.3558
 30
0.0
 10
-7.4894
 20
-21.3558
 30
0.0
 10
-8.2956
 20
-21.3558
 30
0.0
 10
-8.2956
 20
-21.3558
 30
0.0
 10
-8.2956
 20
-21.3558
 30
0.0
 10
-8.2956
 20
-21.3558
 30
0.0
 10
-8.4047
 20
-21.8986
 30
0.0
 10
-8.4047
 20
-21.8986
 30
0.0
 10
-8.4047
 20
-21.8986
 30
0.0
 10
-8.2834
 20
-21.8139
 30
0.0
 10
-8.1559
 20
-21.7716
 30
0.0
 10
-8.0228
 20
-21.7716
 30
0.0
 10
-8.0228
 20
-21.7716
 30
0.0
 10
-7.8464
 20
-21.7716
 30
0.0
 10
-7.6978
 20
-21.8327
 30
0.0
 10
-7.5764
 20
-21.955
 30
0.0
 10
-7.5764
 20
-21.955
 30
0.0
 10
-7.4551
 20
-22.0773
 30
0.0
 10
-7.3944
 20
-22.2344
 30
0.0
 10
-7.3944
 20
-22.4263
 30
0.0
 10
-7.3944
 20
-22.4263
 30
0.0
 10
-7.3944
 20
-22.6093
 30
0.0
 10
-7.448
 20
-22.7674
 30
0.0
 10
-7.5543
 20
-22.9005
 30
0.0
 10
-7.5543
 20
-22.9005
 30
0.0
 10
-7.6841
 20
-23.0637
 30
0.0
 10
-7.861
 20
-23.1455
 30
0.0
 10
-8.0849
 20
-23.1455
 30
0.0
 10
-8.0849
 20
-23.1455
 30
0.0
 10
-8.2688
 20
-23.1455
 30
0.0
 10
-8.4188
 20
-23.0943
 30
0.0
 10
-8.535
 20
-22.9913
 30
0.0
 10
-8.535
 20
-22.9913
 30
0.0
 10
-8.6512
 20
-22.8882
 30
0.0
 10
-8.7175
 20
-22.7518
 30
0.0
 10
-8.734
 20
-22.582
 30
0.0
  0
SPLINE
  5
48
330
1F
100
AcDbEntity
  8
ROUND
 62
   250
100
AcDbSpline
210
0.0
220
0.0
230
1.0
 70
    11
 71
     3
 72
    20
 73
    16
 74
     0
 42
0.0000000001
 43
0.0000000001
 40
0.0
 40
0.0
 40
0.0
 40
0.0
 40
0.2
 40
0.2
 40
0.2
 40
0.2
 40
0.4
 40
0.4
 40
0.4
 40
0.4
 40
0.6
 40
0.6
 40
0.6
 40
0.6
 40
1.0
 40
1.0
 40
1.0
 40
1.0
 10
-7.2815
 20
-23.1455
 30
0.0
 10
-7.2815
 20
-23.1455
 30
0.0
 10
-6.6959
 20
-21.0566
 30
0.0
 10
-6.6959
 20
-21.0566
 30
0.0
 10
-6.6959
 20
-21.0566
 30
0.0
 10
-6.6959
 20
-21.0566
 30
0.0
 10
-6.4974
 20
-21.0566
 30
0.0
 10
-6.4974
 20
-21.0566
 30
0.0
 10
-6.4974
 20
-21.0566
 30
0.0
 10
-6.4974
 20
-21.0566
 30
0.0
 10
-7.0816
 20
-23.1455
 30
0.0
 10
-7.0816
 20
-23.1455
 30
0.0
 10
-7.0816
 20
-23.1455
 30
0.0
 10
-7.0816
 20
-23.1455
 30
0.0
 10
-7.2815
 20
-23.1455
 30
0.0
 10
-7.2815
 20
-23.1455
 30
0.0
  0
SPLINE
  5
49
330
1F
100
AcDbEntity
  8
ROUND
 62
   250
100
AcDbSpline
210
0.0
220
0.0
230
1.0
 70
    11
 71
     3
 72
    48
 73
    44
 74
     0
 42
0.0000000001
 43
0.0000000001
 40
0.0
 40
0.0
 40
0.0
 40
0.0
 40
0.0833333333333333
 40
0.0833333333333333
 40
0.0833333333333333
 40
0.0833333333333333
 40
0.1666666666666667
 40
0.1666666666666667
 40
0.1666666666666667
 40
0.1666666666666667
 40
0.25
 40
0.25
 40
0.25
 40
0.25
 40
0.3333333333333333
 40
0.3333333333333333
 40
0.3333333333333333
 40
0.3333333333333333
 40
0.4166666666666667
 40
0.4166666666666667
 40
0.4166666666666667
 40
0.4166666666666667
 40
0.5
 40
0.5
 40
0.5
 40
0.5
 40
0.5833333333333334
 40
0.5833333333333334
 40
0.5833333333333334
 40
0.5833333333333334
 40
0.6666666666666666
 40
0.6666666666666666
 40
0.6666666666666666
 40
0.6666666666666666
 40
0.75
 40
0.75
 40
0.75
 40
0.75
 40
0.8333333333333334
 40
0.8333333333333334
 40
0.8333333333333334
 40
0.8333333333333334
 40
1.0
 40
1.0
 40
1.0
 40
1.0
 10
-5.5854
 20
-23.1112
 30
0.0
 10
-5.5854
 20
-23.1112
 30
0.0
 10
-5.5854
 20
-22.6277
 30
0.0
 10
-5.5854
 20
-22.6277
 30
0.0
 10
-5.5854
 20
-22.6277
 30
0.0
 10
-5.5854
 20
-22.6277
 30
0.0
 10
-6.4617
 20
-22.6277
 30
0.0
 10
-6.4617
 20
-22.6277
 30
0.0
 10
-6.4617
 20
-22.6277
 30
0.0
 10
-6.4617
 20
-22.6277
 30
0.0
 10
-6.4617
 20
-22.4
 30
0.0
 10
-6.4617
 20
-22.4
 30
0.0
 10
-6.4617
 20
-22.4
 30
0.0
 10
-6.4617
 20
-22.4
 30
0.0
 10
-5.5397
 20
-21.091
 30
0.0
 10
-5.5397
 20
-21.091
 30
0.0
 10
-5.5397
 20
-21.091
 30
0.0
 10
-5.5397
 20
-21.091
 30
0.0
 10
-5.337
 20
-21.091
 30
0.0
 10
-5.337
 20
-21.091
 30
0.0
 10
-5.337
 20
-21.091
 30
0.0
 10
-5.337
 20
-21.091
 30
0.0
 10
-5.337
 20
-22.4
 30
0.0
 10
-5.337
 20
-22.4
 30
0.0
 10
-5.337
 20
-22.4
 30
0.0
 10
-5.337
 20
-22.4
 30
0.0
 10
-5.0642
 20
-22.4
 30
0.0
 10
-5.0642
 20
-22.4
 30
0.0
 10
-5.0642
 20
-22.4
 30
0.0
 10
-5.0642
 20
-22.4
 30
0.0
 10
-5.0642
 20
-22.6277
 30
0.0
 10
-5.0642
 20
-22.6277
 30
0.0
 10
-5.0642
 20
-22.6277
 30
0.0
 10
-5.0642
 20
-22.6277
 30
0.0
 10
-5.337
 20
-22.6277
 30
0.0
 10
-5.337
 20
-22.6277
 30
0.0
 10
-5.337
 20
-22.6277
 30
0.0
 10
-5.337
 20
-22.6277
 30
0.0
 10
-5.337
 20
-23.1112
 30
0.0
 10
-5.337
 20
-23.1112
 30
0.0
 10
-5.337
 20
-23.1112
 30
0.0
 10
-5.337
 20
-23.1112
 30
0.0
 10
-5.5854
 20
-23.1112
 30
0.0
 10
-5.5854
 20
-23.1112
 30
0.0
  0
SPLINE
  5
4A
330
1F
100
AcDbEntity
  8
ROUND
 62
   250
100
AcDbSpline
210
0.0
220
0.0
230
1.0
 70
    11
 71
     3
 72
    16
 73
    12
 74
     0
 42
0.0000000001
 43
0.0000000001
 40
0.0
 40
0.0
 40
0.0
 40
0.0
 40
0.25
 40
0.25
 40
0.25
 40
0.25
 40
0.5
 40
0.5
 40
0.5
 40
0.5
 40
1.0
 40
1.0
 40
1.0
 40
1.0
 10
-5.5854
 20
-22.4
 30
0.0
 10
-5.5854
 20
-22.4
 30
0.0
 10
-5.5854
 20
-21.4894
 30
0.0
 10
-5.5854
 20
-21.4894
 30
0.0
 10
-5.5854
 20
-21.4894
 30
0.0
 10
-5.5854
 20
-21.4894
 30
0.0
 10
-6.2175
 20
-22.4
 30
0.0
 10
-6.2175
 20
-22.4
 30
0.0
 10
-6.2175
 20
-22.4
 30
0.0
 10
-6.2175
 20
-22.4
 30
0.0
 10
-5.5854
 20
-22.4
 30
0.0
 10
-5.5854
 20
-22.4
 30
0.0
  0
SPLINE
  5
4B
330
1F
100
AcDbEntity
  8
ROUND
 62
   250
100
AcDbSpline
210
0.0
220
0.0
230
1.0
 70
    11
 71
     3
 72
    28
 73
    24
 74
     0
 42
0.0000000001
 43
0.0000000001
 40
0.0
 40
0.0
 40
0.0
 40
0.0
 40
0.1428571428571428
 40
0.1428571428571428
 40
0.1428571428571428
 40
0.1428571428571428
 40
0.2857142857142857
 40
0.2857142857142857
 40
0.2857142857142857
 40
0.2857142857142857
 40
0.4285714285714285
 40
0.4285714285714285
 40
0.4285714285714285
 40
0.4285714285714285
 40
0.5714285714285714
 40
0.5714285714285714
 40
0.5714285714285714
 40
0.5714285714285714
 40
0.7142857142857143
 40
0.7142857142857143
 40
0.7142857142857143
 40
0.7142857142857143
 40
1.0
 40
1.0
 40
1.0
 40
1.0
 10
-4.7293
 20
-21.8064
 30
0.0
 10
-4.7293
 20
-21.8064
 30
0.0
 10
-4.7984
 20
-21.4216
 30
0.0
 10
-4.7984
 20
-21.4216
 30
0.0
 10
-4.7984
 20
-21.4216
 30
0.0
 10
-4.7984
 20
-21.4216
 30
0.0
 10
-4.7984
 20
-21.091
 30
0.0
 10
-4.7984
 20
-21.091
 30
0.0
 10
-4.7984
 20
-21.091
 30
0.0
 10
-4.7984
 20
-21.091
 30
0.0
 10
-4.5158
 20
-21.091
 30
0.0
 10
-4.5158
 20
-21.091
 30
0.0
 10
-4.5158
 20
-21.091
 30
0.0
 10
-4.5158
 20
-21.091
 30
0.0
 10
-4.5158
 20
-21.4216
 30
0.0
 10
-4.5158
 20
-21.4216
 30
0.0
 10
-4.5158
 20
-21.4216
 30
0.0
 10
-4.5158
 20
-21.4216
 30
0.0
 10
-4.5778
 20
-21.8064
 30
0.0
 10
-4.5778
 20
-21.8064
 30
0.0
 10
-4.5778
 20
-21.8064
 30
0.0
 10
-4.5778
 20
-21.8064
 30
0.0
 10
-4.7293
 20
-21.8064
 30
0.0
 10
-4.7293
 20
-21.8064
 30
0.0
  0
SPLINE
  5
4C
330
1F
100
AcDbEntity
  8
ROUND
 62
   250
100
AcDbSpline
210
0.0
220
0.0
230
1.0
 70
    11
 71
     3
 72
    28
 73
    24
 74
     0
 42
0.0000000001
 43
0.0000000001
 40
0.0
 40
0.0
 40
0.0
 40
0.0
 40
0.1428571428571428
 40
0.1428571428571428
 40
0.1428571428571428
 40
0.1428571428571428
 40
0.2857142857142857
 40
0.2857142857142857
 40
0.2857142857142857
 40
0.2857142857142857
 40
0.4285714285714285
 40
0.4285714285714285
 40
0.4285714285714285
 40
0.4285714285714285
 40
0.5714285714285714
 40
0.5714285714285714
 40
0.5714285714285714
 40
0.5714285714285714
 40
0.7142857142857143
 40
0.7142857142857143
 40
0.7142857142857143
 40
0.7142857142857143
 40
1.0
 40
1.0
 40
1.0
 40
1.0
 10
-4.273
 20
-21.8064
 30
0.0
 10
-4.273
 20
-21.8064
 30
0.0
 10
-4.3408
 20
-21.4216
 30
0.0
 10
-4.3408
 20
-21.4216
 30
0.0
 10
-4.3408
 20
-21.4216
 30
0.0
 10
-4.3408
 20
-21.4216
 30
0.0
 10
-4.3408
 20
-21.091
 30
0.0
 10
-4.3408
 20
-21.091
 30
0.0
 10
-4.3408
 20
-21.091
 30
0.0
 10
-4.3408
 20
-21.091
 30
0.0
 10
-4.0581
 20
-21.091
 30
0.0
 10
-4.0581
 20
-21.091
 30
0.0
 10
-4.0581
 20
-21.091
 30
0.0
 10
-4.0581
 20
-21.091
 30
0.0
 10
-4.0581
 20
-21.4216
 30
0.0
 10
-4.0581
 20
-21.4216
 30
0.0
 10
-4.0581
 20
-21.4216
 30
0.0
 10
-4.0581
 20
-21.4216
 30
0.0
 10
-4.1244
 20
-21.8064
 30
0.0
 10
-4.1244
 20
-21.8064
 30
0.0
 10
-4.1244
 20
-21.8064
 30
0.0
 10
-4.1244
 20
-21.8064
 30
0.0
 10
-4.273
 20
-21.8064
 30
0.0
 10
-4.273
 20
-21.8064
 30
0.0
  0
SPLINE
  5
4D
330
1F
100
AcDbEntity
  8
ROUND
 62
   250
100
AcDbSpline
210
0.0
220
0.0
230
1.0
 70
    11
 71
     3
 72
    48
 73
    44
 74
     0
 42
0.0000000001
 43
0.0000000001
 40
0.0
 40
0.0
 40
0.0
 40
0.0
 40
0.0833333333333333
 40
0.0833333333333333
 40
0.0833333333333333
 40
0.0833333333333333
 40
0.1666666666666667
 40
0.1666666666666667
 40
0.1666666666666667
 40
0.1666666666666667
 40
0.25
 40
0.25
 40
0.25
 40
0.25
 40
0.3333333333333333
 40
0.3333333333333333
 40
0.3333333333333333
 40
0.3333333333333333
 40
0.4166666666666667
 40
0.4166666666666667
 40
0.4166666666666667
 40
0.4166666666666667
 40
0.5
 40
0.5
 40
0.5
 40
0.5
 40
0.5833333333333334
 40
0.5833333333333334
 40
0.5833333333333334
 40
0.5833333333333334
 40
0.6666666666666666
 40
0.6666666666666666
 40
0.6666666666666666
 40
0.6666666666666666
 40
0.75
 40
0.75
 40
0.75
 40
0.75
 40
0.8333333333333334
 40
0.8333333333333334
 40
0.8333333333333334
 40
0.8333333333333334
 40
1.0
 40
1.0
 40
1.0
 40
1.0
 10
4.0035
 20
-26.6749
 30
0.0
 10
4.0035
 20
-26.6749
 30
0.0
 10
4.0035
 20
-26.4364
 30
0.0
 10
4.0035
 20
-26.4364
 30
0.0
 10
4.0035
 20
-26.4364
 30
0.0
 10
4.0035
 20
-26.4364
 30
0.0
 10
5.3111
 20
-26.4364
 30
0.0
 10
5.3111
 20
-26.4364
 30
0.0
 10
5.3111
 20
-26.4364
 30
0.0
 10
5.3111
 20
-26.4364
 30
0.0
 10
5.3111
 20
-26.6293
 30
0.0
 10
5.3111
 20
-26.6293
 30
0.0
 10
5.3111
 20
-26.6293
 30
0.0
 10
5.1827
 20
-26.7661
 30
0.0
 10
5.0552
 20
-26.9482
 30
0.0
 10
4.9287
 20
-27.1749
 30
0.0
 10
4.9287
 20
-27.1749
 30
0.0
 10
4.8026
 20
-27.4016
 30
0.0
 10
4.7048
 20
-27.6354
 30
0.0
 10
4.6361
 20
-27.8748
 30
0.0
 10
4.6361
 20
-27.8748
 30
0.0
 10
4.5863
 20
-28.0441
 30
0.0
 10
4.5548
 20
-28.229
 30
0.0
 10
4.5411
 20
-28.4303
 30
0.0
 10
4.5411
 20
-28.4303
 30
0.0
 10
4.5411
 20
-28.4303
 30
0.0
 10
4.2862
 20
-28.4303
 30
0.0
 10
4.2862
 20
-28.4303
 30
0.0
 10
4.2862
 20
-28.4303
 30
0.0
 10
4.289
 20
-28.2713
 30
0.0
 10
4.32
 20
-28.0794
 30
0.0
 10
4.3798
 20
-27.8541
 30
0.0
 10
4.3798
 20
-27.8541
 30
0.0
 10
4.4395
 20
-27.6293
 30
0.0
 10
4.5251
 20
-27.412
 30
0.0
 10
4.6366
 20
-27.2031
 30
0.0
 10
4.6366
 20
-27.2031
 30
0.0
 10
4.7485
 20
-26.9943
 30
0.0
 10
4.8671
 20
-26.8179
 30
0.0
 10
4.9931
 20
-26.6749
 30
0.0
 10
4.9931
 20
-26.6749
 30
0.0
 10
4.9931
 20
-26.6749
 30
0.0
 10
4.0035
 20
-26.6749
 30
0.0
 10
4.0035
 20
-26.6749
 30
0.0
  0
SPLINE
  5
4E
330
1F
100
AcDbEntity
  8
ROUND
 62
   250
100
AcDbSpline
210
0.0
220
0.0
230
1.0
 70
    11
 71
     3
 72
   124
 73
   120
 74
     0
 42
0.0000000001
 43
0.0000000001
 40
0.0
 40
0.0
 40
0.0
 40
0.0
 40
0.032258064516129
 40
0.032258064516129
 40
0.032258064516129
 40
0.032258064516129
 40
0.0645161290322581
 40
0.0645161290322581
 40
0.0645161290322581
 40
0.0645161290322581
 40
0.0967741935483871
 40
0.0967741935483871
 40
0.0967741935483871
 40
0.0967741935483871
 40
0.1290322580645161
 40
0.1290322580645161
 40
0.1290322580645161
 40
0.1290322580645161
 40
0.1612903225806452
 40
0.1612903225806452
 40
0.1612903225806452
 40
0.1612903225806452
 40
0.1935483870967742
 40
0.1935483870967742
 40
0.1935483870967742
 40
0.1935483870967742
 40
0.2258064516129032
 40
0.2258064516129032
 40
0.2258064516129032
 40
0.2258064516129032
 40
0.2580645161290323
 40
0.2580645161290323
 40
0.2580645161290323
 40
0.2580645161290323
 40
0.2903225806451613
 40
0.2903225806451613
 40
0.2903225806451613
 40
0.2903225806451613
 40
0.3225806451612903
 40
0.3225806451612903
 40
0.3225806451612903
 40
0.3225806451612903
 40
0.3548387096774194
 40
0.3548387096774194
 40
0.3548387096774194
 40
0.3548387096774194
 40
0.3870967741935484
 40
0.3870967741935484
 40
0.3870967741935484
 40
0.3870967741935484
 40
0.4193548387096774
 40
0.4193548387096774
 40
0.4193548387096774
 40
0.4193548387096774
 40
0.4516129032258064
 40
0.4516129032258064
 40
0.4516129032258064
 40
0.4516129032258064
 40
0.4838709677419355
 40
0.4838709677419355
 40
0.4838709677419355
 40
0.4838709677419355
 40
0.5161290322580645
 40
0.5161290322580645
 40
0.5161290322580645
 40
0.5161290322580645
 40
0.5483870967741935
 40
0.5483870967741935
 40
0.5483870967741935
 40
0.5483870967741935
 40
0.5806451612903226
 40
0.5806451612903226
 40
0.5806451612903226
 40
0.5806451612903226
 40
0.6129032258064516
 40
0.6129032258064516
 40
0.6129032258064516
 40
0.6129032258064516
 40
0.6451612903225806
 40
0.6451612903225806
 40
0.6451612903225806
 40
0.6451612903225806
 40
0.6774193548387096
 40
0.6774193548387096
 40
0.6774193548387096
 40
0.6774193548387096
 40
0.7096774193548387
 40
0.7096774193548387
 40
0.7096774193548387
 40
0.7096774193548387
 40
0.7419354838709677
 40
0.7419354838709677
 40
0.7419354838709677
 40
0.7419354838709677
 40
0.7741935483870968
 40
0.7741935483870968
 40
0.7741935483870968
 40
0.7741935483870968
 40
0.8064516129032258
 40
0.8064516129032258
 40
0.8064516129032258
 40
0.8064516129032258
 40
0.8387096774193549
 40
0.8387096774193549
 40
0.8387096774193549
 40
0.8387096774193549
 40
0.8709677419354839
 40
0.8709677419354839
 40
0.8709677419354839
 40
0.8709677419354839
 40
0.9032258064516129
 40
0.9032258064516129
 40
0.9032258064516129
 40
0.9032258064516129
 40
0.9354838709677419
 40
0.9354838709677419
 40
0.9354838709677419
 40
0.9354838709677419
 40
1.0
 40
1.0
 40
1.0
 40
1.0
 10
5.558
 20
-27.8969
 30
0.0
 10
5.558
 20
-27.8969
 30
0.0
 10
5.8059
 20
-27.864
 30
0.0
 10
5.8059
 20
-27.864
 30
0.0
 10
5.8059
 20
-27.864
 30
0.0
 10
5.8346
 20
-28.0046
 30
0.0
 10
5.8831
 20
-28.1057
 30
0.0
 10
5.9513
 20
-28.1678
 30
0.0
 10
5.9513
 20
-28.1678
 30
0.0
 10
6.0199
 20
-28.2299
 30
0.0
 10
6.1032
 20
-28.261
 30
0.0
 10
6.2015
 20
-28.261
 30
0.0
 10
6.2015
 20
-28.261
 30
0.0
 10
6.3181
 20
-28.261
 30
0.0
 10
6.4169
 20
-28.2205
 30
0.0
 10
6.4974
 20
-28.1396
 30
0.0
 10
6.4974
 20
-28.1396
 30
0.0
 10
6.5773
 20
-28.0587
 30
0.0
 10
6.6178
 20
-27.9585
 30
0.0
 10
6.6178
 20
-27.839
 30
0.0
 10
6.6178
 20
-27.839
 30
0.0
 10
6.6178
 20
-27.7252
 30
0.0
 10
6.5806
 20
-27.6311
 30
0.0
 10
6.5063
 20
-27.5573
 30
0.0
 10
6.5063
 20
-27.5573
 30
0.0
 10
6.4315
 20
-27.4835
 30
0.0
 10
6.337
 20
-27.4463
 30
0.0
 10
6.2222
 20
-27.4463
 30
0.0
 10
6.2222
 20
-27.4463
 30
0.0
 10
6.1752
 20
-27.4463
 30
0.0
 10
6.1168
 20
-27.4557
 30
0.0
 10
6.0472
 20
-27.474
 30
0.0
 10
6.0472
 20
-27.474
 30
0.0
 10
6.0472
 20
-27.474
 30
0.0
 10
6.075
 20
-27.2563
 30
0.0
 10
6.075
 20
-27.2563
 30
0.0
 10
6.075
 20
-27.2563
 30
0.0
 10
6.0914
 20
-27.2581
 30
0.0
 10
6.1046
 20
-27.2591
 30
0.0
 10
6.1149
 20
-27.2591
 30
0.0
 10
6.1149
 20
-27.2591
 30
0.0
 10
6.2203
 20
-27.2591
 30
0.0
 10
6.3153
 20
-27.2313
 30
0.0
 10
6.4
 20
-27.1763
 30
0.0
 10
6.4
 20
-27.1763
 30
0.0
 10
6.4847
 20
-27.1213
 30
0.0
 10
6.527
 20
-27.0361
 30
0.0
 10
6.527
 20
-26.9214
 30
0.0
 10
6.527
 20
-26.9214
 30
0.0
 10
6.527
 20
-26.8306
 30
0.0
 10
6.4959
 20
-26.7549
 30
0.0
 10
6.4343
 20
-26.6956
 30
0.0
 10
6.4343
 20
-26.6956
 30
0.0
 10
6.3727
 20
-26.6359
 30
0.0
 10
6.2932
 20
-26.6057
 30
0.0
 10
6.1958
 20
-26.6057
 30
0.0
 10
6.1958
 20
-26.6057
 30
0.0
 10
6.0994
 20
-26.6057
 30
0.0
 10
6.019
 20
-26.6363
 30
0.0
 10
5.955
 20
-26.6965
 30
0.0
 10
5.955
 20
-26.6965
 30
0.0
 10
5.8906
 20
-26.7572
 30
0.0
 10
5.8492
 20
-26.8485
 30
0.0
 10
5.8308
 20
-26.9698
 30
0.0
 10
5.8308
 20
-26.9698
 30
0.0
 10
5.8308
 20
-26.9698
 30
0.0
 10
5.583
 20
-26.9256
 30
0.0
 10
5.583
 20
-26.9256
 30
0.0
 10
5.583
 20
-26.9256
 30
0.0
 10
5.6131
 20
-26.7591
 30
0.0
 10
5.6822
 20
-26.6302
 30
0.0
 10
5.7895
 20
-26.539
 30
0.0
 10
5.7895
 20
-26.539
 30
0.0
 10
5.8972
 20
-26.4477
 30
0.0
 10
6.0308
 20
-26.4016
 30
0.0
 10
6.1907
 20
-26.4016
 30
0.0
 10
6.1907
 20
-26.4016
 30
0.0
 10
6.3007
 20
-26.4016
 30
0.0
 10
6.4023
 20
-26.4256
 30
0.0
 10
6.495
 20
-26.4726
 30
0.0
 10
6.495
 20
-26.4726
 30
0.0
 10
6.5877
 20
-26.5201
 30
0.0
 10
6.6587
 20
-26.5846
 30
0.0
 10
6.7081
 20
-26.6664
 30
0.0
 10
6.7081
 20
-26.6664
 30
0.0
 10
6.757
 20
-26.7483
 30
0.0
 10
6.7819
 20
-26.8348
 30
0.0
 10
6.7819
 20
-26.927
 30
0.0
 10
6.7819
 20
-26.927
 30
0.0
 10
6.7819
 20
-27.014
 30
0.0
 10
6.7584
 20
-27.0935
 30
0.0
 10
6.7114
 20
-27.1655
 30
0.0
 10
6.7114
 20
-27.1655
 30
0.0
 10
6.6643
 20
-27.237
 30
0.0
 10
6.5952
 20
-27.2939
 30
0.0
 10
6.5035
 20
-27.3362
 30
0.0
 10
6.5035
 20
-27.3362
 30
0.0
 10
6.6229
 20
-27.3635
 30
0.0
 10
6.7156
 20
-27.4209
 30
0.0
 10
6.7819
 20
-27.5079
 30
0.0
 10
6.7819
 20
-27.5079
 30
0.0
 10
6.8478
 20
-27.5945
 30
0.0
 10
6.8807
 20
-27.7031
 30
0.0
 10
6.8807
 20
-27.8334
 30
0.0
 10
6.8807
 20
-27.8334
 30
0.0
 10
6.8807
 20
-28.0098
 30
0.0
 10
6.8167
 20
-28.1594
 30
0.0
 10
6.6879
 20
-28.2821
 30
0.0
 10
6.6879
 20
-28.2821
 30
0.0
 10
6.5594
 20
-28.4049
 30
0.0
 10
6.3967
 20
-28.466
 30
0.0
 10
6.2001
 20
-28.466
 30
0.0
 10
6.2001
 20
-28.466
 30
0.0
 10
6.0228
 20
-28.466
 30
0.0
 10
5.8755
 20
-28.4134
 30
0.0
 10
5.7584
 20
-28.3075
 30
0.0
 10
5.7584
 20
-28.3075
 30
0.0
 10
5.6413
 20
-28.2022
 30
0.0
 10
5.5745
 20
-28.0653
 30
0.0
 10
5.558
 20
-27.8969
 30
0.0
  0
SPLINE
  5
4F
330
1F
100
AcDbEntity
  8
ROUND
 62
   250
100
AcDbSpline
210
0.0
220
0.0
230
1.0
 70
    11
 71
     3
 72
    20
 73
    16
 74
     0
 42
0.0000000001
 43
0.0000000001
 40
0.0
 40
0.0
 40
0.0
 40
0.0
 40
0.2
 40
0.2
 40
0.2
 40
0.2
 40
0.4
 40
0.4
 40
0.4
 40
0.4
 40
0.6
 40
0.6
 40
0.6
 40
0.6
 40
1.0
 40
1.0
 40
1.0
 40
1.0
 10
16.6918
 20
-28.8658
 30
0.0
 10
16.6918
 20
-28.8658
 30
0.0
 10
19.1918
 20
-29.2187
 30
0.0
 10
19.1918
 20
-29.2187
 30
0.0
 10
19.1918
 20
-29.2187
 30
0.0
 10
19.1918
 20
-29.2187
 30
0.0
 10
19.1918
 20
-29.297
 30
0.0
 10
19.1918
 20
-29.297
 30
0.0
 10
19.1918
 20
-29.297
 30
0.0
 10
19.1918
 20
-29.297
 30
0.0
 10
16.6918
 20
-29.6733
 30
0.0
 10
16.6918
 20
-29.6733
 30
0.0
 10
16.6918
 20
-29.6733
 30
0.0
 10
16.6918
 20
-29.6733
 30
0.0
 10
16.6918
 20
-28.8658
 30
0.0
 10
16.6918
 20
-28.8658
 30
0.0
  0
SPLINE
  5
50
330
1F
100
AcDbEntity
  8
ROUND
 62
   250
100
AcDbSpline
210
0.0
220
0.0
230
1.0
 70
    11
 71
     3
 72
    20
 73
    16
 74
     0
 42
0.0000000001
 43
0.0000000001
 40
0.0
 40
0.0
 40
0.0
 40
0.0
 40
0.2
 40
0.2
 40
0.2
 40
0.2
 40
0.4
 40
0.4
 40
0.4
 40
0.4
 40
0.6
 40
0.6
 40
0.6
 40
0.6
 40
1.0
 40
1.0
 40
1.0
 40
1.0
 10
-5.7892
 20
-29.6382
 30
0.0
 10
-5.7892
 20
-29.6382
 30
0.0
 10
-8.2892
 20
-29.2853
 30
0.0
 10
-8.2892
 20
-29.2853
 30
0.0
 10
-8.2892
 20
-29.2853
 30
0.0
 10
-8.2892
 20
-29.2853
 30
0.0
 10
-8.2892
 20
-29.207
 30
0.0
 10
-8.2892
 20
-29.207
 30
0.0
 10
-8.2892
 20
-29.207
 30
0.0
 10
-8.2892
 20
-29.207
 30
0.0
 10
-5.7892
 20
-28.8307
 30
0.0
 10
-5.7892
 20
-28.8307
 30
0.0
 10
-5.7892
 20
-28.8307
 30
0.0
 10
-5.7892
 20
-28.8307
 30
0.0
 10
-5.7892
 20
-29.6382
 30
0.0
 10
-5.7892
 20
-29.6382
 30
0.0
  0
SPLINE
  5
51
330
1F
100
AcDbEntity
  8
ROUND
 62
   250
100
AcDbSpline
210
0.0
220
0.0
230
1.0
 70
    11
 71
     3
 72
    20
 73
    16
 74
     0
 42
0.0000000001
 43
0.0000000001
 40
0.0
 40
0.0
 40
0.0
 40
0.0
 40
0.2
 40
0.2
 40
0.2
 40
0.2
 40
0.4
 40
0.4
 40
0.4
 40
0.4
 40
0.6
 40
0.6
 40
0.6
 40
0.6
 40
1.0
 40
1.0
 40
1.0
 40
1.0
 10
-24.2959
 20
20.986
 30
0.0
 10
-24.2959
 20
20.986
 30
0.0
 10
-23.943
 20
23.486
 30
0.0
 10
-23.943
 20
23.486
 30
0.0
 10
-23.943
 20
23.486
 30
0.0
 10
-23.943
 20
23.486
 30
0.0
 10
-23.8647
 20
23.486
 30
0.0
 10
-23.8647
 20
23.486
 30
0.0
 10
-23.8647
 20
23.486
 30
0.0
 10
-23.8647
 20
23.486
 30
0.0
 10
-23.4884
 20
20.986
 30
0.0
 10
-23.4884
 20
20.986
 30
0.0
 10
-23.4884
 20
20.986
 30
0.0
 10
-23.4884
 20
20.986
 30
0.0
 10
-24.2959
 20
20.986
 30
0.0
 10
-24.2959
 20
20.986
 30
0.0
  0
SPLINE
  5
52
330
1F
100
AcDbEntity
  8
ROUND
 62
   250
100
AcDbSpline
210
0.0
220
0.0
230
1.0
 70
    11
 71
     3
 72
    20
 73
    16
 74
     0
 42
0.0000000001
 43
0.0000000001
 40
0.0
 40
0.0
 40
0.0
 40
0.0
 40
0.2
 40
0.2
 40
0.2
 40
0.2
 40
0.4
 40
0.4
 40
0.4
 40
0.4
 40
0.6
 40
0.6
 40
0.6
 40
0.6
 40
1.0
 40
1.0
 40
1.0
 40
1.0
 10
-23.5253
 20
-16.71
 30
0.0
 10
-23.5253
 20
-16.71
 30
0.0
 10
-23.8782
 20
-19.21
 30
0.0
 10
-23.8782
 20
-19.21
 30
0.0
 10
-23.8782
 20
-19.21
 30
0.0
 10
-23.8782
 20
-19.21
 30
0.0
 10
-23.9565
 20
-19.21
 30
0.0
 10
-23.9565
 20
-19.21
 30
0.0
 10
-23.9565
 20
-19.21
 30
0.0
 10
-23.9565
 20
-19.21
 30
0.0
 10
-24.3328
 20
-16.71
 30
0.0
 10
-24.3328
 20
-16.71
 30
0.0
 10
-24.3328
 20
-16.71
 30
0.0
 10
-24.3328
 20
-16.71
 30
0.0
 10
-23.5253
 20
-16.71
 30
0.0
 10
-23.5253
 20
-16.71
 30
0.0
  0
SPLINE
  5
53
330
1F
100
AcDbEntity
  8
ROUND
 62
   250
100
AcDbSpline
210
0.0
220
0.0
230
1.0
 70
    11
 71
     3
 72
    84
 73
    80
 74
     0
 42
0.0000000001
 43
0.0000000001
 40
0.0
 40
0.0
 40
0.0
 40
0.0
 40
0.0476190476190476
 40
0.0476190476190476
 40
0.0476190476190476
 40
0.0476190476190476
 40
0.0952380952380952
 40
0.0952380952380952
 40
0.0952380952380952
 40
0.0952380952380952
 40
0.1428571428571428
 40
0.1428571428571428
 40
0.1428571428571428
 40
0.1428571428571428
 40
0.1904761904761905
 40
0.1904761904761905
 40
0.1904761904761905
 40
0.1904761904761905
 40
0.2380952380952381
 40
0.2380952380952381
 40
0.2380952380952381
 40
0.2380952380952381
 40
0.2857142857142857
 40
0.2857142857142857
 40
0.2857142857142857
 40
0.2857142857142857
 40
0.3333333333333333
 40
0.3333333333333333
 40
0.3333333333333333
 40
0.3333333333333333
 40
0.3809523809523809
 40
0.3809523809523809
 40
0.3809523809523809
 40
0.3809523809523809
 40
0.4285714285714285
 40
0.4285714285714285
 40
0.4285714285714285
 40
0.4285714285714285
 40
0.4761904761904762
 40
0.4761904761904762
 40
0.4761904761904762
 40
0.4761904761904762
 40
0.5238095238095238
 40
0.5238095238095238
 40
0.5238095238095238
 40
0.5238095238095238
 40
0.5714285714285714
 40
0.5714285714285714
 40
0.5714285714285714
 40
0.5714285714285714
 40
0.6190476190476191
 40
0.6190476190476191
 40
0.6190476190476191
 40
0.6190476190476191
 40
0.6666666666666666
 40
0.6666666666666666
 40
0.6666666666666666
 40
0.6666666666666666
 40
0.7142857142857143
 40
0.7142857142857143
 40
0.7142857142857143
 40
0.7142857142857143
 40
0.7619047619047619
 40
0.7619047619047619
 40
0.7619047619047619
 40
0.7619047619047619
 40
0.8095238095238095
 40
0.8095238095238095
 40
0.8095238095238095
 40
0.8095238095238095
 40
0.8571428571428571
 40
0.8571428571428571
 40
0.8571428571428571
 40
0.8571428571428571
 40
0.9047619047619048
 40
0.9047619047619048
 40
0.9047619047619048
 40
0.9047619047619048
 40
1.0
 40
1.0
 40
1.0
 40
1.0
 10
10.402
 20
-22.3347
 30
0.0
 10
10.402
 20
-22.3347
 30
0.0
 10
10.6334
 20
-22.0756
 30
0.0
 10
10.6334
 20
-22.0756
 30
0.0
 10
10.6334
 20
-22.0756
 30
0.0
 10
10.6334
 20
-22.0756
 30
0.0
 10
10.7698
 20
-22.1913
 30
0.0
 10
10.7698
 20
-22.1913
 30
0.0
 10
10.7698
 20
-22.1913
 30
0.0
 10
10.7698
 20
-22.1913
 30
0.0
 10
10.5276
 20
-22.4641
 30
0.0
 10
10.5276
 20
-22.4641
 30
0.0
 10
10.5276
 20
-22.4641
 30
0.0
 10
10.6066
 20
-22.5817
 30
0.0
 10
10.6597
 20
-22.6847
 30
0.0
 10
10.6875
 20
-22.7726
 30
0.0
 10
10.6875
 20
-22.7726
 30
0.0
 10
10.7242
 20
-22.8884
 30
0.0
 10
10.7425
 20
-23.0182
 30
0.0
 10
10.7425
 20
-23.1612
 30
0.0
 10
10.7425
 20
-23.1612
 30
0.0
 10
10.7425
 20
-23.3681
 30
0.0
 10
10.7007
 20
-23.5525
 30
0.0
 10
10.6169
 20
-23.7138
 30
0.0
 10
10.6169
 20
-23.7138
 30
0.0
 10
10.5332
 20
-23.8757
 30
0.0
 10
10.4161
 20
-23.9979
 30
0.0
 10
10.2651
 20
-24.0807
 30
0.0
 10
10.2651
 20
-24.0807
 30
0.0
 10
10.1136
 20
-24.163
 30
0.0
 10
9.9533
 20
-24.2044
 30
0.0
 10
9.7835
 20
-24.2044
 30
0.0
 10
9.7835
 20
-24.2044
 30
0.0
 10
9.6565
 20
-24.2044
 30
0.0
 10
9.5417
 20
-24.1866
 30
0.0
 10
9.4387
 20
-24.1508
 30
0.0
 10
9.4387
 20
-24.1508
 30
0.0
 10
9.3597
 20
-24.1231
 30
0.0
 10
9.2675
 20
-24.0704
 30
0.0
 10
9.1616
 20
-23.9923
 30
0.0
 10
9.1616
 20
-23.9923
 30
0.0
 10
9.1616
 20
-23.9923
 30
0.0
 10
8.9302
 20
-24.2515
 30
0.0
 10
8.9302
 20
-24.2515
 30
0.0
 10
8.9302
 20
-24.2515
 30
0.0
 10
8.9302
 20
-24.2515
 30
0.0
 10
8.7938
 20
-24.1358
 30
0.0
 10
8.7938
 20
-24.1358
 30
0.0
 10
8.7938
 20
-24.1358
 30
0.0
 10
8.7938
 20
-24.1358
 30
0.0
 10
9.0365
 20
-23.8644
 30
0.0
 10
9.0365
 20
-23.8644
 30
0.0
 10
9.0365
 20
-23.8644
 30
0.0
 10
8.9462
 20
-23.7275
 30
0.0
 10
8.886
 20
-23.6104
 30
0.0
 10
8.8559
 20
-23.5135
 30
0.0
 10
8.8559
 20
-23.5135
 30
0.0
 10
8.8258
 20
-23.4166
 30
0.0
 10
8.8103
 20
-23.2999
 30
0.0
 10
8.8103
 20
-23.164
 30
0.0
 10
8.8103
 20
-23.164
 30
0.0
 10
8.8103
 20
-22.9566
 30
0.0
 10
8.8517
 20
-22.7717
 30
0.0
 10
8.9344
 20
-22.6094
 30
0.0
 10
8.9344
 20
-22.6094
 30
0.0
 10
9.0172
 20
-22.4471
 30
0.0
 10
9.1329
 20
-22.3244
 30
0.0
 10
9.2825
 20
-22.2407
 30
0.0
 10
9.2825
 20
-22.2407
 30
0.0
 10
9.4316
 20
-22.1574
 30
0.0
 10
9.5977
 20
-22.1155
 30
0.0
 10
9.7806
 20
-22.1155
 30
0.0
 10
9.7806
 20
-22.1155
 30
0.0
 10
9.9039
 20
-22.1155
 30
0.0
 10
10.0116
 20
-22.1315
 30
0.0
 10
10.1038
 20
-22.1645
 30
0.0
 10
10.1038
 20
-22.1645
 30
0.0
 10
10.196
 20
-22.1969
 30
0.0
 10
10.2957
 20
-22.2538
 30
0.0
 10
10.402
 20
-22.3347
 30
0.0
  0
SPLINE
  5
54
330
1F
100
AcDbEntity
  8
ROUND
 62
   250
100
AcDbSpline
210
0.0
220
0.0
230
1.0
 70
    11
 71
     3
 72
    32
 73
    28
 74
     0
 42
0.0000000001
 43
0.0000000001
 40
0.0
 40
0.0
 40
0.0
 40
0.0
 40
0.125
 40
0.125
 40
0.125
 40
0.125
 40
0.25
 40
0.25
 40
0.25
 40
0.25
 40
0.375
 40
0.375
 40
0.375
 40
0.375
 40
0.5
 40
0.5
 40
0.5
 40
0.5
 40
0.625
 40
0.625
 40
0.625
 40
0.625
 40
0.75
 40
0.75
 40
0.75
 40
0.75
 40
1.0
 40
1.0
 40
1.0
 40
1.0
 10
10.2369
 20
-22.5205
 30
0.0
 10
10.1503
 20
-22.4528
 30
0.0
 10
10.0746
 20
-22.4062
 30
0.0
 10
10.0102
 20
-22.3813
 30
0.0
 10
10.0102
 20
-22.3813
 30
0.0
 10
9.9453
 20
-22.3568
 30
0.0
 10
9.8691
 20
-22.3441
 30
0.0
 10
9.782
 20
-22.3441
 30
0.0
 10
9.782
 20
-22.3441
 30
0.0
 10
9.5807
 20
-22.3441
 30
0.0
 10
9.4147
 20
-22.4123
 30
0.0
 10
9.283
 20
-22.5487
 30
0.0
 10
9.283
 20
-22.5487
 30
0.0
 10
9.1517
 20
-22.6852
 30
0.0
 10
9.0859
 20
-22.8888
 30
0.0
 10
9.0859
 20
-23.1602
 30
0.0
 10
9.0859
 20
-23.1602
 30
0.0
 10
9.0859
 20
-23.2665
 30
0.0
 10
9.0962
 20
-23.3611
 30
0.0
 10
9.1165
 20
-23.4439
 30
0.0
 10
9.1165
 20
-23.4439
 30
0.0
 10
9.1311
 20
-23.5055
 30
0.0
 10
9.1616
 20
-23.5812
 30
0.0
 10
9.2087
 20
-23.671
 30
0.0
 10
9.2087
 20
-23.671
 30
0.0
 10
9.2087
 20
-23.671
 30
0.0
 10
10.2369
 20
-22.5205
 30
0.0
 10
10.2369
 20
-22.5205
 30
0.0
  0
SPLINE
  5
55
330
1F
100
AcDbEntity
  8
ROUND
 62
   250
100
AcDbSpline
210
0.0
220
0.0
230
1.0
 70
    11
 71
     3
 72
    28
 73
    24
 74
     0
 42
0.0000000001
 43
0.0000000001
 40
0.0
 40
0.0
 40
0.0
 40
0.0
 40
0.1428571428571428
 40
0.1428571428571428
 40
0.1428571428571428
 40
0.1428571428571428
 40
0.2857142857142857
 40
0.2857142857142857
 40
0.2857142857142857
 40
0.2857142857142857
 40
0.4285714285714285
 40
0.4285714285714285
 40
0.4285714285714285
 40
0.4285714285714285
 40
0.5714285714285714
 40
0.5714285714285714
 40
0.5714285714285714
 40
0.5714285714285714
 40
0.7142857142857143
 40
0.7142857142857143
 40
0.7142857142857143
 40
0.7142857142857143
 40
1.0
 40
1.0
 40
1.0
 40
1.0
 10
10.3498
 20
-22.6626
 30
0.0
 10
10.3498
 20
-22.6626
 30
0.0
 10
9.3258
 20
-23.8089
 30
0.0
 10
9.3258
 20
-23.8089
 30
0.0
 10
9.3258
 20
-23.8089
 30
0.0
 10
9.3963
 20
-23.8667
 30
0.0
 10
9.4617
 20
-23.9072
 30
0.0
 10
9.5215
 20
-23.9302
 30
0.0
 10
9.5215
 20
-23.9302
 30
0.0
 10
9.5995
 20
-23.9608
 30
0.0
 10
9.6842
 20
-23.9758
 30
0.0
 10
9.775
 20
-23.9758
 30
0.0
 10
9.775
 20
-23.9758
 30
0.0
 10
9.9754
 20
-23.9758
 30
0.0
 10
10.1405
 20
-23.9053
 30
0.0
 10
10.2712
 20
-23.7637
 30
0.0
 10
10.2712
 20
-23.7637
 30
0.0
 10
10.4015
 20
-23.6221
 30
0.0
 10
10.4669
 20
-23.4236
 30
0.0
 10
10.4669
 20
-23.1682
 30
0.0
 10
10.4669
 20
-23.1682
 30
0.0
 10
10.4669
 20
-22.9773
 30
0.0
 10
10.4279
 20
-22.8084
 30
0.0
 10
10.3498
 20
-22.6626
 30
0.0
  0
SPLINE
  5
56
330
1F
100
AcDbEntity
  8
ROUND
 62
   250
100
AcDbSpline
210
0.0
220
0.0
230
1.0
 70
    11
 71
     3
 72
    40
 73
    36
 74
     0
 42
0.0000000001
 43
0.0000000001
 40
0.0
 40
0.0
 40
0.0
 40
0.0
 40
0.1
 40
0.1
 40
0.1
 40
0.1
 40
0.2
 40
0.2
 40
0.2
 40
0.2
 40
0.3
 40
0.3
 40
0.3
 40
0.3
 40
0.4
 40
0.4
 40
0.4
 40
0.4
 40
0.5
 40
0.5
 40
0.5
 40
0.5
 40
0.6
 40
0.6
 40
0.6
 40
0.6
 40
0.7
 40
0.7
 40
0.7
 40
0.7
 40
0.8
 40
0.8
 40
0.8
 40
0.8
 40
1.0
 40
1.0
 40
1.0
 40
1.0
 10
11.926
 20
-24.1701
 30
0.0
 10
11.926
 20
-24.1701
 30
0.0
 10
11.6781
 20
-24.1701
 30
0.0
 10
11.6781
 20
-24.1701
 30
0.0
 10
11.6781
 20
-24.1701
 30
0.0
 10
11.6781
 20
-24.1701
 30
0.0
 10
11.6781
 20
-22.5897
 30
0.0
 10
11.6781
 20
-22.5897
 30
0.0
 10
11.6781
 20
-22.5897
 30
0.0
 10
11.6183
 20
-22.6466
 30
0.0
 10
11.5403
 20
-22.7035
 30
0.0
 10
11.4434
 20
-22.7604
 30
0.0
 10
11.4434
 20
-22.7604
 30
0.0
 10
11.346
 20
-22.8173
 30
0.0
 10
11.259
 20
-22.8601
 30
0.0
 10
11.1818
 20
-22.8884
 30
0.0
 10
11.1818
 20
-22.8884
 30
0.0
 10
11.1818
 20
-22.8884
 30
0.0
 10
11.1818
 20
-22.6489
 30
0.0
 10
11.1818
 20
-22.6489
 30
0.0
 10
11.1818
 20
-22.6489
 30
0.0
 10
11.3206
 20
-22.5836
 30
0.0
 10
11.442
 20
-22.5045
 30
0.0
 10
11.5459
 20
-22.4119
 30
0.0
 10
11.5459
 20
-22.4119
 30
0.0
 10
11.6494
 20
-22.3187
 30
0.0
 10
11.7232
 20
-22.2289
 30
0.0
 10
11.7665
 20
-22.1414
 30
0.0
 10
11.7665
 20
-22.1414
 30
0.0
 10
11.7665
 20
-22.1414
 30
0.0
 10
11.926
 20
-22.1414
 30
0.0
 10
11.926
 20
-22.1414
 30
0.0
 10
11.926
 20
-22.1414
 30
0.0
 10
11.926
 20
-22.1414
 30
0.0
 10
11.926
 20
-24.1701
 30
0.0
 10
11.926
 20
-24.1701
 30
0.0
  0
SPLINE
  5
57
330
1F
100
AcDbEntity
  8
ROUND
 62
   250
100
AcDbSpline
210
0.0
220
0.0
230
1.0
 70
    11
 71
     3
 72
    48
 73
    44
 74
     0
 42
0.0000000001
 43
0.0000000001
 40
0.0
 40
0.0
 40
0.0
 40
0.0
 40
0.0833333333333333
 40
0.0833333333333333
 40
0.0833333333333333
 40
0.0833333333333333
 40
0.1666666666666667
 40
0.1666666666666667
 40
0.1666666666666667
 40
0.1666666666666667
 40
0.25
 40
0.25
 40
0.25
 40
0.25
 40
0.3333333333333333
 40
0.3333333333333333
 40
0.3333333333333333
 40
0.3333333333333333
 40
0.4166666666666667
 40
0.4166666666666667
 40
0.4166666666666667
 40
0.4166666666666667
 40
0.5
 40
0.5
 40
0.5
 40
0.5
 40
0.5833333333333334
 40
0.5833333333333334
 40
0.5833333333333334
 40
0.5833333333333334
 40
0.6666666666666666
 40
0.6666666666666666
 40
0.6666666666666666
 40
0.6666666666666666
 40
0.75
 40
0.75
 40
0.75
 40
0.75
 40
0.8333333333333334
 40
0.8333333333333334
 40
0.8333333333333334
 40
0.8333333333333334
 40
1.0
 40
1.0
 40
1.0
 40
1.0
 10
12.5779
 20
-22.4147
 30
0.0
 10
12.5779
 20
-22.4147
 30
0.0
 10
12.5779
 20
-22.1762
 30
0.0
 10
12.5779
 20
-22.1762
 30
0.0
 10
12.5779
 20
-22.1762
 30
0.0
 10
12.5779
 20
-22.1762
 30
0.0
 10
13.8855
 20
-22.1762
 30
0.0
 10
13.8855
 20
-22.1762
 30
0.0
 10
13.8855
 20
-22.1762
 30
0.0
 10
13.8855
 20
-22.1762
 30
0.0
 10
13.8855
 20
-22.3691
 30
0.0
 10
13.8855
 20
-22.3691
 30
0.0
 10
13.8855
 20
-22.3691
 30
0.0
 10
13.7571
 20
-22.5059
 30
0.0
 10
13.6296
 20
-22.688
 30
0.0
 10
13.5031
 20
-22.9147
 30
0.0
 10
13.5031
 20
-22.9147
 30
0.0
 10
13.377
 20
-23.1414
 30
0.0
 10
13.2792
 20
-23.3752
 30
0.0
 10
13.2105
 20
-23.6146
 30
0.0
 10
13.2105
 20
-23.6146
 30
0.0
 10
13.1607
 20
-23.7839
 30
0.0
 10
13.1292
 20
-23.9688
 30
0.0
 10
13.1155
 20
-24.1701
 30
0.0
 10
13.1155
 20
-24.1701
 30
0.0
 10
13.1155
 20
-24.1701
 30
0.0
 10
12.8606
 20
-24.1701
 30
0.0
 10
12.8606
 20
-24.1701
 30
0.0
 10
12.8606
 20
-24.1701
 30
0.0
 10
12.8634
 20
-24.0111
 30
0.0
 10
12.8944
 20
-23.8192
 30
0.0
 10
12.9542
 20
-23.5939
 30
0.0
 10
12.9542
 20
-23.5939
 30
0.0
 10
13.0139
 20
-23.3691
 30
0.0
 10
13.0995
 20
-23.1518
 30
0.0
 10
13.211
 20
-22.9429
 30
0.0
 10
13.211
 20
-22.9429
 30
0.0
 10
13.3229
 20
-22.7341
 30
0.0
 10
13.4415
 20
-22.5577
 30
0.0
 10
13.5675
 20
-22.4147
 30
0.0
 10
13.5675
 20
-22.4147
 30
0.0
 10
13.5675
 20
-22.4147
 30
0.0
 10
12.5779
 20
-22.4147
 30
0.0
 10
12.5779
 20
-22.4147
 30
0.0
  0
SPLINE
  5
58
330
1F
100
AcDbEntity
  8
ROUND
 62
   250
100
AcDbSpline
210
0.0
220
0.0
230
1.0
 70
    24
 71
     3
 72
     8
 73
     4
 74
     0
 42
0.0000000001
 43
0.0000000001
 40
0.0
 40
0.0
 40
0.0
 40
0.0
 40
1.0
 40
1.0
 40
1.0
 40
1.0
 10
-16.0978
 20
-19.1738
 30
0.0
 10
-16.0978
 20
-19.1738
 30
0.0
 10
-0.6103
 20
-18.7608
 30
0.0
 10
-0.6103
 20
-18.7608
 30
0.0
  0
SPLINE
  5
59
330
1F
100
AcDbEntity
  8
ROUND
 62
   250
100
AcDbSpline
210
0.0
220
0.0
230
1.0
 70
    24
 71
     3
 72
     8
 73
     4
 74
     0
 42
0.0000000001
 43
0.0000000001
 40
0.0
 40
0.0
 40
0.0
 40
0.0
 40
1.0
 40
1.0
 40
1.0
 40
1.0
 10
-16.0978
 20
-18.4363
 30
0.0
 10
-16.0978
 20
-18.4363
 30
0.0
 10
-0.6103
 20
-18.0233
 30
0.0
 10
-0.6103
 20
-18.0233
 30
0.0
  0
SPLINE
  5
5A
330
1F
100
AcDbEntity
  8
ROUND
 62
   250
100
AcDbSpline
210
0.0
220
0.0
230
1.0
 70
    24
 71
     3
 72
     8
 73
     4
 74
     0
 42
0.0000000001
 43
0.0000000001
 40
0.0
 40
0.0
 40
0.0
 40
0.0
 40
1.0
 40
1.0
 40
1.0
 40
1.0
 10
-16.0978
 20
-17.6398
 30
0.0
 10
-16.0978
 20
-17.6398
 30
0.0
 10
-0.6103
 20
-17.2268
 30
0.0
 10
-0.6103
 20
-17.2268
 30
0.0
  0
SPLINE
  5
5B
330
1F
100
AcDbEntity
  8
ROUND
 62
   250
100
AcDbSpline
210
0.0
220
0.0
230
1.0
 70
    24
 71
     3
 72
     8
 73
     4
 74
     0
 42
0.0000000001
 43
0.0000000001
 40
0.0
 40
0.0
 40
0.0
 40
0.0
 40
1.0
 40
1.0
 40
1.0
 40
1.0
 10
-16.0978
 20
-16.8138
 30
0.0
 10
-16.0978
 20
-16.8138
 30
0.0
 10
-0.6103
 20
-16.4008
 30
0.0
 10
-0.6103
 20
-16.4008
 30
0.0
  0
SPLINE
  5
5C
330
1F
100
AcDbEntity
  8
ROUND
 62
   250
100
AcDbSpline
210
0.0
220
0.0
230
1.0
 70
    24
 71
     3
 72
     8
 73
     4
 74
     0
 42
0.0000000001
 43
0.0000000001
 40
0.0
 40
0.0
 40
0.0
 40
0.0
 40
1.0
 40
1.0
 40
1.0
 40
1.0
 10
-16.1568
 20
-16.0468
 30
0.0
 10
-16.1568
 20
-16.0468
 30
0.0
 10
-0.6693
 20
-15.6338
 30
0.0
 10
-0.6693
 20
-15.6338
 30
0.0
  0
SPLINE
  5
5D
330
1F
100
AcDbEntity
  8
ROUND
 62
   250
100
AcDbSpline
210
0.0
220
0.0
230
1.0
 70
    24
 71
     3
 72
     8
 73
     4
 74
     0
 42
0.0000000001
 43
0.0000000001
 40
0.0
 40
0.0
 40
0.0
 40
0.0
 40
1.0
 40
1.0
 40
1.0
 40
1.0
 10
-16.1568
 20
-15.4273
 30
0.0
 10
-16.1568
 20
-15.4273
 30
0.0
 10
-0.6693
 20
-15.0143
 30
0.0
 10
-0.6693
 20
-15.0143
 30
0.0
  0
SPLINE
  5
5E
330
1F
100
AcDbEntity
  8
ROUND
  6
NEW_LINE1
 62
   250
100
AcDbSpline
210
0.0
220
0.0
230
1.0
 70
    24
 71
     3
 72
     8
 73
     4
 74
     0
 42
0.0000000001
 43
0.0000000001
 40
0.0
 40
0.0
 40
0.0
 40
0.0
 40
1.0
 40
1.0
 40
1.0
 40
1.0
 10
19.2532
 20
-30.0681
 30
0.0
 10
19.2532
 20
-30.0681
 30
0.0
 10
19.2532
 20
-26.3973
 30
0.0
 10
19.2532
 20
-26.3973
 30
0.0
  0
SPLINE
  5
60
330
1F
100
AcDbEntity
  8
ROUND
 62
   250
100
AcDbSpline
210
0.0
220
0.0
230
1.0
 70
    11
 71
     3
 72
    20
 73
    16
 74
     0
 42
0.0000000001
 43
0.0000000001
 40
0.0
 40
0.0
 40
0.0
 40
0.0
 40
0.2
 40
0.2
 40
0.2
 40
0.2
 40
0.4
 40
0.4
 40
0.4
 40
0.4
 40
0.6
 40
0.6
 40
0.6
 40
0.6
 40
1.0
 40
1.0
 40
1.0
 40
1.0
 10
13.3764
 20
-24.6688
 30
0.0
 10
13.3764
 20
-24.6688
 30
0.0
 10
15.8764
 20
-25.0217
 30
0.0
 10
15.8764
 20
-25.0217
 30
0.0
 10
15.8764
 20
-25.0217
 30
0.0
 10
15.8764
 20
-25.0217
 30
0.0
 10
15.8764
 20
-25.1
 30
0.0
 10
15.8764
 20
-25.1
 30
0.0
 10
15.8764
 20
-25.1
 30
0.0
 10
15.8764
 20
-25.1
 30
0.0
 10
13.3764
 20
-25.4763
 30
0.0
 10
13.3764
 20
-25.4763
 30
0.0
 10
13.3764
 20
-25.4763
 30
0.0
 10
13.3764
 20
-25.4763
 30
0.0
 10
13.3764
 20
-24.6688
 30
0.0
 10
13.3764
 20
-24.6688
 30
0.0
  0
SPLINE
  5
61
330
1F
100
AcDbEntity
  8
ROUND
 62
   250
100
AcDbSpline
210
0.0
220
0.0
230
1.0
 70
    11
 71
     3
 72
    20
 73
    16
 74
     0
 42
0.0000000001
 43
0.0000000001
 40
0.0
 40
0.0
 40
0.0
 40
0.0
 40
0.2
 40
0.2
 40
0.2
 40
0.2
 40
0.4
 40
0.4
 40
0.4
 40
0.4
 40
0.6
 40
0.6
 40
0.6
 40
0.6
 40
1.0
 40
1.0
 40
1.0
 40
1.0
 10
25.0678
 20
-25.4536
 30
0.0
 10
25.0678
 20
-25.4536
 30
0.0
 10
22.5678
 20
-25.1007
 30
0.0
 10
22.5678
 20
-25.1007
 30
0.0
 10
22.5678
 20
-25.1007
 30
0.0
 10
22.5678
 20
-25.1007
 30
0.0
 10
22.5678
 20
-25.0224
 30
0.0
 10
22.5678
 20
-25.0224
 30
0.0
 10
22.5678
 20
-25.0224
 30
0.0
 10
22.5678
 20
-25.0224
 30
0.0
 10
25.0678
 20
-24.6461
 30
0.0
 10
25.0678
 20
-24.6461
 30
0.0
 10
25.0678
 20
-24.6461
 30
0.0
 10
25.0678
 20
-24.6461
 30
0.0
 10
25.0678
 20
-25.4536
 30
0.0
 10
25.0678
 20
-25.4536
 30
0.0
  0
SPLINE
  5
62
330
1F
100
AcDbEntity
  8
ROUND
 62
   250
100
AcDbSpline
210
0.0
220
0.0
230
1.0
 70
    11
 71
     3
 72
    20
 73
    16
 74
     0
 42
0.0000000001
 43
0.0000000001
 40
0.0
 40
0.0
 40
0.0
 40
0.0
 40
0.2
 40
0.2
 40
0.2
 40
0.2
 40
0.4
 40
0.4
 40
0.4
 40
0.4
 40
0.6
 40
0.6
 40
0.6
 40
0.6
 40
1.0
 40
1.0
 40
1.0
 40
1.0
 10
-3.1667
 20
27.579
 30
0.0
 10
-3.1667
 20
27.579
 30
0.0
 10
-0.6667
 20
27.2261
 30
0.0
 10
-0.6667
 20
27.2261
 30
0.0
 10
-0.6667
 20
27.2261
 30
0.0
 10
-0.6667
 20
27.2261
 30
0.0
 10
-0.6667
 20
27.1478
 30
0.0
 10
-0.6667
 20
27.1478
 30
0.0
 10
-0.6667
 20
27.1478
 30
0.0
 10
-0.6667
 20
27.1478
 30
0.0
 10
-3.1667
 20
26.7715
 30
0.0
 10
-3.1667
 20
26.7715
 30
0.0
 10
-3.1667
 20
26.7715
 30
0.0
 10
-3.1667
 20
26.7715
 30
0.0
 10
-3.1667
 20
27.579
 30
0.0
 10
-3.1667
 20
27.579
 30
0.0
  0
SPLINE
  5
63
330
1F
100
AcDbEntity
  8
ROUND
 62
   250
100
AcDbSpline
210
0.0
220
0.0
230
1.0
 70
    11
 71
     3
 72
    20
 73
    16
 74
     0
 42
0.0000000001
 43
0.0000000001
 40
0.0
 40
0.0
 40
0.0
 40
0.0
 40
0.2
 40
0.2
 40
0.2
 40
0.2
 40
0.4
 40
0.4
 40
0.4
 40
0.4
 40
0.6
 40
0.6
 40
0.6
 40
0.6
 40
1.0
 40
1.0
 40
1.0
 40
1.0
 10
-13.6408
 20
26.78
 30
0.0
 10
-13.6408
 20
26.78
 30
0.0
 10
-16.1408
 20
27.1329
 30
0.0
 10
-16.1408
 20
27.1329
 30
0.0
 10
-16.1408
 20
27.1329
 30
0.0
 10
-16.1408
 20
27.1329
 30
0.0
 10
-16.1408
 20
27.2112
 30
0.0
 10
-16.1408
 20
27.2112
 30
0.0
 10
-16.1408
 20
27.2112
 30
0.0
 10
-16.1408
 20
27.2112
 30
0.0
 10
-13.6408
 20
27.5875
 30
0.0
 10
-13.6408
 20
27.5875
 30
0.0
 10
-13.6408
 20
27.5875
 30
0.0
 10
-13.6408
 20
27.5875
 30
0.0
 10
-13.6408
 20
26.78
 30
0.0
 10
-13.6408
 20
26.78
 30
0.0
  0
SPLINE
  5
64
330
1F
100
AcDbEntity
  8
ROUND
 62
   250
100
AcDbSpline
210
0.0
220
0.0
230
1.0
 70
    11
 71
     3
 72
   120
 73
   116
 74
     0
 42
0.0000000001
 43
0.0000000001
 40
0.0
 40
0.0
 40
0.0
 40
0.0
 40
0.0333333333333333
 40
0.0333333333333333
 40
0.0333333333333333
 40
0.0333333333333333
 40
0.0666666666666667
 40
0.0666666666666667
 40
0.0666666666666667
 40
0.0666666666666667
 40
0.1
 40
0.1
 40
0.1
 40
0.1
 40
0.1333333333333333
 40
0.1333333333333333
 40
0.1333333333333333
 40
0.1333333333333333
 40
0.1666666666666667
 40
0.1666666666666667
 40
0.1666666666666667
 40
0.1666666666666667
 40
0.2
 40
0.2
 40
0.2
 40
0.2
 40
0.2333333333333333
 40
0.2333333333333333
 40
0.2333333333333333
 40
0.2333333333333333
 40
0.2666666666666667
 40
0.2666666666666667
 40
0.2666666666666667
 40
0.2666666666666667
 40
0.3
 40
0.3
 40
0.3
 40
0.3
 40
0.3333333333333333
 40
0.3333333333333333
 40
0.3333333333333333
 40
0.3333333333333333
 40
0.3666666666666666
 40
0.3666666666666666
 40
0.3666666666666666
 40
0.3666666666666666
 40
0.4
 40
0.4
 40
0.4
 40
0.4
 40
0.4333333333333333
 40
0.4333333333333333
 40
0.4333333333333333
 40
0.4333333333333333
 40
0.4666666666666667
 40
0.4666666666666667
 40
0.4666666666666667
 40
0.4666666666666667
 40
0.5
 40
0.5
 40
0.5
 40
0.5
 40
0.5333333333333333
 40
0.5333333333333333
 40
0.5333333333333333
 40
0.5333333333333333
 40
0.5666666666666667
 40
0.5666666666666667
 40
0.5666666666666667
 40
0.5666666666666667
 40
0.6
 40
0.6
 40
0.6
 40
0.6
 40
0.6333333333333333
 40
0.6333333333333333
 40
0.6333333333333333
 40
0.6333333333333333
 40
0.6666666666666666
 40
0.6666666666666666
 40
0.6666666666666666
 40
0.6666666666666666
 40
0.7
 40
0.7
 40
0.7
 40
0.7
 40
0.7333333333333333
 40
0.7333333333333333
 40
0.7333333333333333
 40
0.7333333333333333
 40
0.7666666666666667
 40
0.7666666666666667
 40
0.7666666666666667
 40
0.7666666666666667
 40
0.8
 40
0.8
 40
0.8
 40
0.8
 40
0.8333333333333334
 40
0.8333333333333334
 40
0.8333333333333334
 40
0.8333333333333334
 40
0.8666666666666667
 40
0.8666666666666667
 40
0.8666666666666667
 40
0.8666666666666667
 40
0.9
 40
0.9
 40
0.9
 40
0.9
 40
0.9333333333333333
 40
0.9333333333333333
 40
0.9333333333333333
 40
0.9333333333333333
 40
1.0
 40
1.0
 40
1.0
 40
1.0
 10
-10.8531
 20
28.8151
 30
0.0
 10
-10.8531
 20
28.8151
 30
0.0
 10
-10.8531
 20
29.0517
 30
0.0
 10
-10.8531
 20
29.0517
 30
0.0
 10
-10.8531
 20
29.0517
 30
0.0
 10
-10.8531
 20
29.0517
 30
0.0
 10
-9.9975
 20
29.0531
 30
0.0
 10
-9.9975
 20
29.0531
 30
0.0
 10
-9.9975
 20
29.0531
 30
0.0
 10
-9.9975
 20
29.0531
 30
0.0
 10
-9.9975
 20
28.3038
 30
0.0
 10
-9.9975
 20
28.3038
 30
0.0
 10
-9.9975
 20
28.3038
 30
0.0
 10
-10.1287
 20
28.1989
 30
0.0
 10
-10.2642
 20
28.1203
 30
0.0
 10
-10.4039
 20
28.0672
 30
0.0
 10
-10.4039
 20
28.0672
 30
0.0
 10
-10.5436
 20
28.0145
 30
0.0
 10
-10.687
 20
27.9882
 30
0.0
 10
-10.8338
 20
27.9882
 30
0.0
 10
-10.8338
 20
27.9882
 30
0.0
 10
-11.0323
 20
27.9882
 30
0.0
 10
-11.2129
 20
28.0305
 30
0.0
 10
-11.3747
 20
28.1156
 30
0.0
 10
-11.3747
 20
28.1156
 30
0.0
 10
-11.537
 20
28.2003
 30
0.0
 10
-11.6593
 20
28.3235
 30
0.0
 10
-11.7421
 20
28.4839
 30
0.0
 10
-11.7421
 20
28.4839
 30
0.0
 10
-11.8249
 20
28.6448
 30
0.0
 10
-11.8663
 20
28.8245
 30
0.0
 10
-11.8663
 20
29.023
 30
0.0
 10
-11.8663
 20
29.023
 30
0.0
 10
-11.8663
 20
29.2196
 30
0.0
 10
-11.8249
 20
29.403
 30
0.0
 10
-11.7425
 20
29.5733
 30
0.0
 10
-11.7425
 20
29.5733
 30
0.0
 10
-11.6607
 20
29.744
 30
0.0
 10
-11.5422
 20
29.8706
 30
0.0
 10
-11.3879
 20
29.9534
 30
0.0
 10
-11.3879
 20
29.9534
 30
0.0
 10
-11.2336
 20
30.0357
 30
0.0
 10
-11.0558
 20
30.0771
 30
0.0
 10
-10.8545
 20
30.0771
 30
0.0
 10
-10.8545
 20
30.0771
 30
0.0
 10
-10.7087
 20
30.0771
 30
0.0
 10
-10.5765
 20
30.0535
 30
0.0
 10
-10.4584
 20
30.006
 30
0.0
 10
-10.4584
 20
30.006
 30
0.0
 10
-10.3404
 20
29.959
 30
0.0
 10
-10.2477
 20
29.8931
 30
0.0
 10
-10.1809
 20
29.8085
 30
0.0
 10
-10.1809
 20
29.8085
 30
0.0
 10
-10.1137
 20
29.7238
 30
0.0
 10
-10.0629
 20
29.6138
 30
0.0
 10
-10.0276
 20
29.4778
 30
0.0
 10
-10.0276
 20
29.4778
 30
0.0
 10
-10.0276
 20
29.4778
 30
0.0
 10
-10.2689
 20
29.4115
 30
0.0
 10
-10.2689
 20
29.4115
 30
0.0
 10
-10.2689
 20
29.4115
 30
0.0
 10
-10.2995
 20
29.5145
 30
0.0
 10
-10.3371
 20
29.5954
 30
0.0
 10
-10.3818
 20
29.6542
 30
0.0
 10
-10.3818
 20
29.6542
 30
0.0
 10
-10.4269
 20
29.713
 30
0.0
 10
-10.4914
 20
29.76
 30
0.0
 10
-10.5751
 20
29.7953
 30
0.0
 10
-10.5751
 20
29.7953
 30
0.0
 10
-10.6584
 20
29.8306
 30
0.0
 10
-10.7515
 20
29.8485
 30
0.0
 10
-10.8531
 20
29.8485
 30
0.0
 10
-10.8531
 20
29.8485
 30
0.0
 10
-10.9754
 20
29.8485
 30
0.0
 10
-11.0812
 20
29.8296
 30
0.0
 10
-11.1701
 20
29.7925
 30
0.0
 10
-11.1701
 20
29.7925
 30
0.0
 10
-11.2595
 20
29.7553
 30
0.0
 10
-11.331
 20
29.7064
 30
0.0
 10
-11.386
 20
29.6457
 30
0.0
 10
-11.386
 20
29.6457
 30
0.0
 10
-11.4406
 20
29.5851
 30
0.0
 10
-11.4829
 20
29.5187
 30
0.0
 10
-11.5135
 20
29.4458
 30
0.0
 10
-11.5135
 20
29.4458
 30
0.0
 10
-11.5647
 20
29.3212
 30
0.0
 10
-11.5906
 20
29.1857
 30
0.0
 10
-11.5906
 20
29.0394
 30
0.0
 10
-11.5906
 20
29.0394
 30
0.0
 10
-11.5906
 20
28.8593
 30
0.0
 10
-11.5596
 20
28.7088
 30
0.0
 10
-11.4975
 20
28.5874
 30
0.0
 10
-11.4975
 20
28.5874
 30
0.0
 10
-11.4354
 20
28.4661
 30
0.0
 10
-11.3451
 20
28.3762
 30
0.0
 10
-11.2266
 20
28.3174
 30
0.0
 10
-11.2266
 20
28.3174
 30
0.0
 10
-11.108
 20
28.2586
 30
0.0
 10
-10.9824
 20
28.229
 30
0.0
 10
-10.8493
 20
28.229
 30
0.0
 10
-10.8493
 20
28.229
 30
0.0
 10
-10.7331
 20
28.229
 30
0.0
 10
-10.6203
 20
28.2516
 30
0.0
 10
-10.5102
 20
28.2963
 30
0.0
 10
-10.5102
 20
28.2963
 30
0.0
 10
-10.3996
 20
28.3405
 30
0.0
 10
-10.3164
 20
28.388
 30
0.0
 10
-10.2595
 20
28.4388
 30
0.0
 10
-10.2595
 20
28.4388
 30
0.0
 10
-10.2595
 20
28.4388
 30
0.0
 10
-10.2595
 20
28.8151
 30
0.0
 10
-10.2595
 20
28.8151
 30
0.0
 10
-10.2595
 20
28.8151
 30
0.0
 10
-10.2595
 20
28.8151
 30
0.0
 10
-10.8531
 20
28.8151
 30
0.0
 10
-10.8531
 20
28.8151
 30
0.0
  0
SPLINE
  5
65
330
1F
100
AcDbEntity
  8
ROUND
 62
   250
100
AcDbSpline
210
0.0
220
0.0
230
1.0
 70
    11
 71
     3
 72
    92
 73
    88
 74
     0
 42
0.0000000001
 43
0.0000000001
 40
0.0
 40
0.0
 40
0.0
 40
0.0
 40
0.0434782608695652
 40
0.0434782608695652
 40
0.0434782608695652
 40
0.0434782608695652
 40
0.0869565217391304
 40
0.0869565217391304
 40
0.0869565217391304
 40
0.0869565217391304
 40
0.1304347826086956
 40
0.1304347826086956
 40
0.1304347826086956
 40
0.1304347826086956
 40
0.1739130434782609
 40
0.1739130434782609
 40
0.1739130434782609
 40
0.1739130434782609
 40
0.2173913043478261
 40
0.2173913043478261
 40
0.2173913043478261
 40
0.2173913043478261
 40
0.2608695652173913
 40
0.2608695652173913
 40
0.2608695652173913
 40
0.2608695652173913
 40
0.3043478260869565
 40
0.3043478260869565
 40
0.3043478260869565
 40
0.3043478260869565
 40
0.3478260869565217
 40
0.3478260869565217
 40
0.3478260869565217
 40
0.3478260869565217
 40
0.391304347826087
 40
0.391304347826087
 40
0.391304347826087
 40
0.391304347826087
 40
0.4347826086956522
 40
0.4347826086956522
 40
0.4347826086956522
 40
0.4347826086956522
 40
0.4782608695652174
 40
0.4782608695652174
 40
0.4782608695652174
 40
0.4782608695652174
 40
0.5217391304347826
 40
0.5217391304347826
 40
0.5217391304347826
 40
0.5217391304347826
 40
0.5652173913043478
 40
0.5652173913043478
 40
0.5652173913043478
 40
0.5652173913043478
 40
0.6086956521739131
 40
0.6086956521739131
 40
0.6086956521739131
 40
0.6086956521739131
 40
0.6521739130434783
 40
0.6521739130434783
 40
0.6521739130434783
 40
0.6521739130434783
 40
0.6956521739130435
 40
0.6956521739130435
 40
0.6956521739130435
 40
0.6956521739130435
 40
0.7391304347826086
 40
0.7391304347826086
 40
0.7391304347826086
 40
0.7391304347826086
 40
0.782608695652174
 40
0.782608695652174
 40
0.782608695652174
 40
0.782608695652174
 40
0.8260869565217391
 40
0.8260869565217391
 40
0.8260869565217391
 40
0.8260869565217391
 40
0.8695652173913043
 40
0.8695652173913043
 40
0.8695652173913043
 40
0.8695652173913043
 40
0.9130434782608695
 40
0.9130434782608695
 40
0.9130434782608695
 40
0.9130434782608695
 40
1.0
 40
1.0
 40
1.0
 40
1.0
 10
-8.9199
 20
28.5517
 30
0.0
 10
-8.9199
 20
28.5517
 30
0.0
 10
-8.6593
 20
28.5738
 30
0.0
 10
-8.6593
 20
28.5738
 30
0.0
 10
-8.6593
 20
28.5738
 30
0.0
 10
-8.64
 20
28.4468
 30
0.0
 10
-8.5953
 20
28.3518
 30
0.0
 10
-8.5252
 20
28.2878
 30
0.0
 10
-8.5252
 20
28.2878
 30
0.0
 10
-8.4547
 20
28.2238
 30
0.0
 10
-8.37
 20
28.1918
 30
0.0
 10
-8.2708
 20
28.1918
 30
0.0
 10
-8.2708
 20
28.1918
 30
0.0
 10
-8.1513
 20
28.1918
 30
0.0
 10
-8.0502
 20
28.237
 30
0.0
 10
-7.9679
 20
28.3268
 30
0.0
 10
-7.9679
 20
28.3268
 30
0.0
 10
-7.8851
 20
28.4171
 30
0.0
 10
-7.8437
 20
28.5366
 30
0.0
 10
-7.8437
 20
28.6852
 30
0.0
 10
-7.8437
 20
28.6852
 30
0.0
 10
-7.8437
 20
28.8268
 30
0.0
 10
-7.8832
 20
28.9383
 30
0.0
 10
-7.9627
 20
29.0201
 30
0.0
 10
-7.9627
 20
29.0201
 30
0.0
 10
-8.0422
 20
29.102
 30
0.0
 10
-8.1461
 20
29.1429
 30
0.0
 10
-8.275
 20
29.1429
 30
0.0
 10
-8.275
 20
29.1429
 30
0.0
 10
-8.355
 20
29.1429
 30
0.0
 10
-8.4269
 20
29.1246
 30
0.0
 10
-8.4914
 20
29.0884
 30
0.0
 10
-8.4914
 20
29.0884
 30
0.0
 10
-8.5558
 20
29.0521
 30
0.0
 10
-8.6061
 20
29.0051
 30
0.0
 10
-8.6428
 20
28.9472
 30
0.0
 10
-8.6428
 20
28.9472
 30
0.0
 10
-8.6428
 20
28.9472
 30
0.0
 10
-8.8757
 20
28.9773
 30
0.0
 10
-8.8757
 20
28.9773
 30
0.0
 10
-8.8757
 20
28.9773
 30
0.0
 10
-8.8757
 20
28.9773
 30
0.0
 10
-8.68
 20
30.015
 30
0.0
 10
-8.68
 20
30.015
 30
0.0
 10
-8.68
 20
30.015
 30
0.0
 10
-8.68
 20
30.015
 30
0.0
 10
-7.6753
 20
30.015
 30
0.0
 10
-7.6753
 20
30.015
 30
0.0
 10
-7.6753
 20
30.015
 30
0.0
 10
-7.6753
 20
30.015
 30
0.0
 10
-7.6753
 20
29.7779
 30
0.0
 10
-7.6753
 20
29.7779
 30
0.0
 10
-7.6753
 20
29.7779
 30
0.0
 10
-7.6753
 20
29.7779
 30
0.0
 10
-8.4815
 20
29.7779
 30
0.0
 10
-8.4815
 20
29.7779
 30
0.0
 10
-8.4815
 20
29.7779
 30
0.0
 10
-8.4815
 20
29.7779
 30
0.0
 10
-8.5906
 20
29.2351
 30
0.0
 10
-8.5906
 20
29.2351
 30
0.0
 10
-8.5906
 20
29.2351
 30
0.0
 10
-8.4693
 20
29.3198
 30
0.0
 10
-8.3418
 20
29.3621
 30
0.0
 10
-8.2087
 20
29.3621
 30
0.0
 10
-8.2087
 20
29.3621
 30
0.0
 10
-8.0323
 20
29.3621
 30
0.0
 10
-7.8837
 20
29.301
 30
0.0
 10
-7.7623
 20
29.1787
 30
0.0
 10
-7.7623
 20
29.1787
 30
0.0
 10
-7.641
 20
29.0564
 30
0.0
 10
-7.5803
 20
28.8993
 30
0.0
 10
-7.5803
 20
28.7074
 30
0.0
 10
-7.5803
 20
28.7074
 30
0.0
 10
-7.5803
 20
28.5244
 30
0.0
 10
-7.6339
 20
28.3663
 30
0.0
 10
-7.7402
 20
28.2332
 30
0.0
 10
-7.7402
 20
28.2332
 30
0.0
 10
-7.87
 20
28.07
 30
0.0
 10
-8.0469
 20
27.9882
 30
0.0
 10
-8.2708
 20
27.9882
 30
0.0
 10
-8.2708
 20
27.9882
 30
0.0
 10
-8.4547
 20
27.9882
 30
0.0
 10
-8.6047
 20
28.0394
 30
0.0
 10
-8.7209
 20
28.1424
 30
0.0
 10
-8.7209
 20
28.1424
 30
0.0
 10
-8.8371
 20
28.2455
 30
0.0
 10
-8.9034
 20
28.3819
 30
0.0
 10
-8.9199
 20
28.5517
 30
0.0
  0
SPLINE
  5
66
330
1F
100
AcDbEntity
  8
ROUND
 62
   250
100
AcDbSpline
210
0.0
220
0.0
230
1.0
 70
    11
 71
     3
 72
    20
 73
    16
 74
     0
 42
0.0000000001
 43
0.0000000001
 40
0.0
 40
0.0
 40
0.0
 40
0.0
 40
0.2
 40
0.2
 40
0.2
 40
0.2
 40
0.4
 40
0.4
 40
0.4
 40
0.4
 40
0.6
 40
0.6
 40
0.6
 40
0.6
 40
1.0
 40
1.0
 40
1.0
 40
1.0
 10
-7.4674
 20
27.9882
 30
0.0
 10
-7.4674
 20
27.9882
 30
0.0
 10
-6.8818
 20
30.0771
 30
0.0
 10
-6.8818
 20
30.0771
 30
0.0
 10
-6.8818
 20
30.0771
 30
0.0
 10
-6.8818
 20
30.0771
 30
0.0
 10
-6.6833
 20
30.0771
 30
0.0
 10
-6.6833
 20
30.0771
 30
0.0
 10
-6.6833
 20
30.0771
 30
0.0
 10
-6.6833
 20
30.0771
 30
0.0
 10
-7.2675
 20
27.9882
 30
0.0
 10
-7.2675
 20
27.9882
 30
0.0
 10
-7.2675
 20
27.9882
 30
0.0
 10
-7.2675
 20
27.9882
 30
0.0
 10
-7.4674
 20
27.9882
 30
0.0
 10
-7.4674
 20
27.9882
 30
0.0
  0
SPLINE
  5
67
330
1F
100
AcDbEntity
  8
ROUND
 62
   250
100
AcDbSpline
210
0.0
220
0.0
230
1.0
 70
    11
 71
     3
 72
    48
 73
    44
 74
     0
 42
0.0000000001
 43
0.0000000001
 40
0.0
 40
0.0
 40
0.0
 40
0.0
 40
0.0833333333333333
 40
0.0833333333333333
 40
0.0833333333333333
 40
0.0833333333333333
 40
0.1666666666666667
 40
0.1666666666666667
 40
0.1666666666666667
 40
0.1666666666666667
 40
0.25
 40
0.25
 40
0.25
 40
0.25
 40
0.3333333333333333
 40
0.3333333333333333
 40
0.3333333333333333
 40
0.3333333333333333
 40
0.4166666666666667
 40
0.4166666666666667
 40
0.4166666666666667
 40
0.4166666666666667
 40
0.5
 40
0.5
 40
0.5
 40
0.5
 40
0.5833333333333334
 40
0.5833333333333334
 40
0.5833333333333334
 40
0.5833333333333334
 40
0.6666666666666666
 40
0.6666666666666666
 40
0.6666666666666666
 40
0.6666666666666666
 40
0.75
 40
0.75
 40
0.75
 40
0.75
 40
0.8333333333333334
 40
0.8333333333333334
 40
0.8333333333333334
 40
0.8333333333333334
 40
1.0
 40
1.0
 40
1.0
 40
1.0
 10
-5.7713
 20
28.0225
 30
0.0
 10
-5.7713
 20
28.0225
 30
0.0
 10
-5.7713
 20
28.506
 30
0.0
 10
-5.7713
 20
28.506
 30
0.0
 10
-5.7713
 20
28.506
 30
0.0
 10
-5.7713
 20
28.506
 30
0.0
 10
-6.6476
 20
28.506
 30
0.0
 10
-6.6476
 20
28.506
 30
0.0
 10
-6.6476
 20
28.506
 30
0.0
 10
-6.6476
 20
28.506
 30
0.0
 10
-6.6476
 20
28.7337
 30
0.0
 10
-6.6476
 20
28.7337
 30
0.0
 10
-6.6476
 20
28.7337
 30
0.0
 10
-6.6476
 20
28.7337
 30
0.0
 10
-5.7256
 20
30.0427
 30
0.0
 10
-5.7256
 20
30.0427
 30
0.0
 10
-5.7256
 20
30.0427
 30
0.0
 10
-5.7256
 20
30.0427
 30
0.0
 10
-5.5229
 20
30.0427
 30
0.0
 10
-5.5229
 20
30.0427
 30
0.0
 10
-5.5229
 20
30.0427
 30
0.0
 10
-5.5229
 20
30.0427
 30
0.0
 10
-5.5229
 20
28.7337
 30
0.0
 10
-5.5229
 20
28.7337
 30
0.0
 10
-5.5229
 20
28.7337
 30
0.0
 10
-5.5229
 20
28.7337
 30
0.0
 10
-5.2501
 20
28.7337
 30
0.0
 10
-5.2501
 20
28.7337
 30
0.0
 10
-5.2501
 20
28.7337
 30
0.0
 10
-5.2501
 20
28.7337
 30
0.0
 10
-5.2501
 20
28.506
 30
0.0
 10
-5.2501
 20
28.506
 30
0.0
 10
-5.2501
 20
28.506
 30
0.0
 10
-5.2501
 20
28.506
 30
0.0
 10
-5.5229
 20
28.506
 30
0.0
 10
-5.5229
 20
28.506
 30
0.0
 10
-5.5229
 20
28.506
 30
0.0
 10
-5.5229
 20
28.506
 30
0.0
 10
-5.5229
 20
28.0225
 30
0.0
 10
-5.5229
 20
28.0225
 30
0.0
 10
-5.5229
 20
28.0225
 30
0.0
 10
-5.5229
 20
28.0225
 30
0.0
 10
-5.7713
 20
28.0225
 30
0.0
 10
-5.7713
 20
28.0225
 30
0.0
  0
SPLINE
  5
68
330
1F
100
AcDbEntity
  8
ROUND
 62
   250
100
AcDbSpline
210
0.0
220
0.0
230
1.0
 70
    11
 71
     3
 72
    16
 73
    12
 74
     0
 42
0.0000000001
 43
0.0000000001
 40
0.0
 40
0.0
 40
0.0
 40
0.0
 40
0.25
 40
0.25
 40
0.25
 40
0.25
 40
0.5
 40
0.5
 40
0.5
 40
0.5
 40
1.0
 40
1.0
 40
1.0
 40
1.0
 10
-5.7713
 20
28.7337
 30
0.0
 10
-5.7713
 20
28.7337
 30
0.0
 10
-5.7713
 20
29.6443
 30
0.0
 10
-5.7713
 20
29.6443
 30
0.0
 10
-5.7713
 20
29.6443
 30
0.0
 10
-5.7713
 20
29.6443
 30
0.0
 10
-6.4034
 20
28.7337
 30
0.0
 10
-6.4034
 20
28.7337
 30
0.0
 10
-6.4034
 20
28.7337
 30
0.0
 10
-6.4034
 20
28.7337
 30
0.0
 10
-5.7713
 20
28.7337
 30
0.0
 10
-5.7713
 20
28.7337
 30
0.0
  0
SPLINE
  5
69
330
1F
100
AcDbEntity
  8
ROUND
 62
   250
100
AcDbSpline
210
0.0
220
0.0
230
1.0
 70
    11
 71
     3
 72
    28
 73
    24
 74
     0
 42
0.0000000001
 43
0.0000000001
 40
0.0
 40
0.0
 40
0.0
 40
0.0
 40
0.1428571428571428
 40
0.1428571428571428
 40
0.1428571428571428
 40
0.1428571428571428
 40
0.2857142857142857
 40
0.2857142857142857
 40
0.2857142857142857
 40
0.2857142857142857
 40
0.4285714285714285
 40
0.4285714285714285
 40
0.4285714285714285
 40
0.4285714285714285
 40
0.5714285714285714
 40
0.5714285714285714
 40
0.5714285714285714
 40
0.5714285714285714
 40
0.7142857142857143
 40
0.7142857142857143
 40
0.7142857142857143
 40
0.7142857142857143
 40
1.0
 40
1.0
 40
1.0
 40
1.0
 10
-4.9152
 20
29.3273
 30
0.0
 10
-4.9152
 20
29.3273
 30
0.0
 10
-4.9843
 20
29.7121
 30
0.0
 10
-4.9843
 20
29.7121
 30
0.0
 10
-4.9843
 20
29.7121
 30
0.0
 10
-4.9843
 20
29.7121
 30
0.0
 10
-4.9843
 20
30.0427
 30
0.0
 10
-4.9843
 20
30.0427
 30
0.0
 10
-4.9843
 20
30.0427
 30
0.0
 10
-4.9843
 20
30.0427
 30
0.0
 10
-4.7017
 20
30.0427
 30
0.0
 10
-4.7017
 20
30.0427
 30
0.0
 10
-4.7017
 20
30.0427
 30
0.0
 10
-4.7017
 20
30.0427
 30
0.0
 10
-4.7017
 20
29.7121
 30
0.0
 10
-4.7017
 20
29.7121
 30
0.0
 10
-4.7017
 20
29.7121
 30
0.0
 10
-4.7017
 20
29.7121
 30
0.0
 10
-4.7637
 20
29.3273
 30
0.0
 10
-4.7637
 20
29.3273
 30
0.0
 10
-4.7637
 20
29.3273
 30
0.0
 10
-4.7637
 20
29.3273
 30
0.0
 10
-4.9152
 20
29.3273
 30
0.0
 10
-4.9152
 20
29.3273
 30
0.0
  0
SPLINE
  5
6A
330
1F
100
AcDbEntity
  8
ROUND
 62
   250
100
AcDbSpline
210
0.0
220
0.0
230
1.0
 70
    11
 71
     3
 72
    28
 73
    24
 74
     0
 42
0.0000000001
 43
0.0000000001
 40
0.0
 40
0.0
 40
0.0
 40
0.0
 40
0.1428571428571428
 40
0.1428571428571428
 40
0.1428571428571428
 40
0.1428571428571428
 40
0.2857142857142857
 40
0.2857142857142857
 40
0.2857142857142857
 40
0.2857142857142857
 40
0.4285714285714285
 40
0.4285714285714285
 40
0.4285714285714285
 40
0.4285714285714285
 40
0.5714285714285714
 40
0.5714285714285714
 40
0.5714285714285714
 40
0.5714285714285714
 40
0.7142857142857143
 40
0.7142857142857143
 40
0.7142857142857143
 40
0.7142857142857143
 40
1.0
 40
1.0
 40
1.0
 40
1.0
 10
-4.4589
 20
29.3273
 30
0.0
 10
-4.4589
 20
29.3273
 30
0.0
 10
-4.5267
 20
29.7121
 30
0.0
 10
-4.5267
 20
29.7121
 30
0.0
 10
-4.5267
 20
29.7121
 30
0.0
 10
-4.5267
 20
29.7121
 30
0.0
 10
-4.5267
 20
30.0427
 30
0.0
 10
-4.5267
 20
30.0427
 30
0.0
 10
-4.5267
 20
30.0427
 30
0.0
 10
-4.5267
 20
30.0427
 30
0.0
 10
-4.244
 20
30.0427
 30
0.0
 10
-4.244
 20
30.0427
 30
0.0
 10
-4.244
 20
30.0427
 30
0.0
 10
-4.244
 20
30.0427
 30
0.0
 10
-4.244
 20
29.7121
 30
0.0
 10
-4.244
 20
29.7121
 30
0.0
 10
-4.244
 20
29.7121
 30
0.0
 10
-4.244
 20
29.7121
 30
0.0
 10
-4.3103
 20
29.3273
 30
0.0
 10
-4.3103
 20
29.3273
 30
0.0
 10
-4.3103
 20
29.3273
 30
0.0
 10
-4.3103
 20
29.3273
 30
0.0
 10
-4.4589
 20
29.3273
 30
0.0
 10
-4.4589
 20
29.3273
 30
0.0
  0
SPLINE
  5
6B
330
1F
100
AcDbEntity
  8
ROUND
 62
   250
100
AcDbSpline
210
0.0
220
0.0
230
1.0
 70
    24
 71
     3
 72
     8
 73
     4
 74
     0
 42
0.0000000001
 43
0.0000000001
 40
0.0
 40
0.0
 40
0.0
 40
0.0
 40
1.0
 40
1.0
 40
1.0
 40
1.0
 10
-17.0006
 20
-19.2718
 30
0.0
 10
-17.0006
 20
-19.2718
 30
0.0
 10
-24.7646
 20
-19.2718
 30
0.0
 10
-24.7646
 20
-19.2718
 30
0.0
  0
SPLINE
  5
6C
330
1F
100
AcDbEntity
  8
ROUND
 62
   250
100
AcDbSpline
210
0.0
220
0.0
230
1.0
 70
    24
 71
     3
 72
     8
 73
     4
 74
     0
 42
0.0000000001
 43
0.0000000001
 40
0.0
 40
0.0
 40
0.0
 40
0.0
 40
1.0
 40
1.0
 40
1.0
 40
1.0
 10
-18.0602
 20
23.5716
 30
0.0
 10
-18.0602
 20
23.5716
 30
0.0
 10
-24.9937
 20
23.5716
 30
0.0
 10
-24.9937
 20
23.5716
 30
0.0
  0
SPLINE
  5
6D
330
1F
100
AcDbEntity
  8
ROUND
 62
   250
100
AcDbSpline
210
0.0
220
0.0
230
1.0
 70
    24
 71
     3
 72
     8
 73
     4
 74
     0
 42
0.0000000001
 43
0.0000000001
 40
0.0
 40
0.0
 40
0.0
 40
0.0
 40
1.0
 40
1.0
 40
1.0
 40
1.0
 10
-23.9245
 20
-18.0883
 30
0.0
 10
-23.9245
 20
-18.0883
 30
0.0
 10
-23.9245
 20
23.4171
 30
0.0
 10
-23.9245
 20
23.4171
 30
0.0
  0
SPLINE
  5
6E
330
1F
100
AcDbEntity
  8
ROUND
  6
NEW_LINE2
 62
   250
100
AcDbSpline
210
0.0
220
0.0
230
1.0
 70
    24
 71
     3
 72
     8
 73
     4
 74
     0
 42
0.0000000001
 43
0.0000000001
 40
0.0
 40
0.0
 40
0.0
 40
0.0
 40
1.0
 40
1.0
 40
1.0
 40
1.0
 10
-16.1568
 20
-19.2718
 30
0.0
 10
-16.1568
 20
-19.2718
 30
0.0
 10
-16.1568
 20
-24.8062
 30
0.0
 10
-16.1568
 20
-24.8062
 30
0.0
  0
SPLINE
  5
70
330
1F
100
AcDbEntity
  8
ROUND
  6
NEW_LINE3
 62
   250
100
AcDbSpline
210
0.0
220
0.0
230
1.0
 70
    24
 71
     3
 72
     8
 73
     4
 74
     0
 42
0.0000000001
 43
0.0000000001
 40
0.0
 40
0.0
 40
0.0
 40
0.0
 40
1.0
 40
1.0
 40
1.0
 40
1.0
 10
-0.5484
 20
-19.2718
 30
0.0
 10
-0.5484
 20
-19.2718
 30
0.0
 10
-0.5484
 20
-24.8329
 30
0.0
 10
-0.5484
 20
-24.8329
 30
0.0
  0
SPLINE
  5
72
330
1F
100
AcDbEntity
  8
ROUND
  6
NEW_LINE4
 62
   250
100
AcDbSpline
210
0.0
220
0.0
230
1.0
 70
    24
 71
     3
 72
     8
 73
     4
 74
     0
 42
0.0000000001
 43
0.0000000001
 40
0.0
 40
0.0
 40
0.0
 40
0.0
 40
1.0
 40
1.0
 40
1.0
 40
1.0
 10
-1.3272
 20
-23.9914
 30
0.0
 10
-1.3272
 20
-23.9914
 30
0.0
 10
-15.8513
 20
-23.9914
 30
0.0
 10
-15.8513
 20
-23.9914
 30
0.0
  0
SPLINE
  5
74
330
1F
100
AcDbEntity
  8
ROUND
  6
NEW_LINE5
 62
   250
100
AcDbSpline
210
0.0
220
0.0
230
1.0
 70
    24
 71
     3
 72
     8
 73
     4
 74
     0
 42
0.0000000001
 43
0.0000000001
 40
0.0
 40
0.0
 40
0.0
 40
0.0
 40
1.0
 40
1.0
 40
1.0
 40
1.0
 10
-16.1941
 20
24.3693
 30
0.0
 10
-16.1941
 20
24.3693
 30
0.0
 10
-16.1941
 20
28.0137
 30
0.0
 10
-16.1941
 20
28.0137
 30
0.0
  0
SPLINE
  5
76
330
1F
100
AcDbEntity
  8
ROUND
  6
NEW_LINE6
 62
   250
100
AcDbSpline
210
0.0
220
0.0
230
1.0
 70
    24
 71
     3
 72
     8
 73
     4
 74
     0
 42
0.0000000001
 43
0.0000000001
 40
0.0
 40
0.0
 40
0.0
 40
0.0
 40
1.0
 40
1.0
 40
1.0
 40
1.0
 10
-0.5648
 20
24.1559
 30
0.0
 10
-0.5648
 20
24.1559
 30
0.0
 10
-0.5648
 20
27.9963
 30
0.0
 10
-0.5648
 20
27.9963
 30
0.0
  0
SPLINE
  5
78
330
1F
100
AcDbEntity
  8
ROUND
  6
NEW_LINE7
 62
   250
100
AcDbSpline
210
0.0
220
0.0
230
1.0
 70
    24
 71
     3
 72
     8
 73
     4
 74
     0
 42
0.0000000001
 43
0.0000000001
 40
0.0
 40
0.0
 40
0.0
 40
0.0
 40
1.0
 40
1.0
 40
1.0
 40
1.0
 10
-0.8095
 20
27.1631
 30
0.0
 10
-0.8095
 20
27.1631
 30
0.0
 10
-16.0485
 20
27.1631
 30
0.0
 10
-16.0485
 20
27.1631
 30
0.0
  0
SPLINE
  5
7A
330
1F
100
AcDbEntity
  8
ROUND
  6
NEW_LINE8
 62
   250
100
AcDbSpline
210
0.0
220
0.0
230
1.0
 70
    24
 71
     3
 72
     8
 73
     4
 74
     0
 42
0.0000000001
 43
0.0000000001
 40
0.0
 40
0.0
 40
0.0
 40
0.0
 40
1.0
 40
1.0
 40
1.0
 40
1.0
 10
-8.3528
 20
-24.6779
 30
0.0
 10
-8.3528
 20
-24.6779
 30
0.0
 10
-8.3528
 20
-30.0771
 30
0.0
 10
-8.3528
 20
-30.0771
 30
0.0
  0
SPLINE
  5
7C
330
1F
100
AcDbEntity
  8
ROUND
  6
NEW_LINE9
 62
   250
100
AcDbSpline
210
0.0
220
0.0
230
1.0
 70
    24
 71
     3
 72
     8
 73
     4
 74
     0
 42
0.0000000001
 43
0.0000000001
 40
0.0
 40
0.0
 40
0.0
 40
0.0
 40
1.0
 40
1.0
 40
1.0
 40
1.0
 10
-7.2609
 20
-29.2461
 30
0.0
 10
-7.2609
 20
-29.2461
 30
0.0
 10
5.4504
 20
-29.2461
 30
0.0
 10
5.4504
 20
-29.2461
 30
0.0
  0
SPLINE
  5
7E
330
1F
100
AcDbEntity
  8
ROUND
  6
NEW_LINE10
 62
   250
100
AcDbSpline
210
0.0
220
0.0
230
1.0
 70
    24
 71
     3
 72
     8
 73
     4
 74
     0
 42
0.0000000001
 43
0.0000000001
 40
0.0
 40
0.0
 40
0.0
 40
0.0
 40
1.0
 40
1.0
 40
1.0
 40
1.0
 10
18.7922
 20
-29.2461
 30
0.0
 10
18.7922
 20
-29.2461
 30
0.0
 10
5.4504
 20
-29.2461
 30
0.0
 10
5.4504
 20
-29.2461
 30
0.0
  0
SPLINE
  5
80
330
1F
100
AcDbEntity
  8
ROUND
  6
NEW_LINE11
 62
   250
100
AcDbSpline
210
0.0
220
0.0
230
1.0
 70
    24
 71
     3
 72
     8
 73
     4
 74
     0
 42
0.0000000001
 43
0.0000000001
 40
0.0
 40
0.0
 40
0.0
 40
0.0
 40
1.0
 40
1.0
 40
1.0
 40
1.0
 10
22.5067
 20
-18.5456
 30
0.0
 10
22.5067
 20
-18.5456
 30
0.0
 10
22.5067
 20
-25.4455
 30
0.0
 10
22.5067
 20
-25.4455
 30
0.0
  0
SPLINE
  5
82
330
1F
100
AcDbEntity
  8
ROUND
  6
NEW_LINE12
 62
   250
100
AcDbSpline
210
0.0
220
0.0
230
1.0
 70
    24
 71
     3
 72
     8
 73
     4
 74
     0
 42
0.0000000001
 43
0.0000000001
 40
0.0
 40
0.0
 40
0.0
 40
0.0
 40
1.0
 40
1.0
 40
1.0
 40
1.0
 10
16.0001
 20
-18.6083
 30
0.0
 10
16.0001
 20
-18.6083
 30
0.0
 10
16.0001
 20
-25.4455
 30
0.0
 10
16.0001
 20
-25.4455
 30
0.0
  0
SPLINE
  5
84
330
1F
100
AcDbEntity
  8
ROUND
  6
NEW_LINE13
 62
   250
100
AcDbSpline
210
0.0
220
0.0
230
1.0
 70
    24
 71
     3
 72
     8
 73
     4
 74
     0
 42
0.0000000001
 43
0.0000000001
 40
0.0
 40
0.0
 40
0.0
 40
0.0
 40
1.0
 40
1.0
 40
1.0
 40
1.0
 10
26.4455
 20
-25.0694
 30
0.0
 10
26.4455
 20
-25.0694
 30
0.0
 10
9.7501
 20
-25.0694
 30
0.0
 10
9.7501
 20
-25.0694
 30
0.0
  0
SPLINE
  5
86
330
1F
100
AcDbEntity
  8
ROUND
 62
   250
100
AcDbSpline
210
0.0
220
0.0
230
1.0
 70
    24
 71
     3
 72
     8
 73
     4
 74
     0
 42
0.0000000001
 43
0.0000000001
 40
0.0
 40
0.0
 40
0.0
 40
0.0
 40
1.0
 40
1.0
 40
1.0
 40
1.0
 10
-18.6955
 20
17.3984
 30
0.0
 10
-18.6955
 20
17.3984
 30
0.0
 10
-18.6955
 20
22.6639
 30
0.0
 10
-18.6955
 20
22.6639
 30
0.0
  0
SPLINE
  5
87
330
1F
100
AcDbEntity
  8
ROUND
 62
   250
100
AcDbSpline
210
0.0
220
0.0
230
1.0
 70
    24
 71
     3
 72
     8
 73
     4
 74
     0
 42
0.0000000001
 43
0.0000000001
 40
0.0
 40
0.0
 40
0.0
 40
0.0
 40
1.0
 40
1.0
 40
1.0
 40
1.0
 10
-18.5075
 20
16.4579
 30
0.0
 10
-18.5075
 20
16.4579
 30
0.0
 10
-18.5075
 20
19.4047
 30
0.0
 10
-18.5075
 20
19.4047
 30
0.0
  0
SPLINE
  5
88
330
1F
100
AcDbEntity
  8
ROUND
 62
   250
100
AcDbSpline
210
0.0
220
0.0
230
1.0
 70
    24
 71
     3
 72
     8
 73
     4
 74
     0
 42
0.0000000001
 43
0.0000000001
 40
0.0
 40
0.0
 40
0.0
 40
0.0
 40
1.0
 40
1.0
 40
1.0
 40
1.0
 10
-18.0922
 20
-13.4422
 30
0.0
 10
-18.0922
 20
-13.4422
 30
0.0
 10
-18.0922
 20
-9.117
 30
0.0
 10
-18.0922
 20
-9.117
 30
0.0
  0
SPLINE
  5
89
330
1F
100
AcDbEntity
  8
ROUND
 62
   250
100
AcDbSpline
210
0.0
220
0.0
230
1.0
 70
    24
 71
     3
 72
     8
 73
     4
 74
     0
 42
0.0000000001
 43
0.0000000001
 40
0.0
 40
0.0
 40
0.0
 40
0.0
 40
1.0
 40
1.0
 40
1.0
 40
1.0
 10
-16.1567
 20
-19.2718
 30
0.0
 10
-16.1567
 20
-19.2718
 30
0.0
 10
-0.5485
 20
-19.2718
 30
0.0
 10
-0.5485
 20
-19.2718
 30
0.0
  0
SPLINE
  5
8A
330
1F
100
AcDbEntity
  8
ROUND
 62
   250
100
AcDbSpline
210
0.0
220
0.0
230
1.0
 70
    24
 71
     3
 72
     8
 73
     4
 74
     0
 42
0.0000000001
 43
0.0000000001
 40
0.0
 40
0.0
 40
0.0
 40
0.0
 40
1.0
 40
1.0
 40
1.0
 40
1.0
 10
-16.1787
 20
21.5355
 30
0.0
 10
-16.1787
 20
21.5355
 30
0.0
 10
-16.1787
 20
18.1506
 30
0.0
 10
-16.1787
 20
18.1506
 30
0.0
  0
SPLINE
  5
8B
330
1F
100
AcDbEntity
  8
ROUND
 62
   250
100
AcDbSpline
210
0.0
220
0.0
230
1.0
 70
    24
 71
     3
 72
     8
 73
     4
 74
     0
 42
0.0000000001
 43
0.0000000001
 40
0.0
 40
0.0
 40
0.0
 40
0.0
 40
1.0
 40
1.0
 40
1.0
 40
1.0
 10
-16.1568
 20
-19.2718
 30
0.0
 10
-16.1568
 20
-19.2718
 30
0.0
 10
-16.1568
 20
-14.5705
 30
0.0
 10
-16.1568
 20
-14.5705
 30
0.0
  0
SPLINE
  5
8C
330
1F
100
AcDbEntity
  8
ROUND
 62
   250
100
AcDbSpline
210
0.0
220
0.0
230
1.0
 70
    24
 71
     3
 72
     8
 73
     4
 74
     0
 42
0.0000000001
 43
0.0000000001
 40
0.0
 40
0.0
 40
0.0
 40
0.0
 40
1.0
 40
1.0
 40
1.0
 40
1.0
 10
-14.9816
 20
18.1506
 30
0.0
 10
-14.9816
 20
18.1506
 30
0.0
 10
-14.9816
 20
21.5355
 30
0.0
 10
-14.9816
 20
21.5355
 30
0.0
  0
SPLINE
  5
8D
330
1F
100
AcDbEntity
  8
ROUND
 62
   250
100
AcDbSpline
210
0.0
220
0.0
230
1.0
 70
    24
 71
     3
 72
     8
 73
     4
 74
     0
 42
0.0000000001
 43
0.0000000001
 40
0.0
 40
0.0
 40
0.0
 40
0.0
 40
1.0
 40
1.0
 40
1.0
 40
1.0
 10
-14.6212
 20
-13.4422
 30
0.0
 10
-14.6212
 20
-13.4422
 30
0.0
 10
-14.6212
 20
-9.117
 30
0.0
 10
-14.6212
 20
-9.117
 30
0.0
  0
SPLINE
  5
8E
330
1F
100
AcDbEntity
  8
ROUND
 62
   250
100
AcDbSpline
210
0.0
220
0.0
230
1.0
 70
    24
 71
     3
 72
     8
 73
     4
 74
     0
 42
0.0000000001
 43
0.0000000001
 40
0.0
 40
0.0
 40
0.0
 40
0.0
 40
1.0
 40
1.0
 40
1.0
 40
1.0
 10
-18.3194
 20
-14.5705
 30
0.0
 10
-18.3194
 20
-14.5705
 30
0.0
 10
1.6142
 20
-14.5705
 30
0.0
 10
1.6142
 20
-14.5705
 30
0.0
  0
SPLINE
  5
8F
330
1F
100
AcDbEntity
  8
ROUND
 62
   250
100
AcDbSpline
210
0.0
220
0.0
230
1.0
 70
    24
 71
     3
 72
     8
 73
     4
 74
     0
 42
0.0000000001
 43
0.0000000001
 40
0.0
 40
0.0
 40
0.0
 40
0.0
 40
1.0
 40
1.0
 40
1.0
 40
1.0
 10
1.8022
 20
-13.4422
 30
0.0
 10
1.8022
 20
-13.4422
 30
0.0
 10
1.5927
 20
-13.4422
 30
0.0
 10
1.5927
 20
-13.4422
 30
0.0
  0
SPLINE
  5
90
330
1F
100
AcDbEntity
  8
ROUND
 62
   250
100
AcDbSpline
210
0.0
220
0.0
230
1.0
 70
    24
 71
     3
 72
     8
 73
     4
 74
     0
 42
0.0000000001
 43
0.0000000001
 40
0.0
 40
0.0
 40
0.0
 40
0.0
 40
1.0
 40
1.0
 40
1.0
 40
1.0
 10
1.5927
 20
-13.4422
 30
0.0
 10
1.5927
 20
-13.4422
 30
0.0
 10
-0.8571
 20
-13.4422
 30
0.0
 10
-0.8571
 20
-13.4422
 30
0.0
  0
SPLINE
  5
91
330
1F
100
AcDbEntity
  8
ROUND
 62
   250
100
AcDbSpline
210
0.0
220
0.0
230
1.0
 70
    24
 71
     3
 72
     8
 73
     4
 74
     0
 42
0.0000000001
 43
0.0000000001
 40
0.0
 40
0.0
 40
0.0
 40
0.0
 40
1.0
 40
1.0
 40
1.0
 40
1.0
 10
-0.8571
 20
-13.4422
 30
0.0
 10
-0.8571
 20
-13.4422
 30
0.0
 10
-1.7834
 20
-13.4422
 30
0.0
 10
-1.7834
 20
-13.4422
 30
0.0
  0
SPLINE
  5
92
330
1F
100
AcDbEntity
  8
ROUND
 62
   250
100
AcDbSpline
210
0.0
220
0.0
230
1.0
 70
    24
 71
     3
 72
     8
 73
     4
 74
     0
 42
0.0000000001
 43
0.0000000001
 40
0.0
 40
0.0
 40
0.0
 40
0.0
 40
1.0
 40
1.0
 40
1.0
 40
1.0
 10
-1.7834
 20
-13.4422
 30
0.0
 10
-1.7834
 20
-13.4422
 30
0.0
 10
-7.6976
 20
-13.4422
 30
0.0
 10
-7.6976
 20
-13.4422
 30
0.0
  0
SPLINE
  5
93
330
1F
100
AcDbEntity
  8
ROUND
 62
   250
100
AcDbSpline
210
0.0
220
0.0
230
1.0
 70
    24
 71
     3
 72
     8
 73
     4
 74
     0
 42
0.0000000001
 43
0.0000000001
 40
0.0
 40
0.0
 40
0.0
 40
0.0
 40
1.0
 40
1.0
 40
1.0
 40
1.0
 10
-7.6976
 20
-13.4422
 30
0.0
 10
-7.6976
 20
-13.4422
 30
0.0
 10
-9.0076
 20
-13.4422
 30
0.0
 10
-9.0076
 20
-13.4422
 30
0.0
  0
SPLINE
  5
94
330
1F
100
AcDbEntity
  8
ROUND
 62
   250
100
AcDbSpline
210
0.0
220
0.0
230
1.0
 70
    24
 71
     3
 72
     8
 73
     4
 74
     0
 42
0.0000000001
 43
0.0000000001
 40
0.0
 40
0.0
 40
0.0
 40
0.0
 40
1.0
 40
1.0
 40
1.0
 40
1.0
 10
-14.9218
 20
-13.4422
 30
0.0
 10
-14.9218
 20
-13.4422
 30
0.0
 10
-15.8482
 20
-13.4422
 30
0.0
 10
-15.8482
 20
-13.4422
 30
0.0
  0
SPLINE
  5
95
330
1F
100
AcDbEntity
  8
ROUND
 62
   250
100
AcDbSpline
210
0.0
220
0.0
230
1.0
 70
    24
 71
     3
 72
     8
 73
     4
 74
     0
 42
0.0000000001
 43
0.0000000001
 40
0.0
 40
0.0
 40
0.0
 40
0.0
 40
1.0
 40
1.0
 40
1.0
 40
1.0
 10
-15.8482
 20
-13.4422
 30
0.0
 10
-15.8482
 20
-13.4422
 30
0.0
 10
-18.2978
 20
-13.4422
 30
0.0
 10
-18.2978
 20
-13.4422
 30
0.0
  0
SPLINE
  5
96
330
1F
100
AcDbEntity
  8
ROUND
 62
   250
100
AcDbSpline
210
0.0
220
0.0
230
1.0
 70
    24
 71
     3
 72
     8
 73
     4
 74
     0
 42
0.0000000001
 43
0.0000000001
 40
0.0
 40
0.0
 40
0.0
 40
0.0
 40
1.0
 40
1.0
 40
1.0
 40
1.0
 10
-18.2978
 20
-13.4422
 30
0.0
 10
-18.2978
 20
-13.4422
 30
0.0
 10
-18.5075
 20
-13.4422
 30
0.0
 10
-18.5075
 20
-13.4422
 30
0.0
  0
SPLINE
  5
97
330
1F
100
AcDbEntity
  8
ROUND
 62
   250
100
AcDbSpline
210
0.0
220
0.0
230
1.0
 70
    24
 71
     3
 72
     8
 73
     4
 74
     0
 42
0.0000000001
 43
0.0000000001
 40
0.0
 40
0.0
 40
0.0
 40
0.0
 40
1.0
 40
1.0
 40
1.0
 40
1.0
 10
-14.9218
 20
-13.4422
 30
0.0
 10
-14.9218
 20
-13.4422
 30
0.0
 10
-9.0076
 20
-13.4422
 30
0.0
 10
-9.0076
 20
-13.4422
 30
0.0
  0
SPLINE
  5
98
330
1F
100
AcDbEntity
  8
ROUND
 62
   250
100
AcDbSpline
210
0.0
220
0.0
230
1.0
 70
    24
 71
     3
 72
     8
 73
     4
 74
     0
 42
0.0000000001
 43
0.0000000001
 40
0.0
 40
0.0
 40
0.0
 40
0.0
 40
1.0
 40
1.0
 40
1.0
 40
1.0
 10
-9.2271
 20
-13.4422
 30
0.0
 10
-9.2271
 20
-13.4422
 30
0.0
 10
-9.2271
 20
-9.117
 30
0.0
 10
-9.2271
 20
-9.117
 30
0.0
  0
SPLINE
  5
99
330
1F
100
AcDbEntity
  8
ROUND
 62
   250
100
AcDbSpline
210
0.0
220
0.0
230
1.0
 70
    24
 71
     3
 72
     8
 73
     4
 74
     0
 42
0.0000000001
 43
0.0000000001
 40
0.0
 40
0.0
 40
0.0
 40
0.0
 40
1.0
 40
1.0
 40
1.0
 40
1.0
 10
-9.1048
 20
21.5355
 30
0.0
 10
-9.1048
 20
21.5355
 30
0.0
 10
-9.1048
 20
18.1506
 30
0.0
 10
-9.1048
 20
18.1506
 30
0.0
  0
SPLINE
  5
9A
330
1F
100
AcDbEntity
  8
ROUND
 62
   250
100
AcDbSpline
210
0.0
220
0.0
230
1.0
 70
    24
 71
     3
 72
     8
 73
     4
 74
     0
 42
0.0000000001
 43
0.0000000001
 40
0.0
 40
0.0
 40
0.0
 40
0.0
 40
1.0
 40
1.0
 40
1.0
 40
1.0
 10
-7.6004
 20
21.5355
 30
0.0
 10
-7.6004
 20
21.5355
 30
0.0
 10
-7.6004
 20
18.1506
 30
0.0
 10
-7.6004
 20
18.1506
 30
0.0
  0
SPLINE
  5
9B
330
1F
100
AcDbEntity
  8
ROUND
 62
   250
100
AcDbSpline
210
0.0
220
0.0
230
1.0
 70
    24
 71
     3
 72
     8
 73
     4
 74
     0
 42
0.0000000001
 43
0.0000000001
 40
0.0
 40
0.0
 40
0.0
 40
0.0
 40
1.0
 40
1.0
 40
1.0
 40
1.0
 10
-7.4782
 20
-13.4422
 30
0.0
 10
-7.4782
 20
-13.4422
 30
0.0
 10
-7.4782
 20
-9.117
 30
0.0
 10
-7.4782
 20
-9.117
 30
0.0
  0
SPLINE
  5
9C
330
1F
100
AcDbEntity
  8
ROUND
 62
   250
100
AcDbSpline
210
0.0
220
0.0
230
1.0
 70
    24
 71
     3
 72
     8
 73
     4
 74
     0
 42
0.0000000001
 43
0.0000000001
 40
0.0
 40
0.0
 40
0.0
 40
0.0
 40
1.0
 40
1.0
 40
1.0
 40
1.0
 10
11.9515
 20
-4.7918
 30
0.0
 10
11.9515
 20
-4.7918
 30
0.0
 10
6.3155
 20
-4.7918
 30
0.0
 10
6.3155
 20
-4.7918
 30
0.0
  0
SPLINE
  5
9D
330
1F
100
AcDbEntity
  8
ROUND
 62
   250
100
AcDbSpline
210
0.0
220
0.0
230
1.0
 70
    24
 71
     3
 72
     8
 73
     4
 74
     0
 42
0.0000000001
 43
0.0000000001
 40
0.0
 40
0.0
 40
0.0
 40
0.0
 40
1.0
 40
1.0
 40
1.0
 40
1.0
 10
-0.8305
 20
-3.4755
 30
0.0
 10
-0.8305
 20
-3.4755
 30
0.0
 10
-15.8747
 20
-3.4755
 30
0.0
 10
-15.8747
 20
-3.4755
 30
0.0
  0
SPLINE
  5
9E
330
1F
100
AcDbEntity
  8
ROUND
 62
   250
100
AcDbSpline
210
0.0
220
0.0
230
1.0
 70
    24
 71
     3
 72
     8
 73
     4
 74
     0
 42
0.0000000001
 43
0.0000000001
 40
0.0
 40
0.0
 40
0.0
 40
0.0
 40
1.0
 40
1.0
 40
1.0
 40
1.0
 10
0.0157
 20
-3.7022
 30
0.0
 10
0.0157
 20
-3.7022
 30
0.0
 10
-0.8305
 20
-3.4755
 30
0.0
 10
-0.8305
 20
-3.4755
 30
0.0
  0
SPLINE
  5
9F
330
1F
100
AcDbEntity
  8
ROUND
 62
   250
100
AcDbSpline
210
0.0
220
0.0
230
1.0
 70
    24
 71
     3
 72
     8
 73
     4
 74
     0
 42
0.0000000001
 43
0.0000000001
 40
0.0
 40
0.0
 40
0.0
 40
0.0
 40
1.0
 40
1.0
 40
1.0
 40
1.0
 10
-2.0841
 20
-13.4422
 30
0.0
 10
-2.0841
 20
-13.4422
 30
0.0
 10
-2.0841
 20
-9.117
 30
0.0
 10
-2.0841
 20
-9.117
 30
0.0
  0
SPLINE
  5
A0
330
1F
100
AcDbEntity
  8
ROUND
 62
   250
100
AcDbSpline
210
0.0
220
0.0
230
1.0
 70
    24
 71
     3
 72
     8
 73
     4
 74
     0
 42
0.0000000001
 43
0.0000000001
 40
0.0
 40
0.0
 40
0.0
 40
0.0
 40
1.0
 40
1.0
 40
1.0
 40
1.0
 10
-1.7237
 20
18.1506
 30
0.0
 10
-1.7237
 20
18.1506
 30
0.0
 10
-1.7237
 20
21.5355
 30
0.0
 10
-1.7237
 20
21.5355
 30
0.0
  0
SPLINE
  5
A1
330
1F
100
AcDbEntity
  8
ROUND
 62
   250
100
AcDbSpline
210
0.0
220
0.0
230
1.0
 70
    24
 71
     3
 72
     8
 73
     4
 74
     0
 42
0.0000000001
 43
0.0000000001
 40
0.0
 40
0.0
 40
0.0
 40
0.0
 40
1.0
 40
1.0
 40
1.0
 40
1.0
 10
7.4438
 20
-3.1482
 30
0.0
 10
7.4438
 20
-3.1482
 30
0.0
 10
11.2049
 20
-3.1482
 30
0.0
 10
11.2049
 20
-3.1482
 30
0.0
  0
SPLINE
  5
A2
330
1F
100
AcDbEntity
  8
ROUND
 62
   250
100
AcDbSpline
210
0.0
220
0.0
230
1.0
 70
    24
 71
     3
 72
     8
 73
     4
 74
     0
 42
0.0000000001
 43
0.0000000001
 40
0.0
 40
0.0
 40
0.0
 40
0.0
 40
1.0
 40
1.0
 40
1.0
 40
1.0
 10
7.4438
 20
-2.0845
 30
0.0
 10
7.4438
 20
-2.0845
 30
0.0
 10
11.2049
 20
-2.0845
 30
0.0
 10
11.2049
 20
-2.0845
 30
0.0
  0
SPLINE
  5
A3
330
1F
100
AcDbEntity
  8
ROUND
 62
   250
100
AcDbSpline
210
0.0
220
0.0
230
1.0
 70
    24
 71
     3
 72
     8
 73
     4
 74
     0
 42
0.0000000001
 43
0.0000000001
 40
0.0
 40
0.0
 40
0.0
 40
0.0
 40
1.0
 40
1.0
 40
1.0
 40
1.0
 10
-0.5484
 20
-19.2718
 30
0.0
 10
-0.5484
 20
-19.2718
 30
0.0
 10
-0.5484
 20
-14.5705
 30
0.0
 10
-0.5484
 20
-14.5705
 30
0.0
  0
SPLINE
  5
A4
330
1F
100
AcDbEntity
  8
ROUND
 62
   250
100
AcDbSpline
210
0.0
220
0.0
230
1.0
 70
    24
 71
     3
 72
     8
 73
     4
 74
     0
 42
0.0000000001
 43
0.0000000001
 40
0.0
 40
0.0
 40
0.0
 40
0.0
 40
1.0
 40
1.0
 40
1.0
 40
1.0
 10
-0.5265
 20
21.5355
 30
0.0
 10
-0.5265
 20
21.5355
 30
0.0
 10
-0.5265
 20
18.1506
 30
0.0
 10
-0.5265
 20
18.1506
 30
0.0
  0
SPLINE
  5
A5
330
1F
100
AcDbEntity
  8
ROUND
 62
   250
100
AcDbSpline
210
0.0
220
0.0
230
1.0
 70
    24
 71
     3
 72
     8
 73
     4
 74
     0
 42
0.0000000001
 43
0.0000000001
 40
0.0
 40
0.0
 40
0.0
 40
0.0
 40
1.0
 40
1.0
 40
1.0
 40
1.0
 10
1.3869
 20
-13.4422
 30
0.0
 10
1.3869
 20
-13.4422
 30
0.0
 10
1.3869
 20
-9.117
 30
0.0
 10
1.3869
 20
-9.117
 30
0.0
  0
SPLINE
  5
A6
330
1F
100
AcDbEntity
  8
ROUND
 62
   250
100
AcDbSpline
210
0.0
220
0.0
230
1.0
 70
    24
 71
     3
 72
     8
 73
     4
 74
     0
 42
0.0000000001
 43
0.0000000001
 40
0.0
 40
0.0
 40
0.0
 40
0.0
 40
1.0
 40
1.0
 40
1.0
 40
1.0
 10
1.8022
 20
16.458
 30
0.0
 10
1.8022
 20
16.458
 30
0.0
 10
1.8022
 20
19.3236
 30
0.0
 10
1.8022
 20
19.3236
 30
0.0
  0
SPLINE
  5
A7
330
1F
100
AcDbEntity
  8
ROUND
 62
   250
100
AcDbSpline
210
0.0
220
0.0
230
1.0
 70
    24
 71
     3
 72
     8
 73
     4
 74
     0
 42
0.0000000001
 43
0.0000000001
 40
0.0
 40
0.0
 40
0.0
 40
0.0
 40
1.0
 40
1.0
 40
1.0
 40
1.0
 10
1.9903
 20
17.3984
 30
0.0
 10
1.9903
 20
17.3984
 30
0.0
 10
1.9903
 20
22.6639
 30
0.0
 10
1.9903
 20
22.6639
 30
0.0
  0
SPLINE
  5
A8
330
1F
100
AcDbEntity
  8
ROUND
 62
   250
100
AcDbSpline
210
0.0
220
0.0
230
1.0
 70
    24
 71
     3
 72
     8
 73
     4
 74
     0
 42
0.0000000001
 43
0.0000000001
 40
0.0
 40
0.0
 40
0.0
 40
0.0
 40
1.0
 40
1.0
 40
1.0
 40
1.0
 10
-16.721
 20
-3.7022
 30
0.0
 10
-16.721
 20
-3.7022
 30
0.0
 10
-15.8747
 20
-3.4755
 30
0.0
 10
-15.8747
 20
-3.4755
 30
0.0
  0
SPLINE
  5
A9
330
1F
100
AcDbEntity
  8
ROUND
 62
   250
100
AcDbSpline
210
0.0
220
0.0
230
1.0
 70
    24
 71
     3
 72
     8
 73
     4
 74
     0
 42
0.0000000001
 43
0.0000000001
 40
0.0
 40
0.0
 40
0.0
 40
0.0
 40
1.0
 40
1.0
 40
1.0
 40
1.0
 10
7.4438
 20
1.79
 30
0.0
 10
7.4438
 20
1.79
 30
0.0
 10
11.2049
 20
1.79
 30
0.0
 10
11.2049
 20
1.79
 30
0.0
  0
SPLINE
  5
AA
330
1F
100
AcDbEntity
  8
ROUND
 62
   250
100
AcDbSpline
210
0.0
220
0.0
230
1.0
 70
    24
 71
     3
 72
     8
 73
     4
 74
     0
 42
0.0000000001
 43
0.0000000001
 40
0.0
 40
0.0
 40
0.0
 40
0.0
 40
1.0
 40
1.0
 40
1.0
 40
1.0
 10
7.4438
 20
3.2944
 30
0.0
 10
7.4438
 20
3.2944
 30
0.0
 10
11.2049
 20
3.2944
 30
0.0
 10
11.2049
 20
3.2944
 30
0.0
  0
SPLINE
  5
AB
330
1F
100
AcDbEntity
  8
ROUND
 62
   250
100
AcDbSpline
210
0.0
220
0.0
230
1.0
 70
    24
 71
     3
 72
     8
 73
     4
 74
     0
 42
0.0000000001
 43
0.0000000001
 40
0.0
 40
0.0
 40
0.0
 40
0.0
 40
1.0
 40
1.0
 40
1.0
 40
1.0
 10
6.3155
 20
-4.7918
 30
0.0
 10
6.3155
 20
-4.7918
 30
0.0
 10
6.3155
 20
9.8763
 30
0.0
 10
6.3155
 20
9.8763
 30
0.0
  0
SPLINE
  5
AC
330
1F
100
AcDbEntity
  8
ROUND
 62
   250
100
AcDbSpline
210
0.0
220
0.0
230
1.0
 70
    24
 71
     3
 72
     8
 73
     4
 74
     0
 42
0.0000000001
 43
0.0000000001
 40
0.0
 40
0.0
 40
0.0
 40
0.0
 40
1.0
 40
1.0
 40
1.0
 40
1.0
 10
7.4438
 20
-4.7532
 30
0.0
 10
7.4438
 20
-4.7532
 30
0.0
 10
7.4438
 20
-3.1482
 30
0.0
 10
7.4438
 20
-3.1482
 30
0.0
  0
SPLINE
  5
AD
330
1F
100
AcDbEntity
  8
ROUND
 62
   250
100
AcDbSpline
210
0.0
220
0.0
230
1.0
 70
    24
 71
     3
 72
     8
 73
     4
 74
     0
 42
0.0000000001
 43
0.0000000001
 40
0.0
 40
0.0
 40
0.0
 40
0.0
 40
1.0
 40
1.0
 40
1.0
 40
1.0
 10
7.4438
 20
-2.0845
 30
0.0
 10
7.4438
 20
-2.0845
 30
0.0
 10
7.4438
 20
1.79
 30
0.0
 10
7.4438
 20
1.79
 30
0.0
  0
SPLINE
  5
AE
330
1F
100
AcDbEntity
  8
ROUND
 62
   250
100
AcDbSpline
210
0.0
220
0.0
230
1.0
 70
    24
 71
     3
 72
     8
 73
     4
 74
     0
 42
0.0000000001
 43
0.0000000001
 40
0.0
 40
0.0
 40
0.0
 40
0.0
 40
1.0
 40
1.0
 40
1.0
 40
1.0
 10
7.4438
 20
3.2944
 30
0.0
 10
7.4438
 20
3.2944
 30
0.0
 10
7.4438
 20
7.1689
 30
0.0
 10
7.4438
 20
7.1689
 30
0.0
  0
SPLINE
  5
AF
330
1F
100
AcDbEntity
  8
ROUND
 62
   250
100
AcDbSpline
210
0.0
220
0.0
230
1.0
 70
    24
 71
     3
 72
     8
 73
     4
 74
     0
 42
0.0000000001
 43
0.0000000001
 40
0.0
 40
0.0
 40
0.0
 40
0.0
 40
1.0
 40
1.0
 40
1.0
 40
1.0
 10
7.4438
 20
8.2328
 30
0.0
 10
7.4438
 20
8.2328
 30
0.0
 10
7.4438
 20
9.8376
 30
0.0
 10
7.4438
 20
9.8376
 30
0.0
  0
SPLINE
  5
B0
330
1F
100
AcDbEntity
  8
ROUND
 62
   250
100
AcDbSpline
210
0.0
220
0.0
230
1.0
 70
    24
 71
     3
 72
     8
 73
     4
 74
     0
 42
0.0000000001
 43
0.0000000001
 40
0.0
 40
0.0
 40
0.0
 40
0.0
 40
1.0
 40
1.0
 40
1.0
 40
1.0
 10
7.4438
 20
7.1689
 30
0.0
 10
7.4438
 20
7.1689
 30
0.0
 10
11.2049
 20
7.1689
 30
0.0
 10
11.2049
 20
7.1689
 30
0.0
  0
SPLINE
  5
B1
330
1F
100
AcDbEntity
  8
ROUND
 62
   250
100
AcDbSpline
210
0.0
220
0.0
230
1.0
 70
    24
 71
     3
 72
     8
 73
     4
 74
     0
 42
0.0000000001
 43
0.0000000001
 40
0.0
 40
0.0
 40
0.0
 40
0.0
 40
1.0
 40
1.0
 40
1.0
 40
1.0
 10
7.4438
 20
8.2328
 30
0.0
 10
7.4438
 20
8.2328
 30
0.0
 10
11.2049
 20
8.2328
 30
0.0
 10
11.2049
 20
8.2328
 30
0.0
  0
SPLINE
  5
B2
330
1F
100
AcDbEntity
  8
ROUND
 62
   250
100
AcDbSpline
210
0.0
220
0.0
230
1.0
 70
    24
 71
     3
 72
     8
 73
     4
 74
     0
 42
0.0000000001
 43
0.0000000001
 40
0.0
 40
0.0
 40
0.0
 40
0.0
 40
1.0
 40
1.0
 40
1.0
 40
1.0
 10
11.9515
 20
9.8763
 30
0.0
 10
11.9515
 20
9.8763
 30
0.0
 10
6.3155
 20
9.8763
 30
0.0
 10
6.3155
 20
9.8763
 30
0.0
  0
SPLINE
  5
B3
330
1F
100
AcDbEntity
  8
ROUND
 62
   250
100
AcDbSpline
210
0.0
220
0.0
230
1.0
 70
    24
 71
     3
 72
     8
 73
     4
 74
     0
 42
0.0000000001
 43
0.0000000001
 40
0.0
 40
0.0
 40
0.0
 40
0.0
 40
1.0
 40
1.0
 40
1.0
 40
1.0
 10
11.2049
 20
7.1689
 30
0.0
 10
11.2049
 20
7.1689
 30
0.0
 10
11.2049
 20
7.0353
 30
0.0
 10
11.2049
 20
7.0353
 30
0.0
  0
SPLINE
  5
B4
330
1F
100
AcDbEntity
  8
ROUND
 62
   250
100
AcDbSpline
210
0.0
220
0.0
230
1.0
 70
    24
 71
     3
 72
     8
 73
     4
 74
     0
 42
0.0000000001
 43
0.0000000001
 40
0.0
 40
0.0
 40
0.0
 40
0.0
 40
1.0
 40
1.0
 40
1.0
 40
1.0
 10
11.957
 20
7.7278
 30
0.0
 10
11.957
 20
7.7278
 30
0.0
 10
11.957
 20
7.5952
 30
0.0
 10
11.957
 20
7.5952
 30
0.0
  0
SPLINE
  5
B5
330
1F
100
AcDbEntity
  8
ROUND
 62
   250
100
AcDbSpline
210
0.0
220
0.0
230
1.0
 70
    24
 71
     3
 72
     8
 73
     4
 74
     0
 42
0.0000000001
 43
0.0000000001
 40
0.0
 40
0.0
 40
0.0
 40
0.0
 40
1.0
 40
1.0
 40
1.0
 40
1.0
 10
12.7092
 20
-3.8516
 30
0.0
 10
12.7092
 20
-3.8516
 30
0.0
 10
12.7092
 20
8.936
 30
0.0
 10
12.7092
 20
8.936
 30
0.0
  0
SPLINE
  5
B6
330
1F
100
AcDbEntity
  8
ROUND
 62
   250
100
AcDbSpline
210
0.0
220
0.0
230
1.0
 70
    24
 71
     3
 72
     8
 73
     4
 74
     0
 42
0.0000000001
 43
0.0000000001
 40
0.0
 40
0.0
 40
0.0
 40
0.0
 40
1.0
 40
1.0
 40
1.0
 40
1.0
 10
-17.7553
 20
15.7059
 30
0.0
 10
-17.7553
 20
15.7059
 30
0.0
 10
1.05
 20
15.7059
 30
0.0
 10
1.05
 20
15.7059
 30
0.0
  0
SPLINE
  5
B7
330
1F
100
AcDbEntity
  8
ROUND
 62
   250
100
AcDbSpline
210
0.0
220
0.0
230
1.0
 70
    24
 71
     3
 72
     8
 73
     4
 74
     0
 42
0.0000000001
 43
0.0000000001
 40
0.0
 40
0.0
 40
0.0
 40
0.0
 40
1.0
 40
1.0
 40
1.0
 40
1.0
 10
-1.0391
 20
17.3984
 30
0.0
 10
-1.0391
 20
17.3984
 30
0.0
 10
-1.1721
 20
17.3984
 30
0.0
 10
-1.1721
 20
17.3984
 30
0.0
  0
SPLINE
  5
B8
330
1F
100
AcDbEntity
  8
ROUND
 62
   250
100
AcDbSpline
210
0.0
220
0.0
230
1.0
 70
    24
 71
     3
 72
     8
 73
     4
 74
     0
 42
0.0000000001
 43
0.0000000001
 40
0.0
 40
0.0
 40
0.0
 40
0.0
 40
1.0
 40
1.0
 40
1.0
 40
1.0
 10
-15.6661
 20
17.3984
 30
0.0
 10
-15.6661
 20
17.3984
 30
0.0
 10
-15.5331
 20
17.3984
 30
0.0
 10
-15.5331
 20
17.3984
 30
0.0
  0
SPLINE
  5
B9
330
1F
100
AcDbEntity
  8
ROUND
 62
   250
100
AcDbSpline
210
0.0
220
0.0
230
1.0
 70
    24
 71
     3
 72
     8
 73
     4
 74
     0
 42
0.0000000001
 43
0.0000000001
 40
0.0
 40
0.0
 40
0.0
 40
0.0
 40
1.0
 40
1.0
 40
1.0
 40
1.0
 10
-1.5903
 20
18.1506
 30
0.0
 10
-1.5903
 20
18.1506
 30
0.0
 10
-1.7237
 20
18.1506
 30
0.0
 10
-1.7237
 20
18.1506
 30
0.0
  0
SPLINE
  5
BA
330
1F
100
AcDbEntity
  8
ROUND
 62
   250
100
AcDbSpline
210
0.0
220
0.0
230
1.0
 70
    24
 71
     3
 72
     8
 73
     4
 74
     0
 42
0.0000000001
 43
0.0000000001
 40
0.0
 40
0.0
 40
0.0
 40
0.0
 40
1.0
 40
1.0
 40
1.0
 40
1.0
 10
-15.1149
 20
18.1506
 30
0.0
 10
-15.1149
 20
18.1506
 30
0.0
 10
-14.9816
 20
18.1506
 30
0.0
 10
-14.9816
 20
18.1506
 30
0.0
  0
SPLINE
  5
BB
330
1F
100
AcDbEntity
  8
ROUND
 62
   250
100
AcDbSpline
210
0.0
220
0.0
230
1.0
 70
    24
 71
     3
 72
     8
 73
     4
 74
     0
 42
0.0000000001
 43
0.0000000001
 40
0.0
 40
0.0
 40
0.0
 40
0.0
 40
1.0
 40
1.0
 40
1.0
 40
1.0
 10
-9.1048
 20
21.5355
 30
0.0
 10
-9.1048
 20
21.5355
 30
0.0
 10
-15.1149
 20
21.5355
 30
0.0
 10
-15.1149
 20
21.5355
 30
0.0
  0
SPLINE
  5
BC
330
1F
100
AcDbEntity
  8
ROUND
 62
   250
100
AcDbSpline
210
0.0
220
0.0
230
1.0
 70
    24
 71
     3
 72
     8
 73
     4
 74
     0
 42
0.0000000001
 43
0.0000000001
 40
0.0
 40
0.0
 40
0.0
 40
0.0
 40
1.0
 40
1.0
 40
1.0
 40
1.0
 10
-16.1787
 20
21.5355
 30
0.0
 10
-16.1787
 20
21.5355
 30
0.0
 10
-18.6681
 20
21.5355
 30
0.0
 10
-18.6681
 20
21.5355
 30
0.0
  0
SPLINE
  5
BD
330
1F
100
AcDbEntity
  8
ROUND
 62
   250
100
AcDbSpline
210
0.0
220
0.0
230
1.0
 70
    24
 71
     3
 72
     8
 73
     4
 74
     0
 42
0.0000000001
 43
0.0000000001
 40
0.0
 40
0.0
 40
0.0
 40
0.0
 40
1.0
 40
1.0
 40
1.0
 40
1.0
 10
-7.6004
 20
21.5355
 30
0.0
 10
-7.6004
 20
21.5355
 30
0.0
 10
-1.5903
 20
21.5355
 30
0.0
 10
-1.5903
 20
21.5355
 30
0.0
  0
SPLINE
  5
BE
330
1F
100
AcDbEntity
  8
ROUND
 62
   250
100
AcDbSpline
210
0.0
220
0.0
230
1.0
 70
    24
 71
     3
 72
     8
 73
     4
 74
     0
 42
0.0000000001
 43
0.0000000001
 40
0.0
 40
0.0
 40
0.0
 40
0.0
 40
1.0
 40
1.0
 40
1.0
 40
1.0
 10
-0.5265
 20
21.5355
 30
0.0
 10
-0.5265
 20
21.5355
 30
0.0
 10
1.9629
 20
21.5355
 30
0.0
 10
1.9629
 20
21.5355
 30
0.0
  0
SPLINE
  5
BF
330
1F
100
AcDbEntity
  8
ROUND
 62
   250
100
AcDbSpline
210
0.0
220
0.0
230
1.0
 70
    24
 71
     3
 72
     8
 73
     4
 74
     0
 42
0.0000000001
 43
0.0000000001
 40
0.0
 40
0.0
 40
0.0
 40
0.0
 40
1.0
 40
1.0
 40
1.0
 40
1.0
 10
-18.6955
 20
22.6639
 30
0.0
 10
-18.6955
 20
22.6639
 30
0.0
 10
1.9903
 20
22.6639
 30
0.0
 10
1.9903
 20
22.6639
 30
0.0
  0
SPLINE
  5
C0
330
1F
100
AcDbEntity
  8
ROUND
 62
   250
100
AcDbSpline
210
0.0
220
0.0
230
1.0
 70
    24
 71
     3
 72
     8
 73
     4
 74
     0
 42
0.0000000001
 43
0.0000000001
 40
0.0
 40
0.0
 40
0.0
 40
0.0
 40
1.0
 40
1.0
 40
1.0
 40
1.0
 10
-17.1707
 20
23.5607
 30
0.0
 10
-17.1707
 20
23.5607
 30
0.0
 10
0.4902
 20
23.5607
 30
0.0
 10
0.4902
 20
23.5607
 30
0.0
  0
SPLINE
  5
C1
330
1F
100
AcDbEntity
  8
ROUND
 62
   250
100
AcDbSpline
210
0.0
220
0.0
230
1.0
 70
     8
 71
     3
 72
    12
 73
     8
 74
     0
 42
0.0000000001
 43
0.0000000001
 40
0.0
 40
0.0
 40
0.0
 40
0.0
 40
0.3333333333333333
 40
0.3333333333333333
 40
0.3333333333333333
 40
0.3333333333333333
 40
1.0
 40
1.0
 40
1.0
 40
1.0
 10
12.7092
 20
-3.8516
 30
0.0
 10
12.7092
 20
-4.267
 30
0.0
 10
12.3724
 20
-4.6038
 30
0.0
 10
11.957
 20
-4.6038
 30
0.0
 10
11.957
 20
-4.6038
 30
0.0
 10
11.957
 20
-4.6038
 30
0.0
 10
11.0295
 20
-4.6053
 30
0.0
 10
11.0295
 20
-4.6053
 30
0.0
  0
SPLINE
  5
C2
330
1F
100
AcDbEntity
  8
ROUND
 62
   250
100
AcDbSpline
210
0.0
220
0.0
230
1.0
 70
     8
 71
     3
 72
    12
 73
     8
 74
     0
 42
0.0000000001
 43
0.0000000001
 40
0.0
 40
0.0
 40
0.0
 40
0.0
 40
0.3333333333333333
 40
0.3333333333333333
 40
0.3333333333333333
 40
0.3333333333333333
 40
1.0
 40
1.0
 40
1.0
 40
1.0
 10
12.7092
 20
8.936
 30
0.0
 10
12.7092
 20
9.3515
 30
0.0
 10
12.3724
 20
9.6882
 30
0.0
 10
11.957
 20
9.6882
 30
0.0
 10
11.957
 20
9.6882
 30
0.0
 10
11.957
 20
9.6882
 30
0.0
 10
10.7715
 20
9.6879
 30
0.0
 10
10.7715
 20
9.6879
 30
0.0
  0
SPLINE
  5
C3
330
1F
100
AcDbEntity
  8
ROUND
 62
   250
100
AcDbSpline
210
0.0
220
0.0
230
1.0
 70
     8
 71
     3
 72
    12
 73
     8
 74
     0
 42
0.0000000001
 43
0.0000000001
 40
0.0
 40
0.0
 40
0.0
 40
0.0
 40
0.3333333333333333
 40
0.3333333333333333
 40
0.3333333333333333
 40
0.3333333333333333
 40
1.0
 40
1.0
 40
1.0
 40
1.0
 10
11.2049
 20
1.79
 30
0.0
 10
11.6203
 20
1.79
 30
0.0
 10
11.957
 20
2.1268
 30
0.0
 10
11.957
 20
2.5422
 30
0.0
 10
11.957
 20
2.5422
 30
0.0
 10
11.957
 20
2.9577
 30
0.0
 10
11.6203
 20
3.2944
 30
0.0
 10
11.2049
 20
3.2944
 30
0.0
  0
SPLINE
  5
C4
330
1F
100
AcDbEntity
  8
ROUND
 62
   250
100
AcDbSpline
210
0.0
220
0.0
230
1.0
 70
     8
 71
     3
 72
     8
 73
     4
 74
     0
 42
0.0000000001
 43
0.0000000001
 40
0.0
 40
0.0
 40
0.0
 40
0.0
 40
1.0
 40
1.0
 40
1.0
 40
1.0
 10
-18.5075
 20
16.4581
 30
0.0
 10
-18.5075
 20
16.0427
 30
0.0
 10
-18.1707
 20
15.7059
 30
0.0
 10
-17.7553
 20
15.7059
 30
0.0
  0
SPLINE
  5
C5
330
1F
100
AcDbEntity
  8
ROUND
 62
   250
100
AcDbSpline
210
0.0
220
0.0
230
1.0
 70
     8
 71
     3
 72
     8
 73
     4
 74
     0
 42
0.0000000001
 43
0.0000000001
 40
0.0
 40
0.0
 40
0.0
 40
0.0
 40
1.0
 40
1.0
 40
1.0
 40
1.0
 10
1.05
 20
15.7059
 30
0.0
 10
1.4655
 20
15.7059
 30
0.0
 10
1.8022
 20
16.0427
 30
0.0
 10
1.8022
 20
16.4581
 30
0.0
  0
SPLINE
  5
C6
330
1F
100
AcDbEntity
  8
ROUND
 62
   250
100
AcDbSpline
210
0.0
220
0.0
230
1.0
 70
     8
 71
     3
 72
    12
 73
     8
 74
     0
 42
0.0000000001
 43
0.0000000001
 40
0.0
 40
0.0
 40
0.0
 40
0.0
 40
0.3333333333333333
 40
0.3333333333333333
 40
0.3333333333333333
 40
0.3333333333333333
 40
1.0
 40
1.0
 40
1.0
 40
1.0
 10
-9.1048
 20
18.1506
 30
0.0
 10
-9.1048
 20
17.7351
 30
0.0
 10
-8.7681
 20
17.3984
 30
0.0
 10
-8.3526
 20
17.3984
 30
0.0
 10
-8.3526
 20
17.3984
 30
0.0
 10
-7.9372
 20
17.3984
 30
0.0
 10
-7.6004
 20
17.7351
 30
0.0
 10
-7.6004
 20
18.1506
 30
0.0
  0
SPLINE
  5
C7
330
1F
100
AcDbEntity
  8
ROUND
 62
   250
100
AcDbSpline
210
0.0
220
0.0
230
1.0
 70
     8
 71
     3
 72
    12
 73
     8
 74
     0
 42
0.0000000001
 43
0.0000000001
 40
0.0
 40
0.0
 40
0.0
 40
0.0
 40
0.3333333333333333
 40
0.3333333333333333
 40
0.3333333333333333
 40
0.3333333333333333
 40
1.0
 40
1.0
 40
1.0
 40
1.0
 10
1.6142
 20
-14.5705
 30
0.0
 10
1.889
 20
-14.5705
 30
0.0
 10
2.1239
 20
-14.3724
 30
0.0
 10
2.1703
 20
-14.1015
 30
0.0
 10
2.1703
 20
-14.1015
 30
0.0
 10
2.2166
 20
-13.8305
 30
0.0
 10
2.061
 20
-13.5657
 30
0.0
 10
1.8018
 20
-13.4743
 30
0.0
  0
SPLINE
  5
C8
330
1F
100
AcDbEntity
  8
ROUND
 62
   250
100
AcDbSpline
210
0.0
220
0.0
230
1.0
 70
     8
 71
     3
 72
    12
 73
     8
 74
     0
 42
0.0000000001
 43
0.0000000001
 40
0.0
 40
0.0
 40
0.0
 40
0.0
 40
0.3333333333333333
 40
0.3333333333333333
 40
0.3333333333333333
 40
0.3333333333333333
 40
1.0
 40
1.0
 40
1.0
 40
1.0
 10
-18.507
 20
-13.4743
 30
0.0
 10
-18.7662
 20
-13.5657
 30
0.0
 10
-18.9219
 20
-13.8305
 30
0.0
 10
-18.8754
 20
-14.1015
 30
0.0
 10
-18.8754
 20
-14.1015
 30
0.0
 10
-18.8291
 20
-14.3724
 30
0.0
 10
-18.5943
 20
-14.5705
 30
0.0
 10
-18.3194
 20
-14.5705
 30
0.0
  0
SPLINE
  5
C9
330
1F
100
AcDbEntity
  8
ROUND
 62
   250
100
AcDbSpline
210
0.0
220
0.0
230
1.0
 70
     8
 71
     3
 72
    32
 73
    28
 74
     0
 42
0.0000000001
 43
0.0000000001
 40
0.0
 40
0.0
 40
0.0
 40
0.0
 40
0.125
 40
0.125
 40
0.125
 40
0.125
 40
0.25
 40
0.25
 40
0.25
 40
0.25
 40
0.375
 40
0.375
 40
0.375
 40
0.375
 40
0.5
 40
0.5
 40
0.5
 40
0.5
 40
0.625
 40
0.625
 40
0.625
 40
0.625
 40
0.75
 40
0.75
 40
0.75
 40
0.75
 40
1.0
 40
1.0
 40
1.0
 40
1.0
 10
11.9569
 20
7.7282
 30
0.0
 10
11.9569
 20
7.7282
 30
0.0
 10
11.9515
 20
7.7918
 30
0.0
 10
11.9515
 20
7.7918
 30
0.0
 10
11.9515
 20
7.7918
 30
0.0
 10
11.9515
 20
7.7918
 30
0.0
 10
11.9082
 20
7.9132
 30
0.0
 10
11.9082
 20
7.9132
 30
0.0
 10
11.9082
 20
7.9132
 30
0.0
 10
11.9082
 20
7.9132
 30
0.0
 10
11.824
 20
8.0214
 30
0.0
 10
11.824
 20
8.0214
 30
0.0
 10
11.824
 20
8.0214
 30
0.0
 10
11.824
 20
8.0214
 30
0.0
 10
11.7036
 20
8.1111
 30
0.0
 10
11.7036
 20
8.1111
 30
0.0
 10
11.7036
 20
8.1111
 30
0.0
 10
11.7036
 20
8.1111
 30
0.0
 10
11.5541
 20
8.1779
 30
0.0
 10
11.5541
 20
8.1779
 30
0.0
 10
11.5541
 20
8.1779
 30
0.0
 10
11.5541
 20
8.1779
 30
0.0
 10
11.3846
 20
8.2189
 30
0.0
 10
11.3846
 20
8.2189
 30
0.0
 10
11.3846
 20
8.2189
 30
0.0
 10
11.3846
 20
8.2189
 30
0.0
 10
11.2049
 20
8.2328
 30
0.0
 10
11.2049
 20
8.2328
 30
0.0
  0
SPLINE
  5
CA
330
1F
100
AcDbEntity
  8
ROUND
 62
   250
100
AcDbSpline
210
0.0
220
0.0
230
1.0
 70
     8
 71
     3
 72
    32
 73
    28
 74
     0
 42
0.0000000001
 43
0.0000000001
 40
0.0
 40
0.0
 40
0.0
 40
0.0
 40
0.125
 40
0.125
 40
0.125
 40
0.125
 40
0.25
 40
0.25
 40
0.25
 40
0.25
 40
0.375
 40
0.375
 40
0.375
 40
0.375
 40
0.5
 40
0.5
 40
0.5
 40
0.5
 40
0.625
 40
0.625
 40
0.625
 40
0.625
 40
0.75
 40
0.75
 40
0.75
 40
0.75
 40
1.0
 40
1.0
 40
1.0
 40
1.0
 10
11.9569
 20
-2.6437
 30
0.0
 10
11.9569
 20
-2.6437
 30
0.0
 10
11.9515
 20
-2.7073
 30
0.0
 10
11.9515
 20
-2.7073
 30
0.0
 10
11.9515
 20
-2.7073
 30
0.0
 10
11.9515
 20
-2.7073
 30
0.0
 10
11.9082
 20
-2.8286
 30
0.0
 10
11.9082
 20
-2.8286
 30
0.0
 10
11.9082
 20
-2.8286
 30
0.0
 10
11.9082
 20
-2.8286
 30
0.0
 10
11.824
 20
-2.937
 30
0.0
 10
11.824
 20
-2.937
 30
0.0
 10
11.824
 20
-2.937
 30
0.0
 10
11.824
 20
-2.937
 30
0.0
 10
11.7036
 20
-3.0266
 30
0.0
 10
11.7036
 20
-3.0266
 30
0.0
 10
11.7036
 20
-3.0266
 30
0.0
 10
11.7036
 20
-3.0266
 30
0.0
 10
11.5541
 20
-3.0934
 30
0.0
 10
11.5541
 20
-3.0934
 30
0.0
 10
11.5541
 20
-3.0934
 30
0.0
 10
11.5541
 20
-3.0934
 30
0.0
 10
11.3846
 20
-3.1344
 30
0.0
 10
11.3846
 20
-3.1344
 30
0.0
 10
11.3846
 20
-3.1344
 30
0.0
 10
11.3846
 20
-3.1344
 30
0.0
 10
11.2049
 20
-3.1482
 30
0.0
 10
11.2049
 20
-3.1482
 30
0.0
  0
SPLINE
  5
CB
330
1F
100
AcDbEntity
  8
ROUND
 62
   250
100
AcDbSpline
210
0.0
220
0.0
230
1.0
 70
     8
 71
     3
 72
    32
 73
    28
 74
     0
 42
0.0000000001
 43
0.0000000001
 40
0.0
 40
0.0
 40
0.0
 40
0.0
 40
0.125
 40
0.125
 40
0.125
 40
0.125
 40
0.25
 40
0.25
 40
0.25
 40
0.25
 40
0.375
 40
0.375
 40
0.375
 40
0.375
 40
0.5
 40
0.5
 40
0.5
 40
0.5
 40
0.625
 40
0.625
 40
0.625
 40
0.625
 40
0.75
 40
0.75
 40
0.75
 40
0.75
 40
1.0
 40
1.0
 40
1.0
 40
1.0
 10
11.2049
 20
-2.0845
 30
0.0
 10
11.2049
 20
-2.0845
 30
0.0
 10
11.3846
 20
-2.1015
 30
0.0
 10
11.3846
 20
-2.1015
 30
0.0
 10
11.3846
 20
-2.1015
 30
0.0
 10
11.3846
 20
-2.1015
 30
0.0
 10
11.5541
 20
-2.1512
 30
0.0
 10
11.5541
 20
-2.1512
 30
0.0
 10
11.5541
 20
-2.1512
 30
0.0
 10
11.5541
 20
-2.1512
 30
0.0
 10
11.7036
 20
-2.2303
 30
0.0
 10
11.7036
 20
-2.2303
 30
0.0
 10
11.7036
 20
-2.2303
 30
0.0
 10
11.7036
 20
-2.2303
 30
0.0
 10
11.824
 20
-2.3329
 30
0.0
 10
11.824
 20
-2.3329
 30
0.0
 10
11.824
 20
-2.3329
 30
0.0
 10
11.824
 20
-2.3329
 30
0.0
 10
11.9082
 20
-2.4519
 30
0.0
 10
11.9082
 20
-2.4519
 30
0.0
 10
11.9082
 20
-2.4519
 30
0.0
 10
11.9082
 20
-2.4519
 30
0.0
 10
11.9515
 20
-2.5794
 30
0.0
 10
11.9515
 20
-2.5794
 30
0.0
 10
11.9515
 20
-2.5794
 30
0.0
 10
11.9515
 20
-2.5794
 30
0.0
 10
11.9569
 20
-2.6437
 30
0.0
 10
11.9569
 20
-2.6437
 30
0.0
  0
SPLINE
  5
CC
330
1F
100
AcDbEntity
  8
ROUND
 62
   250
100
AcDbSpline
210
0.0
220
0.0
230
1.0
 70
     8
 71
     3
 72
    32
 73
    28
 74
     0
 42
0.0000000001
 43
0.0000000001
 40
0.0
 40
0.0
 40
0.0
 40
0.0
 40
0.125
 40
0.125
 40
0.125
 40
0.125
 40
0.25
 40
0.25
 40
0.25
 40
0.25
 40
0.375
 40
0.375
 40
0.375
 40
0.375
 40
0.5
 40
0.5
 40
0.5
 40
0.5
 40
0.625
 40
0.625
 40
0.625
 40
0.625
 40
0.75
 40
0.75
 40
0.75
 40
0.75
 40
1.0
 40
1.0
 40
1.0
 40
1.0
 10
11.2049
 20
7.1689
 30
0.0
 10
11.2049
 20
7.1689
 30
0.0
 10
11.3846
 20
7.1859
 30
0.0
 10
11.3846
 20
7.1859
 30
0.0
 10
11.3846
 20
7.1859
 30
0.0
 10
11.3846
 20
7.1859
 30
0.0
 10
11.5541
 20
7.2356
 30
0.0
 10
11.5541
 20
7.2356
 30
0.0
 10
11.5541
 20
7.2356
 30
0.0
 10
11.5541
 20
7.2356
 30
0.0
 10
11.7036
 20
7.3147
 30
0.0
 10
11.7036
 20
7.3147
 30
0.0
 10
11.7036
 20
7.3147
 30
0.0
 10
11.7036
 20
7.3147
 30
0.0
 10
11.824
 20
7.4174
 30
0.0
 10
11.824
 20
7.4174
 30
0.0
 10
11.824
 20
7.4174
 30
0.0
 10
11.824
 20
7.4174
 30
0.0
 10
11.9082
 20
7.5364
 30
0.0
 10
11.9082
 20
7.5364
 30
0.0
 10
11.9082
 20
7.5364
 30
0.0
 10
11.9082
 20
7.5364
 30
0.0
 10
11.9515
 20
7.6638
 30
0.0
 10
11.9515
 20
7.6638
 30
0.0
 10
11.9515
 20
7.6638
 30
0.0
 10
11.9515
 20
7.6638
 30
0.0
 10
11.9569
 20
7.7282
 30
0.0
 10
11.9569
 20
7.7282
 30
0.0
  0
SPLINE
  5
CD
330
1F
100
AcDbEntity
  8
ROUND
 62
   250
100
AcDbSpline
210
0.0
220
0.0
230
1.0
 70
     8
 71
     3
 72
    28
 73
    24
 74
     0
 42
0.0000000001
 43
0.0000000001
 40
0.0
 40
0.0
 40
0.0
 40
0.0
 40
0.1428571428571428
 40
0.1428571428571428
 40
0.1428571428571428
 40
0.1428571428571428
 40
0.2857142857142857
 40
0.2857142857142857
 40
0.2857142857142857
 40
0.2857142857142857
 40
0.4285714285714285
 40
0.4285714285714285
 40
0.4285714285714285
 40
0.4285714285714285
 40
0.5714285714285714
 40
0.5714285714285714
 40
0.5714285714285714
 40
0.5714285714285714
 40
0.7142857142857143
 40
0.7142857142857143
 40
0.7142857142857143
 40
0.7142857142857143
 40
1.0
 40
1.0
 40
1.0
 40
1.0
 10
-0.5265
 20
18.1506
 30
0.0
 10
-0.5265
 20
18.1506
 30
0.0
 10
-0.5433
 20
17.9561
 30
0.0
 10
-0.5433
 20
17.9561
 30
0.0
 10
-0.5433
 20
17.9561
 30
0.0
 10
-0.5433
 20
17.9561
 30
0.0
 10
-0.5929
 20
17.7746
 30
0.0
 10
-0.5929
 20
17.7746
 30
0.0
 10
-0.5929
 20
17.7746
 30
0.0
 10
-0.5929
 20
17.7746
 30
0.0
 10
-0.6726
 20
17.6187
 30
0.0
 10
-0.6726
 20
17.6187
 30
0.0
 10
-0.6726
 20
17.6187
 30
0.0
 10
-0.6726
 20
17.6187
 30
0.0
 10
-0.7781
 20
17.4991
 30
0.0
 10
-0.7781
 20
17.4991
 30
0.0
 10
-0.7781
 20
17.4991
 30
0.0
 10
-0.7781
 20
17.4991
 30
0.0
 10
-0.9029
 20
17.424
 30
0.0
 10
-0.9029
 20
17.424
 30
0.0
 10
-0.9029
 20
17.424
 30
0.0
 10
-0.9029
 20
17.424
 30
0.0
 10
-1.0391
 20
17.3984
 30
0.0
 10
-1.0391
 20
17.3984
 30
0.0
  0
SPLINE
  5
CE
330
1F
100
AcDbEntity
  8
ROUND
 62
   250
100
AcDbSpline
210
0.0
220
0.0
230
1.0
 70
     8
 71
     3
 72
    28
 73
    24
 74
     0
 42
0.0000000001
 43
0.0000000001
 40
0.0
 40
0.0
 40
0.0
 40
0.0
 40
0.1428571428571428
 40
0.1428571428571428
 40
0.1428571428571428
 40
0.1428571428571428
 40
0.2857142857142857
 40
0.2857142857142857
 40
0.2857142857142857
 40
0.2857142857142857
 40
0.4285714285714285
 40
0.4285714285714285
 40
0.4285714285714285
 40
0.4285714285714285
 40
0.5714285714285714
 40
0.5714285714285714
 40
0.5714285714285714
 40
0.5714285714285714
 40
0.7142857142857143
 40
0.7142857142857143
 40
0.7142857142857143
 40
0.7142857142857143
 40
1.0
 40
1.0
 40
1.0
 40
1.0
 10
-16.1787
 20
18.1506
 30
0.0
 10
-16.1787
 20
18.1506
 30
0.0
 10
-16.1619
 20
17.9561
 30
0.0
 10
-16.1619
 20
17.9561
 30
0.0
 10
-16.1619
 20
17.9561
 30
0.0
 10
-16.1619
 20
17.9561
 30
0.0
 10
-16.1123
 20
17.7746
 30
0.0
 10
-16.1123
 20
17.7746
 30
0.0
 10
-16.1123
 20
17.7746
 30
0.0
 10
-16.1123
 20
17.7746
 30
0.0
 10
-16.0325
 20
17.6187
 30
0.0
 10
-16.0325
 20
17.6187
 30
0.0
 10
-16.0325
 20
17.6187
 30
0.0
 10
-16.0325
 20
17.6187
 30
0.0
 10
-15.9272
 20
17.4991
 30
0.0
 10
-15.9272
 20
17.4991
 30
0.0
 10
-15.9272
 20
17.4991
 30
0.0
 10
-15.9272
 20
17.4991
 30
0.0
 10
-15.8024
 20
17.424
 30
0.0
 10
-15.8024
 20
17.424
 30
0.0
 10
-15.8024
 20
17.424
 30
0.0
 10
-15.8024
 20
17.424
 30
0.0
 10
-15.6661
 20
17.3984
 30
0.0
 10
-15.6661
 20
17.3984
 30
0.0
  0
SPLINE
  5
CF
330
1F
100
AcDbEntity
  8
ROUND
 62
   250
100
AcDbSpline
210
0.0
220
0.0
230
1.0
 70
     8
 71
     3
 72
    28
 73
    24
 74
     0
 42
0.0000000001
 43
0.0000000001
 40
0.0
 40
0.0
 40
0.0
 40
0.0
 40
0.1428571428571428
 40
0.1428571428571428
 40
0.1428571428571428
 40
0.1428571428571428
 40
0.2857142857142857
 40
0.2857142857142857
 40
0.2857142857142857
 40
0.2857142857142857
 40
0.4285714285714285
 40
0.4285714285714285
 40
0.4285714285714285
 40
0.4285714285714285
 40
0.5714285714285714
 40
0.5714285714285714
 40
0.5714285714285714
 40
0.5714285714285714
 40
0.7142857142857143
 40
0.7142857142857143
 40
0.7142857142857143
 40
0.7142857142857143
 40
1.0
 40
1.0
 40
1.0
 40
1.0
 10
-1.7237
 20
18.1506
 30
0.0
 10
-1.7237
 20
18.1506
 30
0.0
 10
-1.7044
 20
17.9569
 30
0.0
 10
-1.7044
 20
17.9569
 30
0.0
 10
-1.7044
 20
17.9569
 30
0.0
 10
-1.7044
 20
17.9569
 30
0.0
 10
-1.647
 20
17.7736
 30
0.0
 10
-1.647
 20
17.7736
 30
0.0
 10
-1.647
 20
17.7736
 30
0.0
 10
-1.647
 20
17.7736
 30
0.0
 10
-1.5583
 20
17.6191
 30
0.0
 10
-1.5583
 20
17.6191
 30
0.0
 10
-1.5583
 20
17.6191
 30
0.0
 10
-1.5583
 20
17.6191
 30
0.0
 10
-1.4439
 20
17.4999
 30
0.0
 10
-1.4439
 20
17.4999
 30
0.0
 10
-1.4439
 20
17.4999
 30
0.0
 10
-1.4439
 20
17.4999
 30
0.0
 10
-1.3102
 20
17.4237
 30
0.0
 10
-1.3102
 20
17.4237
 30
0.0
 10
-1.3102
 20
17.4237
 30
0.0
 10
-1.3102
 20
17.4237
 30
0.0
 10
-1.1721
 20
17.3984
 30
0.0
 10
-1.1721
 20
17.3984
 30
0.0
  0
SPLINE
  5
D0
330
1F
100
AcDbEntity
  8
ROUND
 62
   250
100
AcDbSpline
210
0.0
220
0.0
230
1.0
 70
     8
 71
     3
 72
    28
 73
    24
 74
     0
 42
0.0000000001
 43
0.0000000001
 40
0.0
 40
0.0
 40
0.0
 40
0.0
 40
0.1428571428571428
 40
0.1428571428571428
 40
0.1428571428571428
 40
0.1428571428571428
 40
0.2857142857142857
 40
0.2857142857142857
 40
0.2857142857142857
 40
0.2857142857142857
 40
0.4285714285714285
 40
0.4285714285714285
 40
0.4285714285714285
 40
0.4285714285714285
 40
0.5714285714285714
 40
0.5714285714285714
 40
0.5714285714285714
 40
0.5714285714285714
 40
0.7142857142857143
 40
0.7142857142857143
 40
0.7142857142857143
 40
0.7142857142857143
 40
1.0
 40
1.0
 40
1.0
 40
1.0
 10
-15.5331
 20
17.3984
 30
0.0
 10
-15.5331
 20
17.3984
 30
0.0
 10
-15.3951
 20
17.4237
 30
0.0
 10
-15.3951
 20
17.4237
 30
0.0
 10
-15.3951
 20
17.4237
 30
0.0
 10
-15.3951
 20
17.4237
 30
0.0
 10
-15.2613
 20
17.4999
 30
0.0
 10
-15.2613
 20
17.4999
 30
0.0
 10
-15.2613
 20
17.4999
 30
0.0
 10
-15.2613
 20
17.4999
 30
0.0
 10
-15.147
 20
17.619
 30
0.0
 10
-15.147
 20
17.619
 30
0.0
 10
-15.147
 20
17.619
 30
0.0
 10
-15.147
 20
17.619
 30
0.0
 10
-15.0582
 20
17.7735
 30
0.0
 10
-15.0582
 20
17.7735
 30
0.0
 10
-15.0582
 20
17.7735
 30
0.0
 10
-15.0582
 20
17.7735
 30
0.0
 10
-15.0007
 20
17.9573
 30
0.0
 10
-15.0007
 20
17.9573
 30
0.0
 10
-15.0007
 20
17.9573
 30
0.0
 10
-15.0007
 20
17.9573
 30
0.0
 10
-14.9816
 20
18.1506
 30
0.0
 10
-14.9816
 20
18.1506
 30
0.0
  0
SPLINE
  5
D1
330
1F
100
AcDbEntity
  8
ROUND
 62
   250
100
AcDbSpline
210
0.0
220
0.0
230
1.0
 70
     8
 71
     3
 72
    36
 73
    32
 74
     0
 42
0.0000000001
 43
0.0000000001
 40
0.0
 40
0.0
 40
0.0
 40
0.0
 40
0.1111111111111111
 40
0.1111111111111111
 40
0.1111111111111111
 40
0.1111111111111111
 40
0.2222222222222222
 40
0.2222222222222222
 40
0.2222222222222222
 40
0.2222222222222222
 40
0.3333333333333333
 40
0.3333333333333333
 40
0.3333333333333333
 40
0.3333333333333333
 40
0.4444444444444444
 40
0.4444444444444444
 40
0.4444444444444444
 40
0.4444444444444444
 40
0.5555555555555556
 40
0.5555555555555556
 40
0.5555555555555556
 40
0.5555555555555556
 40
0.6666666666666666
 40
0.6666666666666666
 40
0.6666666666666666
 40
0.6666666666666666
 40
0.7777777777777778
 40
0.7777777777777778
 40
0.7777777777777778
 40
0.7777777777777778
 40
1.0
 40
1.0
 40
1.0
 40
1.0
 10
-14.9218
 20
-13.4422
 30
0.0
 10
-14.9218
 20
-13.4422
 30
0.0
 10
-15.091
 20
-13.448
 30
0.0
 10
-15.091
 20
-13.448
 30
0.0
 10
-15.091
 20
-13.448
 30
0.0
 10
-15.091
 20
-13.448
 30
0.0
 10
-15.2516
 20
-13.4598
 30
0.0
 10
-15.2516
 20
-13.4598
 30
0.0
 10
-15.2516
 20
-13.4598
 30
0.0
 10
-15.2516
 20
-13.4598
 30
0.0
 10
-15.3997
 20
-13.4702
 30
0.0
 10
-15.3997
 20
-13.4702
 30
0.0
 10
-15.3997
 20
-13.4702
 30
0.0
 10
-15.3997
 20
-13.4702
 30
0.0
 10
-15.5322
 20
-13.4743
 30
0.0
 10
-15.5322
 20
-13.4743
 30
0.0
 10
-15.5322
 20
-13.4743
 30
0.0
 10
-15.5322
 20
-13.4743
 30
0.0
 10
-15.6459
 20
-13.4702
 30
0.0
 10
-15.6459
 20
-13.4702
 30
0.0
 10
-15.6459
 20
-13.4702
 30
0.0
 10
-15.6459
 20
-13.4702
 30
0.0
 10
-15.7378
 20
-13.4599
 30
0.0
 10
-15.7378
 20
-13.4599
 30
0.0
 10
-15.7378
 20
-13.4599
 30
0.0
 10
-15.7378
 20
-13.4599
 30
0.0
 10
-15.8058
 20
-13.448
 30
0.0
 10
-15.8058
 20
-13.448
 30
0.0
 10
-15.8058
 20
-13.448
 30
0.0
 10
-15.8058
 20
-13.448
 30
0.0
 10
-15.8482
 20
-13.4422
 30
0.0
 10
-15.8482
 20
-13.4422
 30
0.0
  0
SPLINE
  5
D2
330
1F
100
AcDbEntity
  8
ROUND
 62
   250
100
AcDbSpline
210
0.0
220
0.0
230
1.0
 70
     8
 71
     3
 72
    20
 73
    16
 74
     0
 42
0.0000000001
 43
0.0000000001
 40
0.0
 40
0.0
 40
0.0
 40
0.0
 40
0.2
 40
0.2
 40
0.2
 40
0.2
 40
0.4
 40
0.4
 40
0.4
 40
0.4
 40
0.6
 40
0.6
 40
0.6
 40
0.6
 40
1.0
 40
1.0
 40
1.0
 40
1.0
 10
-18.2978
 20
-13.4422
 30
0.0
 10
-18.2978
 20
-13.4422
 30
0.0
 10
-18.3709
 20
-13.446
 30
0.0
 10
-18.3709
 20
-13.446
 30
0.0
 10
-18.3709
 20
-13.446
 30
0.0
 10
-18.3709
 20
-13.446
 30
0.0
 10
-18.4309
 20
-13.455
 30
0.0
 10
-18.4309
 20
-13.455
 30
0.0
 10
-18.4309
 20
-13.455
 30
0.0
 10
-18.4309
 20
-13.455
 30
0.0
 10
-18.4739
 20
-13.4648
 30
0.0
 10
-18.4739
 20
-13.4648
 30
0.0
 10
-18.4739
 20
-13.4648
 30
0.0
 10
-18.4739
 20
-13.4648
 30
0.0
 10
-18.4991
 20
-13.4719
 30
0.0
 10
-18.4991
 20
-13.4719
 30
0.0
  0
SPLINE
  5
D3
330
1F
100
AcDbEntity
  8
ROUND
 62
   250
100
AcDbSpline
210
0.0
220
0.0
230
1.0
 70
    24
 71
     3
 72
     8
 73
     4
 74
     0
 42
0.0000000001
 43
0.0000000001
 40
0.0
 40
0.0
 40
0.0
 40
0.0
 40
1.0
 40
1.0
 40
1.0
 40
1.0
 10
-18.4991
 20
-13.4719
 30
0.0
 10
-18.4991
 20
-13.4719
 30
0.0
 10
-18.507
 20
-13.4743
 30
0.0
 10
-18.507
 20
-13.4743
 30
0.0
  0
SPLINE
  5
D4
330
1F
100
AcDbEntity
  8
ROUND
 62
   250
100
AcDbSpline
210
0.0
220
0.0
230
1.0
 70
     8
 71
     3
 72
    36
 73
    32
 74
     0
 42
0.0000000001
 43
0.0000000001
 40
0.0
 40
0.0
 40
0.0
 40
0.0
 40
0.1111111111111111
 40
0.1111111111111111
 40
0.1111111111111111
 40
0.1111111111111111
 40
0.2222222222222222
 40
0.2222222222222222
 40
0.2222222222222222
 40
0.2222222222222222
 40
0.3333333333333333
 40
0.3333333333333333
 40
0.3333333333333333
 40
0.3333333333333333
 40
0.4444444444444444
 40
0.4444444444444444
 40
0.4444444444444444
 40
0.4444444444444444
 40
0.5555555555555556
 40
0.5555555555555556
 40
0.5555555555555556
 40
0.5555555555555556
 40
0.6666666666666666
 40
0.6666666666666666
 40
0.6666666666666666
 40
0.6666666666666666
 40
0.7777777777777778
 40
0.7777777777777778
 40
0.7777777777777778
 40
0.7777777777777778
 40
1.0
 40
1.0
 40
1.0
 40
1.0
 10
-7.6976
 20
-13.4422
 30
0.0
 10
-7.6976
 20
-13.4422
 30
0.0
 10
-7.8459
 20
-13.448
 30
0.0
 10
-7.8459
 20
-13.448
 30
0.0
 10
-7.8459
 20
-13.448
 30
0.0
 10
-7.8459
 20
-13.448
 30
0.0
 10
-8.0151
 20
-13.4603
 30
0.0
 10
-8.0151
 20
-13.4603
 30
0.0
 10
-8.0151
 20
-13.4603
 30
0.0
 10
-8.0151
 20
-13.4603
 30
0.0
 10
-8.1904
 20
-13.4708
 30
0.0
 10
-8.1904
 20
-13.4708
 30
0.0
 10
-8.1904
 20
-13.4708
 30
0.0
 10
-8.1904
 20
-13.4708
 30
0.0
 10
-8.3562
 20
-13.4743
 30
0.0
 10
-8.3562
 20
-13.4743
 30
0.0
 10
-8.3562
 20
-13.4743
 30
0.0
 10
-8.3562
 20
-13.4743
 30
0.0
 10
-8.521
 20
-13.4705
 30
0.0
 10
-8.521
 20
-13.4705
 30
0.0
 10
-8.521
 20
-13.4705
 30
0.0
 10
-8.521
 20
-13.4705
 30
0.0
 10
-8.694
 20
-13.46
 30
0.0
 10
-8.694
 20
-13.46
 30
0.0
 10
-8.694
 20
-13.46
 30
0.0
 10
-8.694
 20
-13.46
 30
0.0
 10
-8.8608
 20
-13.4479
 30
0.0
 10
-8.8608
 20
-13.4479
 30
0.0
 10
-8.8608
 20
-13.4479
 30
0.0
 10
-8.8608
 20
-13.4479
 30
0.0
 10
-9.0076
 20
-13.4422
 30
0.0
 10
-9.0076
 20
-13.4422
 30
0.0
  0
SPLINE
  5
D5
330
1F
100
AcDbEntity
  8
ROUND
 62
   250
100
AcDbSpline
210
0.0
220
0.0
230
1.0
 70
     8
 71
     3
 72
    36
 73
    32
 74
     0
 42
0.0000000001
 43
0.0000000001
 40
0.0
 40
0.0
 40
0.0
 40
0.0
 40
0.1111111111111111
 40
0.1111111111111111
 40
0.1111111111111111
 40
0.1111111111111111
 40
0.2222222222222222
 40
0.2222222222222222
 40
0.2222222222222222
 40
0.2222222222222222
 40
0.3333333333333333
 40
0.3333333333333333
 40
0.3333333333333333
 40
0.3333333333333333
 40
0.4444444444444444
 40
0.4444444444444444
 40
0.4444444444444444
 40
0.4444444444444444
 40
0.5555555555555556
 40
0.5555555555555556
 40
0.5555555555555556
 40
0.5555555555555556
 40
0.6666666666666666
 40
0.6666666666666666
 40
0.6666666666666666
 40
0.6666666666666666
 40
0.7777777777777778
 40
0.7777777777777778
 40
0.7777777777777778
 40
0.7777777777777778
 40
1.0
 40
1.0
 40
1.0
 40
1.0
 10
-0.8571
 20
-13.4422
 30
0.0
 10
-0.8571
 20
-13.4422
 30
0.0
 10
-0.8991
 20
-13.448
 30
0.0
 10
-0.8991
 20
-13.448
 30
0.0
 10
-0.8991
 20
-13.448
 30
0.0
 10
-0.8991
 20
-13.448
 30
0.0
 10
-0.9667
 20
-13.4598
 30
0.0
 10
-0.9667
 20
-13.4598
 30
0.0
 10
-0.9667
 20
-13.4598
 30
0.0
 10
-0.9667
 20
-13.4598
 30
0.0
 10
-1.0584
 20
-13.4702
 30
0.0
 10
-1.0584
 20
-13.4702
 30
0.0
 10
-1.0584
 20
-13.4702
 30
0.0
 10
-1.0584
 20
-13.4702
 30
0.0
 10
-1.1718
 20
-13.4743
 30
0.0
 10
-1.1718
 20
-13.4743
 30
0.0
 10
-1.1718
 20
-13.4743
 30
0.0
 10
-1.1718
 20
-13.4743
 30
0.0
 10
-1.3042
 20
-13.4702
 30
0.0
 10
-1.3042
 20
-13.4702
 30
0.0
 10
-1.3042
 20
-13.4702
 30
0.0
 10
-1.3042
 20
-13.4702
 30
0.0
 10
-1.4524
 20
-13.4599
 30
0.0
 10
-1.4524
 20
-13.4599
 30
0.0
 10
-1.4524
 20
-13.4599
 30
0.0
 10
-1.4524
 20
-13.4599
 30
0.0
 10
-1.6133
 20
-13.448
 30
0.0
 10
-1.6133
 20
-13.448
 30
0.0
 10
-1.6133
 20
-13.448
 30
0.0
 10
-1.6133
 20
-13.448
 30
0.0
 10
-1.7834
 20
-13.4422
 30
0.0
 10
-1.7834
 20
-13.4422
 30
0.0
  0
SPLINE
  5
D6
330
1F
100
AcDbEntity
  8
ROUND
 62
   250
100
AcDbSpline
210
0.0
220
0.0
230
1.0
 70
    24
 71
     3
 72
     8
 73
     4
 74
     0
 42
0.0000000001
 43
0.0000000001
 40
0.0
 40
0.0
 40
0.0
 40
0.0
 40
1.0
 40
1.0
 40
1.0
 40
1.0
 10
1.8018
 20
-13.4743
 30
0.0
 10
1.8018
 20
-13.4743
 30
0.0
 10
1.7894
 20
-13.4705
 30
0.0
 10
1.7894
 20
-13.4705
 30
0.0
  0
SPLINE
  5
D7
330
1F
100
AcDbEntity
  8
ROUND
 62
   250
100
AcDbSpline
210
0.0
220
0.0
230
1.0
 70
     8
 71
     3
 72
    16
 73
    12
 74
     0
 42
0.0000000001
 43
0.0000000001
 40
0.0
 40
0.0
 40
0.0
 40
0.0
 40
0.25
 40
0.25
 40
0.25
 40
0.25
 40
0.5
 40
0.5
 40
0.5
 40
0.5
 40
1.0
 40
1.0
 40
1.0
 40
1.0
 10
1.7894
 20
-13.4705
 30
0.0
 10
1.7894
 20
-13.4705
 30
0.0
 10
1.7494
 20
-13.4601
 30
0.0
 10
1.7494
 20
-13.4601
 30
0.0
 10
1.7494
 20
-13.4601
 30
0.0
 10
1.7494
 20
-13.4601
 30
0.0
 10
1.6817
 20
-13.4479
 30
0.0
 10
1.6817
 20
-13.4479
 30
0.0
 10
1.6817
 20
-13.4479
 30
0.0
 10
1.6817
 20
-13.4479
 30
0.0
 10
1.5927
 20
-13.4422
 30
0.0
 10
1.5927
 20
-13.4422
 30
0.0
  0
SPLINE
  5
D8
330
1F
100
AcDbEntity
  8
ROUND
 62
   250
100
AcDbSpline
210
0.0
220
0.0
230
1.0
 70
    24
 71
     3
 72
     8
 73
     4
 74
     0
 42
0.0000000001
 43
0.0000000001
 40
0.0
 40
0.0
 40
0.0
 40
0.0
 40
1.0
 40
1.0
 40
1.0
 40
1.0
 10
-18.5075
 20
-13.4422
 30
0.0
 10
-18.5075
 20
-13.4422
 30
0.0
 10
-18.507
 20
-13.4743
 30
0.0
 10
-18.507
 20
-13.4743
 30
0.0
  0
SPLINE
  5
D9
330
1F
100
AcDbEntity
  8
ROUND
 62
   250
100
AcDbSpline
210
0.0
220
0.0
230
1.0
 70
    24
 71
     3
 72
     8
 73
     4
 74
     0
 42
0.0000000001
 43
0.0000000001
 40
0.0
 40
0.0
 40
0.0
 40
0.0
 40
1.0
 40
1.0
 40
1.0
 40
1.0
 10
-18.5075
 20
-9.117
 30
0.0
 10
-18.5075
 20
-9.117
 30
0.0
 10
-18.5075
 20
-13.4422
 30
0.0
 10
-18.5075
 20
-13.4422
 30
0.0
  0
SPLINE
  5
DA
330
1F
100
AcDbEntity
  8
ROUND
 62
   250
100
AcDbSpline
210
0.0
220
0.0
230
1.0
 70
    24
 71
     3
 72
     8
 73
     4
 74
     0
 42
0.0000000001
 43
0.0000000001
 40
0.0
 40
0.0
 40
0.0
 40
0.0
 40
1.0
 40
1.0
 40
1.0
 40
1.0
 10
15.718
 20
-17.9554
 30
0.0
 10
15.718
 20
-17.9554
 30
0.0
 10
22.7888
 20
-17.9554
 30
0.0
 10
22.7888
 20
-17.9554
 30
0.0
  0
SPLINE
  5
DB
330
1F
100
AcDbEntity
  8
ROUND
 62
   250
100
AcDbSpline
210
0.0
220
0.0
230
1.0
 70
    24
 71
     3
 72
     8
 73
     4
 74
     0
 42
0.0000000001
 43
0.0000000001
 40
0.0
 40
0.0
 40
0.0
 40
0.0
 40
1.0
 40
1.0
 40
1.0
 40
1.0
 10
-17.3421
 20
-7.5597
 30
0.0
 10
-17.3421
 20
-7.5597
 30
0.0
 10
-17.3421
 20
-8.1767
 30
0.0
 10
-17.3421
 20
-8.1767
 30
0.0
  0
SPLINE
  5
DC
330
1F
100
AcDbEntity
  8
ROUND
 62
   250
100
AcDbSpline
210
0.0
220
0.0
230
1.0
 70
    24
 71
     3
 72
     8
 73
     4
 74
     0
 42
0.0000000001
 43
0.0000000001
 40
0.0
 40
0.0
 40
0.0
 40
0.0
 40
1.0
 40
1.0
 40
1.0
 40
1.0
 10
-17.1912
 20
22.6638
 30
0.0
 10
-17.1912
 20
22.6638
 30
0.0
 10
-17.1912
 20
23.6367
 30
0.0
 10
-17.1912
 20
23.6367
 30
0.0
  0
SPLINE
  5
DD
330
1F
100
AcDbEntity
  8
ROUND
 62
   250
100
AcDbSpline
210
0.0
220
0.0
230
1.0
 70
    24
 71
     3
 72
     8
 73
     4
 74
     0
 42
0.0000000001
 43
0.0000000001
 40
0.0
 40
0.0
 40
0.0
 40
0.0
 40
1.0
 40
1.0
 40
1.0
 40
1.0
 10
-16.721
 20
-3.7022
 30
0.0
 10
-16.721
 20
-3.7022
 30
0.0
 10
-16.721
 20
-7.2364
 30
0.0
 10
-16.721
 20
-7.2364
 30
0.0
  0
SPLINE
  5
DE
330
1F
100
AcDbEntity
  8
ROUND
 62
   250
100
AcDbSpline
210
0.0
220
0.0
230
1.0
 70
    24
 71
     3
 72
     8
 73
     4
 74
     0
 42
0.0000000001
 43
0.0000000001
 40
0.0
 40
0.0
 40
0.0
 40
0.0
 40
1.0
 40
1.0
 40
1.0
 40
1.0
 10
-15.8747
 20
15.7059
 30
0.0
 10
-15.8747
 20
15.7059
 30
0.0
 10
-15.8747
 20
-3.4755
 30
0.0
 10
-15.8747
 20
-3.4755
 30
0.0
  0
SPLINE
  5
DF
330
1F
100
AcDbEntity
  8
ROUND
 62
   250
100
AcDbSpline
210
0.0
220
0.0
230
1.0
 70
    24
 71
     3
 72
     8
 73
     4
 74
     0
 42
0.0000000001
 43
0.0000000001
 40
0.0
 40
0.0
 40
0.0
 40
0.0
 40
1.0
 40
1.0
 40
1.0
 40
1.0
 10
-15.8637
 20
-9.117
 30
0.0
 10
-15.8637
 20
-9.117
 30
0.0
 10
-15.8637
 20
-13.4422
 30
0.0
 10
-15.8637
 20
-13.4422
 30
0.0
  0
SPLINE
  5
E0
330
1F
100
AcDbEntity
  8
ROUND
 62
   250
100
AcDbSpline
210
0.0
220
0.0
230
1.0
 70
    24
 71
     3
 72
     8
 73
     4
 74
     0
 42
0.0000000001
 43
0.0000000001
 40
0.0
 40
0.0
 40
0.0
 40
0.0
 40
1.0
 40
1.0
 40
1.0
 40
1.0
 10
15.718
 20
-17.3913
 30
0.0
 10
15.718
 20
-17.3913
 30
0.0
 10
22.7888
 20
-17.3913
 30
0.0
 10
22.7888
 20
-17.3913
 30
0.0
  0
SPLINE
  5
E1
330
1F
100
AcDbEntity
  8
ROUND
 62
   250
100
AcDbSpline
210
0.0
220
0.0
230
1.0
 70
    24
 71
     3
 72
     8
 73
     4
 74
     0
 42
0.0000000001
 43
0.0000000001
 40
0.0
 40
0.0
 40
0.0
 40
0.0
 40
1.0
 40
1.0
 40
1.0
 40
1.0
 10
22.5067
 20
-16.451
 30
0.0
 10
22.5067
 20
-16.451
 30
0.0
 10
16.0001
 20
-16.451
 30
0.0
 10
16.0001
 20
-16.451
 30
0.0
  0
SPLINE
  5
E2
330
1F
100
AcDbEntity
  8
ROUND
 62
   250
100
AcDbSpline
210
0.0
220
0.0
230
1.0
 70
    24
 71
     3
 72
     8
 73
     4
 74
     0
 42
0.0000000001
 43
0.0000000001
 40
0.0
 40
0.0
 40
0.0
 40
0.0
 40
1.0
 40
1.0
 40
1.0
 40
1.0
 10
22.6008
 20
-13.8183
 30
0.0
 10
22.6008
 20
-13.8183
 30
0.0
 10
15.9061
 20
-13.8183
 30
0.0
 10
15.9061
 20
-13.8183
 30
0.0
  0
SPLINE
  5
E3
330
1F
100
AcDbEntity
  8
ROUND
 62
   250
100
AcDbSpline
210
0.0
220
0.0
230
1.0
 70
    24
 71
     3
 72
     8
 73
     4
 74
     0
 42
0.0000000001
 43
0.0000000001
 40
0.0
 40
0.0
 40
0.0
 40
0.0
 40
1.0
 40
1.0
 40
1.0
 40
1.0
 10
22.8264
 20
-11.1855
 30
0.0
 10
22.8264
 20
-11.1855
 30
0.0
 10
15.6804
 20
-11.1855
 30
0.0
 10
15.6804
 20
-11.1855
 30
0.0
  0
SPLINE
  5
E4
330
1F
100
AcDbEntity
  8
ROUND
 62
   250
100
AcDbSpline
210
0.0
220
0.0
230
1.0
 70
    24
 71
     3
 72
     8
 73
     4
 74
     0
 42
0.0000000001
 43
0.0000000001
 40
0.0
 40
0.0
 40
0.0
 40
0.0
 40
1.0
 40
1.0
 40
1.0
 40
1.0
 10
23.1085
 20
-8.5528
 30
0.0
 10
23.1085
 20
-8.5528
 30
0.0
 10
15.3983
 20
-8.5528
 30
0.0
 10
15.3983
 20
-8.5528
 30
0.0
  0
SPLINE
  5
E5
330
1F
100
AcDbEntity
  8
ROUND
 62
   250
100
AcDbSpline
210
0.0
220
0.0
230
1.0
 70
    24
 71
     3
 72
     8
 73
     4
 74
     0
 42
0.0000000001
 43
0.0000000001
 40
0.0
 40
0.0
 40
0.0
 40
0.0
 40
1.0
 40
1.0
 40
1.0
 40
1.0
 10
-18.1314
 20
-8.1767
 30
0.0
 10
-18.1314
 20
-8.1767
 30
0.0
 10
1.4261
 20
-8.1767
 30
0.0
 10
1.4261
 20
-8.1767
 30
0.0
  0
SPLINE
  5
E6
330
1F
100
AcDbEntity
  8
ROUND
 62
   250
100
AcDbSpline
210
0.0
220
0.0
230
1.0
 70
    24
 71
     3
 72
     8
 73
     4
 74
     0
 42
0.0000000001
 43
0.0000000001
 40
0.0
 40
0.0
 40
0.0
 40
0.0
 40
1.0
 40
1.0
 40
1.0
 40
1.0
 10
-16.721
 20
-7.2364
 30
0.0
 10
-16.721
 20
-7.2364
 30
0.0
 10
0.0157
 20
-7.2364
 30
0.0
 10
0.0157
 20
-7.2364
 30
0.0
  0
SPLINE
  5
E7
330
1F
100
AcDbEntity
  8
ROUND
 62
   250
100
AcDbSpline
210
0.0
220
0.0
230
1.0
 70
    24
 71
     3
 72
     8
 73
     4
 74
     0
 42
0.0000000001
 43
0.0000000001
 40
0.0
 40
0.0
 40
0.0
 40
0.0
 40
1.0
 40
1.0
 40
1.0
 40
1.0
 10
0.0157
 20
-7.2364
 30
0.0
 10
0.0157
 20
-7.2364
 30
0.0
 10
0.6369
 20
-7.5597
 30
0.0
 10
0.6369
 20
-7.5597
 30
0.0
  0
SPLINE
  5
E8
330
1F
100
AcDbEntity
  8
ROUND
 62
   250
100
AcDbSpline
210
0.0
220
0.0
230
1.0
 70
    24
 71
     3
 72
     8
 73
     4
 74
     0
 42
0.0000000001
 43
0.0000000001
 40
0.0
 40
0.0
 40
0.0
 40
0.0
 40
1.0
 40
1.0
 40
1.0
 40
1.0
 10
-0.8305
 20
-2.9113
 30
0.0
 10
-0.8305
 20
-2.9113
 30
0.0
 10
5.9394
 20
-2.9113
 30
0.0
 10
5.9394
 20
-2.9113
 30
0.0
  0
SPLINE
  5
E9
330
1F
100
AcDbEntity
  8
ROUND
 62
   250
100
AcDbSpline
210
0.0
220
0.0
230
1.0
 70
    24
 71
     3
 72
     8
 73
     4
 74
     0
 42
0.0000000001
 43
0.0000000001
 40
0.0
 40
0.0
 40
0.0
 40
0.0
 40
1.0
 40
1.0
 40
1.0
 40
1.0
 10
15.4548
 20
-1.783
 30
0.0
 10
15.4548
 20
-1.783
 30
0.0
 10
13.4614
 20
-1.783
 30
0.0
 10
13.4614
 20
-1.783
 30
0.0
  0
SPLINE
  5
EA
330
1F
100
AcDbEntity
  8
ROUND
 62
   250
100
AcDbSpline
210
0.0
220
0.0
230
1.0
 70
    24
 71
     3
 72
     8
 73
     4
 74
     0
 42
0.0000000001
 43
0.0000000001
 40
0.0
 40
0.0
 40
0.0
 40
0.0
 40
1.0
 40
1.0
 40
1.0
 40
1.0
 10
13.4614
 20
-1.5949
 30
0.0
 10
13.4614
 20
-1.5949
 30
0.0
 10
12.7092
 20
-1.5949
 30
0.0
 10
12.7092
 20
-1.5949
 30
0.0
  0
SPLINE
  5
EB
330
1F
100
AcDbEntity
  8
ROUND
 62
   250
100
AcDbSpline
210
0.0
220
0.0
230
1.0
 70
    24
 71
     3
 72
     8
 73
     4
 74
     0
 42
0.0000000001
 43
0.0000000001
 40
0.0
 40
0.0
 40
0.0
 40
0.0
 40
1.0
 40
1.0
 40
1.0
 40
1.0
 10
-0.8416
 20
-9.117
 30
0.0
 10
-0.8416
 20
-9.117
 30
0.0
 10
-0.8416
 20
-13.4422
 30
0.0
 10
-0.8416
 20
-13.4422
 30
0.0
  0
SPLINE
  5
EC
330
1F
100
AcDbEntity
  8
ROUND
 62
   250
100
AcDbSpline
210
0.0
220
0.0
230
1.0
 70
    24
 71
     3
 72
     8
 73
     4
 74
     0
 42
0.0000000001
 43
0.0000000001
 40
0.0
 40
0.0
 40
0.0
 40
0.0
 40
1.0
 40
1.0
 40
1.0
 40
1.0
 10
-0.8305
 20
15.7059
 30
0.0
 10
-0.8305
 20
15.7059
 30
0.0
 10
-0.8305
 20
7.9958
 30
0.0
 10
-0.8305
 20
7.9958
 30
0.0
  0
SPLINE
  5
ED
330
1F
100
AcDbEntity
  8
ROUND
 62
   250
100
AcDbSpline
210
0.0
220
0.0
230
1.0
 70
    24
 71
     3
 72
     8
 73
     4
 74
     0
 42
0.0000000001
 43
0.0000000001
 40
0.0
 40
0.0
 40
0.0
 40
0.0
 40
1.0
 40
1.0
 40
1.0
 40
1.0
 10
-0.8305
 20
-2.9113
 30
0.0
 10
-0.8305
 20
-2.9113
 30
0.0
 10
-0.8305
 20
-3.4755
 30
0.0
 10
-0.8305
 20
-3.4755
 30
0.0
  0
SPLINE
  5
EE
330
1F
100
AcDbEntity
  8
ROUND
 62
   250
100
AcDbSpline
210
0.0
220
0.0
230
1.0
 70
    24
 71
     3
 72
     8
 73
     4
 74
     0
 42
0.0000000001
 43
0.0000000001
 40
0.0
 40
0.0
 40
0.0
 40
0.0
 40
1.0
 40
1.0
 40
1.0
 40
1.0
 10
0.0157
 20
-3.7022
 30
0.0
 10
0.0157
 20
-3.7022
 30
0.0
 10
0.0157
 20
-7.2364
 30
0.0
 10
0.0157
 20
-7.2364
 30
0.0
  0
SPLINE
  5
EF
330
1F
100
AcDbEntity
  8
ROUND
 62
   250
100
AcDbSpline
210
0.0
220
0.0
230
1.0
 70
    24
 71
     3
 72
     8
 73
     4
 74
     0
 42
0.0000000001
 43
0.0000000001
 40
0.0
 40
0.0
 40
0.0
 40
0.0
 40
1.0
 40
1.0
 40
1.0
 40
1.0
 10
0.4859
 20
22.6638
 30
0.0
 10
0.4859
 20
22.6638
 30
0.0
 10
0.4859
 20
23.5987
 30
0.0
 10
0.4859
 20
23.5987
 30
0.0
  0
SPLINE
  5
F0
330
1F
100
AcDbEntity
  8
ROUND
 62
   250
100
AcDbSpline
210
0.0
220
0.0
230
1.0
 70
    24
 71
     3
 72
     8
 73
     4
 74
     0
 42
0.0000000001
 43
0.0000000001
 40
0.0
 40
0.0
 40
0.0
 40
0.0
 40
1.0
 40
1.0
 40
1.0
 40
1.0
 10
0.6369
 20
-7.5597
 30
0.0
 10
0.6369
 20
-7.5597
 30
0.0
 10
0.6369
 20
-8.1767
 30
0.0
 10
0.6369
 20
-8.1767
 30
0.0
  0
SPLINE
  5
F1
330
1F
100
AcDbEntity
  8
ROUND
 62
   250
100
AcDbSpline
210
0.0
220
0.0
230
1.0
 70
    24
 71
     3
 72
     8
 73
     4
 74
     0
 42
0.0000000001
 43
0.0000000001
 40
0.0
 40
0.0
 40
0.0
 40
0.0
 40
1.0
 40
1.0
 40
1.0
 40
1.0
 10
1.8022
 20
-9.117
 30
0.0
 10
1.8022
 20
-9.117
 30
0.0
 10
1.8022
 20
-13.4422
 30
0.0
 10
1.8022
 20
-13.4422
 30
0.0
  0
SPLINE
  5
F2
330
1F
100
AcDbEntity
  8
ROUND
 62
   250
100
AcDbSpline
210
0.0
220
0.0
230
1.0
 70
    24
 71
     3
 72
     8
 73
     4
 74
     0
 42
0.0000000001
 43
0.0000000001
 40
0.0
 40
0.0
 40
0.0
 40
0.0
 40
1.0
 40
1.0
 40
1.0
 40
1.0
 10
1.8022
 20
-13.4422
 30
0.0
 10
1.8022
 20
-13.4422
 30
0.0
 10
1.8018
 20
-13.4743
 30
0.0
 10
1.8018
 20
-13.4743
 30
0.0
  0
SPLINE
  5
F3
330
1F
100
AcDbEntity
  8
ROUND
 62
   250
100
AcDbSpline
210
0.0
220
0.0
230
1.0
 70
    24
 71
     3
 72
     8
 73
     4
 74
     0
 42
0.0000000001
 43
0.0000000001
 40
0.0
 40
0.0
 40
0.0
 40
0.0
 40
1.0
 40
1.0
 40
1.0
 40
1.0
 10
-16.721
 20
-7.2364
 30
0.0
 10
-16.721
 20
-7.2364
 30
0.0
 10
-17.3421
 20
-7.5597
 30
0.0
 10
-17.3421
 20
-7.5597
 30
0.0
  0
SPLINE
  5
F4
330
1F
100
AcDbEntity
  8
ROUND
 62
   250
100
AcDbSpline
210
0.0
220
0.0
230
1.0
 70
    24
 71
     3
 72
     8
 73
     4
 74
     0
 42
0.0000000001
 43
0.0000000001
 40
0.0
 40
0.0
 40
0.0
 40
0.0
 40
1.0
 40
1.0
 40
1.0
 40
1.0
 10
5.9394
 20
7.9958
 30
0.0
 10
5.9394
 20
7.9958
 30
0.0
 10
6.3155
 20
8.7182
 30
0.0
 10
6.3155
 20
8.7182
 30
0.0
  0
SPLINE
  5
F5
330
1F
100
AcDbEntity
  8
ROUND
 62
   250
100
AcDbSpline
210
0.0
220
0.0
230
1.0
 70
    24
 71
     3
 72
     8
 73
     4
 74
     0
 42
0.0000000001
 43
0.0000000001
 40
0.0
 40
0.0
 40
0.0
 40
0.0
 40
1.0
 40
1.0
 40
1.0
 40
1.0
 10
5.9394
 20
-2.9113
 30
0.0
 10
5.9394
 20
-2.9113
 30
0.0
 10
6.3155
 20
-3.6338
 30
0.0
 10
6.3155
 20
-3.6338
 30
0.0
  0
SPLINE
  5
F6
330
1F
100
AcDbEntity
  8
ROUND
 62
   250
100
AcDbSpline
210
0.0
220
0.0
230
1.0
 70
    24
 71
     3
 72
     8
 73
     4
 74
     0
 42
0.0000000001
 43
0.0000000001
 40
0.0
 40
0.0
 40
0.0
 40
0.0
 40
1.0
 40
1.0
 40
1.0
 40
1.0
 10
5.9394
 20
-2.9113
 30
0.0
 10
5.9394
 20
-2.9113
 30
0.0
 10
5.9394
 20
7.9958
 30
0.0
 10
5.9394
 20
7.9958
 30
0.0
  0
SPLINE
  5
F7
330
1F
100
AcDbEntity
  8
ROUND
 62
   250
100
AcDbSpline
210
0.0
220
0.0
230
1.0
 70
    24
 71
     3
 72
     8
 73
     4
 74
     0
 42
0.0000000001
 43
0.0000000001
 40
0.0
 40
0.0
 40
0.0
 40
0.0
 40
1.0
 40
1.0
 40
1.0
 40
1.0
 10
13.4614
 20
6.6794
 30
0.0
 10
13.4614
 20
6.6794
 30
0.0
 10
12.7092
 20
6.6794
 30
0.0
 10
12.7092
 20
6.6794
 30
0.0
  0
SPLINE
  5
F8
330
1F
100
AcDbEntity
  8
ROUND
 62
   250
100
AcDbSpline
210
0.0
220
0.0
230
1.0
 70
    24
 71
     3
 72
     8
 73
     4
 74
     0
 42
0.0000000001
 43
0.0000000001
 40
0.0
 40
0.0
 40
0.0
 40
0.0
 40
1.0
 40
1.0
 40
1.0
 40
1.0
 10
18.7269
 20
6.8674
 30
0.0
 10
18.7269
 20
6.8674
 30
0.0
 10
13.4614
 20
6.8674
 30
0.0
 10
13.4614
 20
6.8674
 30
0.0
  0
SPLINE
  5
F9
330
1F
100
AcDbEntity
  8
ROUND
 62
   250
100
AcDbSpline
210
0.0
220
0.0
230
1.0
 70
    24
 71
     3
 72
     8
 73
     4
 74
     0
 42
0.0000000001
 43
0.0000000001
 40
0.0
 40
0.0
 40
0.0
 40
0.0
 40
1.0
 40
1.0
 40
1.0
 40
1.0
 10
-0.8305
 20
7.9958
 30
0.0
 10
-0.8305
 20
7.9958
 30
0.0
 10
5.9394
 20
7.9958
 30
0.0
 10
5.9394
 20
7.9958
 30
0.0
  0
SPLINE
  5
FA
330
1F
100
AcDbEntity
  8
ROUND
 62
   250
100
AcDbSpline
210
0.0
220
0.0
230
1.0
 70
    24
 71
     3
 72
     8
 73
     4
 74
     0
 42
0.0000000001
 43
0.0000000001
 40
0.0
 40
0.0
 40
0.0
 40
0.0
 40
1.0
 40
1.0
 40
1.0
 40
1.0
 10
15.9587
 20
-13.8183
 30
0.0
 10
15.9587
 20
-13.8183
 30
0.0
 10
15.6804
 20
-11.1855
 30
0.0
 10
15.6804
 20
-11.1855
 30
0.0
  0
SPLINE
  5
FB
330
1F
100
AcDbEntity
  8
ROUND
 62
   250
100
AcDbSpline
210
0.0
220
0.0
230
1.0
 70
    24
 71
     3
 72
     8
 73
     4
 74
     0
 42
0.0000000001
 43
0.0000000001
 40
0.0
 40
0.0
 40
0.0
 40
0.0
 40
1.0
 40
1.0
 40
1.0
 40
1.0
 10
13.4614
 20
6.8674
 30
0.0
 10
13.4614
 20
6.8674
 30
0.0
 10
13.4614
 20
-1.783
 30
0.0
 10
13.4614
 20
-1.783
 30
0.0
  0
SPLINE
  5
FC
330
1F
100
AcDbEntity
  8
ROUND
 62
   250
100
AcDbSpline
210
0.0
220
0.0
230
1.0
 70
    24
 71
     3
 72
     8
 73
     4
 74
     0
 42
0.0000000001
 43
0.0000000001
 40
0.0
 40
0.0
 40
0.0
 40
0.0
 40
1.0
 40
1.0
 40
1.0
 40
1.0
 10
15.5864
 20
-8.5528
 30
0.0
 10
15.5864
 20
-8.5528
 30
0.0
 10
15.0237
 20
-6.0116
 30
0.0
 10
15.0237
 20
-6.0116
 30
0.0
  0
SPLINE
  5
FD
330
1F
100
AcDbEntity
  8
ROUND
 62
   250
100
AcDbSpline
210
0.0
220
0.0
230
1.0
 70
    24
 71
     3
 72
     8
 73
     4
 74
     0
 42
0.0000000001
 43
0.0000000001
 40
0.0
 40
0.0
 40
0.0
 40
0.0
 40
1.0
 40
1.0
 40
1.0
 40
1.0
 10
15.4886
 20
-5.9201
 30
0.0
 10
15.4886
 20
-5.9201
 30
0.0
 10
14.9475
 20
-3.3783
 30
0.0
 10
14.9475
 20
-3.3783
 30
0.0
  0
SPLINE
  5
FE
330
1F
100
AcDbEntity
  8
ROUND
 62
   250
100
AcDbSpline
210
0.0
220
0.0
230
1.0
 70
    24
 71
     3
 72
     8
 73
     4
 74
     0
 42
0.0000000001
 43
0.0000000001
 40
0.0
 40
0.0
 40
0.0
 40
0.0
 40
1.0
 40
1.0
 40
1.0
 40
1.0
 10
15.8647
 20
-11.1855
 30
0.0
 10
15.8647
 20
-11.1855
 30
0.0
 10
15.3983
 20
-8.5528
 30
0.0
 10
15.3983
 20
-8.5528
 30
0.0
  0
SPLINE
  5
FF
330
1F
100
AcDbEntity
  8
ROUND
 62
   250
100
AcDbSpline
210
0.0
220
0.0
230
1.0
 70
    24
 71
     3
 72
     8
 73
     4
 74
     0
 42
0.0000000001
 43
0.0000000001
 40
0.0
 40
0.0
 40
0.0
 40
0.0
 40
1.0
 40
1.0
 40
1.0
 40
1.0
 10
16.0001
 20
-16.451
 30
0.0
 10
16.0001
 20
-16.451
 30
0.0
 10
15.9061
 20
-13.8183
 30
0.0
 10
15.9061
 20
-13.8183
 30
0.0
  0
SPLINE
  5
100
330
1F
100
AcDbEntity
  8
ROUND
 62
   250
100
AcDbSpline
210
0.0
220
0.0
230
1.0
 70
    24
 71
     3
 72
     8
 73
     4
 74
     0
 42
0.0000000001
 43
0.0000000001
 40
0.0
 40
0.0
 40
0.0
 40
0.0
 40
1.0
 40
1.0
 40
1.0
 40
1.0
 10
15.4548
 20
-3.2874
 30
0.0
 10
15.4548
 20
-3.2874
 30
0.0
 10
15.4548
 20
-1.783
 30
0.0
 10
15.4548
 20
-1.783
 30
0.0
  0
SPLINE
  5
101
330
1F
100
AcDbEntity
  8
ROUND
 62
   250
100
AcDbSpline
210
0.0
220
0.0
230
1.0
 70
    24
 71
     3
 72
     8
 73
     4
 74
     0
 42
0.0000000001
 43
0.0000000001
 40
0.0
 40
0.0
 40
0.0
 40
0.0
 40
1.0
 40
1.0
 40
1.0
 40
1.0
 10
15.718
 20
-17.3913
 30
0.0
 10
15.718
 20
-17.3913
 30
0.0
 10
15.718
 20
-17.9554
 30
0.0
 10
15.718
 20
-17.9554
 30
0.0
  0
SPLINE
  5
102
330
1F
100
AcDbEntity
  8
ROUND
 62
   250
100
AcDbSpline
210
0.0
220
0.0
230
1.0
 70
    24
 71
     3
 72
     8
 73
     4
 74
     0
 42
0.0000000001
 43
0.0000000001
 40
0.0
 40
0.0
 40
0.0
 40
0.0
 40
1.0
 40
1.0
 40
1.0
 40
1.0
 10
18.7269
 20
6.8674
 30
0.0
 10
18.7269
 20
6.8674
 30
0.0
 10
18.7269
 20
0.4081
 30
0.0
 10
18.7269
 20
0.4081
 30
0.0
  0
SPLINE
  5
103
330
1F
100
AcDbEntity
  8
ROUND
 62
   250
100
AcDbSpline
210
0.0
220
0.0
230
1.0
 70
    24
 71
     3
 72
     8
 73
     4
 74
     0
 42
0.0000000001
 43
0.0000000001
 40
0.0
 40
0.0
 40
0.0
 40
0.0
 40
1.0
 40
1.0
 40
1.0
 40
1.0
 10
16.3795
 20
-16.451
 30
0.0
 10
16.3795
 20
-16.451
 30
0.0
 10
16.3574
 20
-17.3913
 30
0.0
 10
16.3574
 20
-17.3913
 30
0.0
  0
SPLINE
  5
104
330
1F
100
AcDbEntity
  8
ROUND
  6
NEW_LINE14
 62
   250
100
AcDbSpline
210
0.0
220
0.0
230
1.0
 70
    24
 71
     3
 72
     8
 73
     4
 74
     0
 42
0.0000000001
 43
0.0000000001
 40
0.0
 40
0.0
 40
0.0
 40
0.0
 40
1.0
 40
1.0
 40
1.0
 40
1.0
 10
19.2534
 20
-18.7076
 30
0.0
 10
19.2534
 20
-18.7076
 30
0.0
 10
19.2534
 20
3.2944
 30
0.0
 10
19.2534
 20
3.2944
 30
0.0
  0
SPLINE
  5
106
330
1F
100
AcDbEntity
  8
ROUND
 62
   250
100
AcDbSpline
210
0.0
220
0.0
230
1.0
 70
    24
 71
     3
 72
     8
 73
     4
 74
     0
 42
0.0000000001
 43
0.0000000001
 40
0.0
 40
0.0
 40
0.0
 40
0.0
 40
1.0
 40
1.0
 40
1.0
 40
1.0
 10
22.1273
 20
-16.451
 30
0.0
 10
22.1273
 20
-16.451
 30
0.0
 10
22.1494
 20
-17.3913
 30
0.0
 10
22.1494
 20
-17.3913
 30
0.0
  0
SPLINE
  5
107
330
1F
100
AcDbEntity
  8
ROUND
 62
   250
100
AcDbSpline
210
0.0
220
0.0
230
1.0
 70
    24
 71
     3
 72
     8
 73
     4
 74
     0
 42
0.0000000001
 43
0.0000000001
 40
0.0
 40
0.0
 40
0.0
 40
0.0
 40
1.0
 40
1.0
 40
1.0
 40
1.0
 10
22.7888
 20
-17.3913
 30
0.0
 10
22.7888
 20
-17.3913
 30
0.0
 10
22.7888
 20
-17.9554
 30
0.0
 10
22.7888
 20
-17.9554
 30
0.0
  0
SPLINE
  5
108
330
1F
100
AcDbEntity
  8
ROUND
 62
   250
100
AcDbSpline
210
0.0
220
0.0
230
1.0
 70
    24
 71
     3
 72
     8
 73
     4
 74
     0
 42
0.0000000001
 43
0.0000000001
 40
0.0
 40
0.0
 40
0.0
 40
0.0
 40
1.0
 40
1.0
 40
1.0
 40
1.0
 10
23.0521
 20
-3.2874
 30
0.0
 10
23.0521
 20
-3.2874
 30
0.0
 10
23.0521
 20
2.5422
 30
0.0
 10
23.0521
 20
2.5422
 30
0.0
  0
SPLINE
  5
109
330
1F
100
AcDbEntity
  8
ROUND
 62
   250
100
AcDbSpline
210
0.0
220
0.0
230
1.0
 70
    24
 71
     3
 72
     8
 73
     4
 74
     0
 42
0.0000000001
 43
0.0000000001
 40
0.0
 40
0.0
 40
0.0
 40
0.0
 40
1.0
 40
1.0
 40
1.0
 40
1.0
 10
22.5067
 20
-16.451
 30
0.0
 10
22.5067
 20
-16.451
 30
0.0
 10
22.6008
 20
-13.8183
 30
0.0
 10
22.6008
 20
-13.8183
 30
0.0
  0
SPLINE
  5
10A
330
1F
100
AcDbEntity
  8
ROUND
 62
   250
100
AcDbSpline
210
0.0
220
0.0
230
1.0
 70
    24
 71
     3
 72
     8
 73
     4
 74
     0
 42
0.0000000001
 43
0.0000000001
 40
0.0
 40
0.0
 40
0.0
 40
0.0
 40
1.0
 40
1.0
 40
1.0
 40
1.0
 10
22.5481
 20
-13.8183
 30
0.0
 10
22.5481
 20
-13.8183
 30
0.0
 10
22.8264
 20
-11.1855
 30
0.0
 10
22.8264
 20
-11.1855
 30
0.0
  0
SPLINE
  5
10B
330
1F
100
AcDbEntity
  8
ROUND
 62
   250
100
AcDbSpline
210
0.0
220
0.0
230
1.0
 70
    24
 71
     3
 72
     8
 73
     4
 74
     0
 42
0.0000000001
 43
0.0000000001
 40
0.0
 40
0.0
 40
0.0
 40
0.0
 40
1.0
 40
1.0
 40
1.0
 40
1.0
 10
22.6421
 20
-11.1855
 30
0.0
 10
22.6421
 20
-11.1855
 30
0.0
 10
23.1085
 20
-8.5528
 30
0.0
 10
23.1085
 20
-8.5528
 30
0.0
  0
SPLINE
  5
10C
330
1F
100
AcDbEntity
  8
ROUND
 62
   250
100
AcDbSpline
210
0.0
220
0.0
230
1.0
 70
    24
 71
     3
 72
     8
 73
     4
 74
     0
 42
0.0000000001
 43
0.0000000001
 40
0.0
 40
0.0
 40
0.0
 40
0.0
 40
1.0
 40
1.0
 40
1.0
 40
1.0
 10
23.0182
 20
-5.9201
 30
0.0
 10
23.0182
 20
-5.9201
 30
0.0
 10
23.5593
 20
-3.3783
 30
0.0
 10
23.5593
 20
-3.3783
 30
0.0
  0
SPLINE
  5
10D
330
1F
100
AcDbEntity
  8
ROUND
 62
   250
100
AcDbSpline
210
0.0
220
0.0
230
1.0
 70
    24
 71
     3
 72
     8
 73
     4
 74
     0
 42
0.0000000001
 43
0.0000000001
 40
0.0
 40
0.0
 40
0.0
 40
0.0
 40
1.0
 40
1.0
 40
1.0
 40
1.0
 10
22.9205
 20
-8.5528
 30
0.0
 10
22.9205
 20
-8.5528
 30
0.0
 10
23.4832
 20
-6.0116
 30
0.0
 10
23.4832
 20
-6.0116
 30
0.0
  0
SPLINE
  5
10E
330
1F
100
AcDbEntity
  8
ROUND
 62
   250
100
AcDbSpline
210
0.0
220
0.0
230
1.0
 70
     8
 71
     3
 72
     8
 73
     4
 74
     0
 42
0.0000000001
 43
0.0000000001
 40
0.0
 40
0.0
 40
0.0
 40
0.0
 40
1.0
 40
1.0
 40
1.0
 40
1.0
 10
23.0521
 20
2.5422
 30
0.0
 10
23.0521
 20
4.931
 30
0.0
 10
21.1156
 20
6.8674
 30
0.0
 10
18.7269
 20
6.8674
 30
0.0
  0
SPLINE
  5
10F
330
1F
100
AcDbEntity
  8
ROUND
 62
   250
100
AcDbSpline
210
0.0
220
0.0
230
1.0
 70
     8
 71
     3
 72
     8
 73
     4
 74
     0
 42
0.0000000001
 43
0.0000000001
 40
0.0
 40
0.0
 40
0.0
 40
0.0
 40
1.0
 40
1.0
 40
1.0
 40
1.0
 10
-15.7667
 20
-8.7011
 30
0.0
 10
-15.8305
 20
-8.8304
 30
0.0
 10
-15.8637
 20
-8.9727
 30
0.0
 10
-15.8637
 20
-9.117
 30
0.0
  0
SPLINE
  5
110
330
1F
100
AcDbEntity
  8
ROUND
 62
   250
100
AcDbSpline
210
0.0
220
0.0
230
1.0
 70
     8
 71
     3
 72
    20
 73
    16
 74
     0
 42
0.0000000001
 43
0.0000000001
 40
0.0
 40
0.0
 40
0.0
 40
0.0
 40
0.2
 40
0.2
 40
0.2
 40
0.2
 40
0.4
 40
0.4
 40
0.4
 40
0.4
 40
0.6
 40
0.6
 40
0.6
 40
0.6
 40
1.0
 40
1.0
 40
1.0
 40
1.0
 10
-18.5075
 20
-9.117
 30
0.0
 10
-18.5075
 20
-8.821
 30
0.0
 10
-18.3682
 20
-8.5423
 30
0.0
 10
-18.1314
 20
-8.3648
 30
0.0
 10
-18.1314
 20
-8.3648
 30
0.0
 10
-18.1314
 20
-8.3648
 30
0.0
 10
-18.1366
 20
-8.2
 30
0.0
 10
-18.1366
 20
-8.2
 30
0.0
 10
-18.1366
 20
-8.2
 30
0.0
 10
-18.1366
 20
-8.2
 30
0.0
 10
-18.0633
 20
-8.1699
 30
0.0
 10
-18.0633
 20
-8.1699
 30
0.0
 10
-18.0633
 20
-8.1699
 30
0.0
 10
-18.0633
 20
-8.1699
 30
0.0
 10
-18.0091
 20
-8.185
 30
0.0
 10
-18.0091
 20
-8.185
 30
0.0
  0
SPLINE
  5
111
330
1F
100
AcDbEntity
  8
ROUND
 62
   250
100
AcDbSpline
210
0.0
220
0.0
230
1.0
 70
     8
 71
     3
 72
    20
 73
    16
 74
     0
 42
0.0000000001
 43
0.0000000001
 40
0.0
 40
0.0
 40
0.0
 40
0.0
 40
0.2
 40
0.2
 40
0.2
 40
0.2
 40
0.4
 40
0.4
 40
0.4
 40
0.4
 40
0.6
 40
0.6
 40
0.6
 40
0.6
 40
1.0
 40
1.0
 40
1.0
 40
1.0
 10
1.8022
 20
-9.117
 30
0.0
 10
1.8022
 20
-8.821
 30
0.0
 10
1.6629
 20
-8.5423
 30
0.0
 10
1.4261
 20
-8.3648
 30
0.0
 10
1.4261
 20
-8.3648
 30
0.0
 10
1.4261
 20
-8.3648
 30
0.0
 10
1.4241
 20
-8.2552
 30
0.0
 10
1.4241
 20
-8.2552
 30
0.0
 10
1.4241
 20
-8.2552
 30
0.0
 10
1.4241
 20
-8.2552
 30
0.0
 10
1.3192
 20
-8.1824
 30
0.0
 10
1.3192
 20
-8.1824
 30
0.0
 10
1.3192
 20
-8.1824
 30
0.0
 10
1.3192
 20
-8.1824
 30
0.0
 10
1.2587
 20
-8.1824
 30
0.0
 10
1.2587
 20
-8.1824
 30
0.0
  0
SPLINE
  5
112
330
1F
100
AcDbEntity
  8
ROUND
 62
   250
100
AcDbSpline
210
0.0
220
0.0
230
1.0
 70
     8
 71
     3
 72
     8
 73
     4
 74
     0
 42
0.0000000001
 43
0.0000000001
 40
0.0
 40
0.0
 40
0.0
 40
0.0
 40
1.0
 40
1.0
 40
1.0
 40
1.0
 10
-0.8416
 20
-9.117
 30
0.0
 10
-0.8416
 20
-8.9727
 30
0.0
 10
-0.8747
 20
-8.8304
 30
0.0
 10
-0.9385
 20
-8.7011
 30
0.0
  0
SPLINE
  5
113
330
1F
100
AcDbEntity
  8
ROUND
 62
   250
100
AcDbSpline
210
0.0
220
0.0
230
1.0
 70
     8
 71
     3
 72
    52
 73
    48
 74
     0
 42
0.0000000001
 43
0.0000000001
 40
0.0
 40
0.0
 40
0.0
 40
0.0
 40
0.0769230769230769
 40
0.0769230769230769
 40
0.0769230769230769
 40
0.0769230769230769
 40
0.1538461538461539
 40
0.1538461538461539
 40
0.1538461538461539
 40
0.1538461538461539
 40
0.2307692307692308
 40
0.2307692307692308
 40
0.2307692307692308
 40
0.2307692307692308
 40
0.3076923076923077
 40
0.3076923076923077
 40
0.3076923076923077
 40
0.3076923076923077
 40
0.3846153846153846
 40
0.3846153846153846
 40
0.3846153846153846
 40
0.3846153846153846
 40
0.4615384615384616
 40
0.4615384615384616
 40
0.4615384615384616
 40
0.4615384615384616
 40
0.5384615384615384
 40
0.5384615384615384
 40
0.5384615384615384
 40
0.5384615384615384
 40
0.6153846153846154
 40
0.6153846153846154
 40
0.6153846153846154
 40
0.6153846153846154
 40
0.6923076923076923
 40
0.6923076923076923
 40
0.6923076923076923
 40
0.6923076923076923
 40
0.7692307692307693
 40
0.7692307692307693
 40
0.7692307692307693
 40
0.7692307692307693
 40
0.8461538461538461
 40
0.8461538461538461
 40
0.8461538461538461
 40
0.8461538461538461
 40
1.0
 40
1.0
 40
1.0
 40
1.0
 10
-15.766
 20
-8.6996
 30
0.0
 10
-15.766
 20
-8.6996
 30
0.0
 10
-15.7162
 20
-8.6137
 30
0.0
 10
-15.7162
 20
-8.6137
 30
0.0
 10
-15.7162
 20
-8.6137
 30
0.0
 10
-15.7162
 20
-8.6137
 30
0.0
 10
-15.6133
 20
-8.4956
 30
0.0
 10
-15.6133
 20
-8.4956
 30
0.0
 10
-15.6133
 20
-8.4956
 30
0.0
 10
-15.6133
 20
-8.4956
 30
0.0
 10
-15.5043
 20
-8.4212
 30
0.0
 10
-15.5043
 20
-8.4212
 30
0.0
 10
-15.5043
 20
-8.4212
 30
0.0
 10
-15.5043
 20
-8.4212
 30
0.0
 10
-15.3894
 20
-8.3789
 30
0.0
 10
-15.3894
 20
-8.3789
 30
0.0
 10
-15.3894
 20
-8.3789
 30
0.0
 10
-15.3894
 20
-8.3789
 30
0.0
 10
-15.2672
 20
-8.3648
 30
0.0
 10
-15.2672
 20
-8.3648
 30
0.0
 10
-15.2672
 20
-8.3648
 30
0.0
 10
-15.2672
 20
-8.3648
 30
0.0
 10
-15.1428
 20
-8.379
 30
0.0
 10
-15.1428
 20
-8.379
 30
0.0
 10
-15.1428
 20
-8.379
 30
0.0
 10
-15.1428
 20
-8.379
 30
0.0
 10
-15.0217
 20
-8.4212
 30
0.0
 10
-15.0217
 20
-8.4212
 30
0.0
 10
-15.0217
 20
-8.4212
 30
0.0
 10
-15.0217
 20
-8.4212
 30
0.0
 10
-14.9029
 20
-8.4956
 30
0.0
 10
-14.9029
 20
-8.4956
 30
0.0
 10
-14.9029
 20
-8.4956
 30
0.0
 10
-14.9029
 20
-8.4956
 30
0.0
 10
-14.787
 20
-8.6135
 30
0.0
 10
-14.787
 20
-8.6135
 30
0.0
 10
-14.787
 20
-8.6135
 30
0.0
 10
-14.787
 20
-8.6135
 30
0.0
 10
-14.6956
 20
-8.7664
 30
0.0
 10
-14.6956
 20
-8.7664
 30
0.0
 10
-14.6956
 20
-8.7664
 30
0.0
 10
-14.6956
 20
-8.7664
 30
0.0
 10
-14.6399
 20
-8.9372
 30
0.0
 10
-14.6399
 20
-8.9372
 30
0.0
 10
-14.6399
 20
-8.9372
 30
0.0
 10
-14.6399
 20
-8.9372
 30
0.0
 10
-14.6212
 20
-9.117
 30
0.0
 10
-14.6212
 20
-9.117
 30
0.0
  0
SPLINE
  5
114
330
1F
100
AcDbEntity
  8
ROUND
 62
   250
100
AcDbSpline
210
0.0
220
0.0
230
1.0
 70
     8
 71
     3
 72
    44
 73
    40
 74
     0
 42
0.0000000001
 43
0.0000000001
 40
0.0
 40
0.0
 40
0.0
 40
0.0
 40
0.0909090909090909
 40
0.0909090909090909
 40
0.0909090909090909
 40
0.0909090909090909
 40
0.1818181818181818
 40
0.1818181818181818
 40
0.1818181818181818
 40
0.1818181818181818
 40
0.2727272727272727
 40
0.2727272727272727
 40
0.2727272727272727
 40
0.2727272727272727
 40
0.3636363636363636
 40
0.3636363636363636
 40
0.3636363636363636
 40
0.3636363636363636
 40
0.4545454545454545
 40
0.4545454545454545
 40
0.4545454545454545
 40
0.4545454545454545
 40
0.5454545454545454
 40
0.5454545454545454
 40
0.5454545454545454
 40
0.5454545454545454
 40
0.6363636363636364
 40
0.6363636363636364
 40
0.6363636363636364
 40
0.6363636363636364
 40
0.7272727272727273
 40
0.7272727272727273
 40
0.7272727272727273
 40
0.7272727272727273
 40
0.8181818181818182
 40
0.8181818181818182
 40
0.8181818181818182
 40
0.8181818181818182
 40
1.0
 40
1.0
 40
1.0
 40
1.0
 10
-8.3526
 20
-8.3648
 30
0.0
 10
-8.3526
 20
-8.3648
 30
0.0
 10
-8.4744
 20
-8.3716
 30
0.0
 10
-8.4744
 20
-8.3716
 30
0.0
 10
-8.4744
 20
-8.3716
 30
0.0
 10
-8.4744
 20
-8.3716
 30
0.0
 10
-8.5978
 20
-8.3932
 30
0.0
 10
-8.5978
 20
-8.3932
 30
0.0
 10
-8.5978
 20
-8.3932
 30
0.0
 10
-8.5978
 20
-8.3932
 30
0.0
 10
-8.7165
 20
-8.4294
 30
0.0
 10
-8.7165
 20
-8.4294
 30
0.0
 10
-8.7165
 20
-8.4294
 30
0.0
 10
-8.7165
 20
-8.4294
 30
0.0
 10
-8.8246
 20
-8.4786
 30
0.0
 10
-8.8246
 20
-8.4786
 30
0.0
 10
-8.8246
 20
-8.4786
 30
0.0
 10
-8.8246
 20
-8.4786
 30
0.0
 10
-8.9218
 20
-8.5396
 30
0.0
 10
-8.9218
 20
-8.5396
 30
0.0
 10
-8.9218
 20
-8.5396
 30
0.0
 10
-8.9218
 20
-8.5396
 30
0.0
 10
-9.0122
 20
-8.6161
 30
0.0
 10
-9.0122
 20
-8.6161
 30
0.0
 10
-9.0122
 20
-8.6161
 30
0.0
 10
-9.0122
 20
-8.6161
 30
0.0
 10
-9.0969
 20
-8.7153
 30
0.0
 10
-9.0969
 20
-8.7153
 30
0.0
 10
-9.0969
 20
-8.7153
 30
0.0
 10
-9.0969
 20
-8.7153
 30
0.0
 10
-9.1674
 20
-8.8385
 30
0.0
 10
-9.1674
 20
-8.8385
 30
0.0
 10
-9.1674
 20
-8.8385
 30
0.0
 10
-9.1674
 20
-8.8385
 30
0.0
 10
-9.2125
 20
-8.9773
 30
0.0
 10
-9.2125
 20
-8.9773
 30
0.0
 10
-9.2125
 20
-8.9773
 30
0.0
 10
-9.2125
 20
-8.9773
 30
0.0
 10
-9.2271
 20
-9.117
 30
0.0
 10
-9.2271
 20
-9.117
 30
0.0
  0
SPLINE
  5
115
330
1F
100
AcDbEntity
  8
ROUND
 62
   250
100
AcDbSpline
210
0.0
220
0.0
230
1.0
 70
     8
 71
     3
 72
    44
 73
    40
 74
     0
 42
0.0000000001
 43
0.0000000001
 40
0.0
 40
0.0
 40
0.0
 40
0.0
 40
0.0909090909090909
 40
0.0909090909090909
 40
0.0909090909090909
 40
0.0909090909090909
 40
0.1818181818181818
 40
0.1818181818181818
 40
0.1818181818181818
 40
0.1818181818181818
 40
0.2727272727272727
 40
0.2727272727272727
 40
0.2727272727272727
 40
0.2727272727272727
 40
0.3636363636363636
 40
0.3636363636363636
 40
0.3636363636363636
 40
0.3636363636363636
 40
0.4545454545454545
 40
0.4545454545454545
 40
0.4545454545454545
 40
0.4545454545454545
 40
0.5454545454545454
 40
0.5454545454545454
 40
0.5454545454545454
 40
0.5454545454545454
 40
0.6363636363636364
 40
0.6363636363636364
 40
0.6363636363636364
 40
0.6363636363636364
 40
0.7272727272727273
 40
0.7272727272727273
 40
0.7272727272727273
 40
0.7272727272727273
 40
0.8181818181818182
 40
0.8181818181818182
 40
0.8181818181818182
 40
0.8181818181818182
 40
1.0
 40
1.0
 40
1.0
 40
1.0
 10
-7.4782
 20
-9.117
 30
0.0
 10
-7.4782
 20
-9.117
 30
0.0
 10
-7.4932
 20
-8.9749
 30
0.0
 10
-7.4932
 20
-8.9749
 30
0.0
 10
-7.4932
 20
-8.9749
 30
0.0
 10
-7.4932
 20
-8.9749
 30
0.0
 10
-7.5405
 20
-8.8326
 30
0.0
 10
-7.5405
 20
-8.8326
 30
0.0
 10
-7.5405
 20
-8.8326
 30
0.0
 10
-7.5405
 20
-8.8326
 30
0.0
 10
-7.6149
 20
-8.7063
 30
0.0
 10
-7.6149
 20
-8.7063
 30
0.0
 10
-7.6149
 20
-8.7063
 30
0.0
 10
-7.6149
 20
-8.7063
 30
0.0
 10
-7.7041
 20
-8.6053
 30
0.0
 10
-7.7041
 20
-8.6053
 30
0.0
 10
-7.7041
 20
-8.6053
 30
0.0
 10
-7.7041
 20
-8.6053
 30
0.0
 10
-7.7965
 20
-8.5302
 30
0.0
 10
-7.7965
 20
-8.5302
 30
0.0
 10
-7.7965
 20
-8.5302
 30
0.0
 10
-7.7965
 20
-8.5302
 30
0.0
 10
-7.8931
 20
-8.472
 30
0.0
 10
-7.8931
 20
-8.472
 30
0.0
 10
-7.8931
 20
-8.472
 30
0.0
 10
-7.8931
 20
-8.472
 30
0.0
 10
-7.9996
 20
-8.4255
 30
0.0
 10
-7.9996
 20
-8.4255
 30
0.0
 10
-7.9996
 20
-8.4255
 30
0.0
 10
-7.9996
 20
-8.4255
 30
0.0
 10
-8.1149
 20
-8.3914
 30
0.0
 10
-8.1149
 20
-8.3914
 30
0.0
 10
-8.1149
 20
-8.3914
 30
0.0
 10
-8.1149
 20
-8.3914
 30
0.0
 10
-8.2344
 20
-8.3712
 30
0.0
 10
-8.2344
 20
-8.3712
 30
0.0
 10
-8.2344
 20
-8.3712
 30
0.0
 10
-8.2344
 20
-8.3712
 30
0.0
 10
-8.3526
 20
-8.3648
 30
0.0
 10
-8.3526
 20
-8.3648
 30
0.0
  0
SPLINE
  5
116
330
1F
100
AcDbEntity
  8
ROUND
 62
   250
100
AcDbSpline
210
0.0
220
0.0
230
1.0
 70
     8
 71
     3
 72
    52
 73
    48
 74
     0
 42
0.0000000001
 43
0.0000000001
 40
0.0
 40
0.0
 40
0.0
 40
0.0
 40
0.0769230769230769
 40
0.0769230769230769
 40
0.0769230769230769
 40
0.0769230769230769
 40
0.1538461538461539
 40
0.1538461538461539
 40
0.1538461538461539
 40
0.1538461538461539
 40
0.2307692307692308
 40
0.2307692307692308
 40
0.2307692307692308
 40
0.2307692307692308
 40
0.3076923076923077
 40
0.3076923076923077
 40
0.3076923076923077
 40
0.3076923076923077
 40
0.3846153846153846
 40
0.3846153846153846
 40
0.3846153846153846
 40
0.3846153846153846
 40
0.4615384615384616
 40
0.4615384615384616
 40
0.4615384615384616
 40
0.4615384615384616
 40
0.5384615384615384
 40
0.5384615384615384
 40
0.5384615384615384
 40
0.5384615384615384
 40
0.6153846153846154
 40
0.6153846153846154
 40
0.6153846153846154
 40
0.6153846153846154
 40
0.6923076923076923
 40
0.6923076923076923
 40
0.6923076923076923
 40
0.6923076923076923
 40
0.7692307692307693
 40
0.7692307692307693
 40
0.7692307692307693
 40
0.7692307692307693
 40
0.8461538461538461
 40
0.8461538461538461
 40
0.8461538461538461
 40
0.8461538461538461
 40
1.0
 40
1.0
 40
1.0
 40
1.0
 10
-2.0841
 20
-9.117
 30
0.0
 10
-2.0841
 20
-9.117
 30
0.0
 10
-2.0653
 20
-8.9372
 30
0.0
 10
-2.0653
 20
-8.9372
 30
0.0
 10
-2.0653
 20
-8.9372
 30
0.0
 10
-2.0653
 20
-8.9372
 30
0.0
 10
-2.0097
 20
-8.7664
 30
0.0
 10
-2.0097
 20
-8.7664
 30
0.0
 10
-2.0097
 20
-8.7664
 30
0.0
 10
-2.0097
 20
-8.7664
 30
0.0
 10
-1.9183
 20
-8.6137
 30
0.0
 10
-1.9183
 20
-8.6137
 30
0.0
 10
-1.9183
 20
-8.6137
 30
0.0
 10
-1.9183
 20
-8.6137
 30
0.0
 10
-1.8023
 20
-8.4956
 30
0.0
 10
-1.8023
 20
-8.4956
 30
0.0
 10
-1.8023
 20
-8.4956
 30
0.0
 10
-1.8023
 20
-8.4956
 30
0.0
 10
-1.6835
 20
-8.4212
 30
0.0
 10
-1.6835
 20
-8.4212
 30
0.0
 10
-1.6835
 20
-8.4212
 30
0.0
 10
-1.6835
 20
-8.4212
 30
0.0
 10
-1.5624
 20
-8.3789
 30
0.0
 10
-1.5624
 20
-8.3789
 30
0.0
 10
-1.5624
 20
-8.3789
 30
0.0
 10
-1.5624
 20
-8.3789
 30
0.0
 10
-1.438
 20
-8.3648
 30
0.0
 10
-1.438
 20
-8.3648
 30
0.0
 10
-1.438
 20
-8.3648
 30
0.0
 10
-1.438
 20
-8.3648
 30
0.0
 10
-1.3158
 20
-8.379
 30
0.0
 10
-1.3158
 20
-8.379
 30
0.0
 10
-1.3158
 20
-8.379
 30
0.0
 10
-1.3158
 20
-8.379
 30
0.0
 10
-1.2009
 20
-8.4212
 30
0.0
 10
-1.2009
 20
-8.4212
 30
0.0
 10
-1.2009
 20
-8.4212
 30
0.0
 10
-1.2009
 20
-8.4212
 30
0.0
 10
-1.092
 20
-8.4956
 30
0.0
 10
-1.092
 20
-8.4956
 30
0.0
 10
-1.092
 20
-8.4956
 30
0.0
 10
-1.092
 20
-8.4956
 30
0.0
 10
-0.9891
 20
-8.6135
 30
0.0
 10
-0.9891
 20
-8.6135
 30
0.0
 10
-0.9891
 20
-8.6135
 30
0.0
 10
-0.9891
 20
-8.6135
 30
0.0
 10
-0.9393
 20
-8.6996
 30
0.0
 10
-0.9393
 20
-8.6996
 30
0.0
  0
SPLINE
  5
117
330
1F
100
AcDbEntity
  8
ROUND
 62
   250
100
AcDbSpline
210
0.0
220
0.0
230
1.0
 70
     8
 71
     3
 72
    32
 73
    28
 74
     0
 42
0.0000000001
 43
0.0000000001
 40
0.0
 40
0.0
 40
0.0
 40
0.0
 40
0.125
 40
0.125
 40
0.125
 40
0.125
 40
0.25
 40
0.25
 40
0.25
 40
0.25
 40
0.375
 40
0.375
 40
0.375
 40
0.375
 40
0.5
 40
0.5
 40
0.5
 40
0.5
 40
0.625
 40
0.625
 40
0.625
 40
0.625
 40
0.75
 40
0.75
 40
0.75
 40
0.75
 40
1.0
 40
1.0
 40
1.0
 40
1.0
 10
1.3869
 20
-9.117
 30
0.0
 10
1.3869
 20
-9.117
 30
0.0
 10
1.3891
 20
-8.9373
 30
0.0
 10
1.3891
 20
-8.9373
 30
0.0
 10
1.3891
 20
-8.9373
 30
0.0
 10
1.3891
 20
-8.9373
 30
0.0
 10
1.3951
 20
-8.7665
 30
0.0
 10
1.3951
 20
-8.7665
 30
0.0
 10
1.3951
 20
-8.7665
 30
0.0
 10
1.3951
 20
-8.7665
 30
0.0
 10
1.404
 20
-8.614
 30
0.0
 10
1.404
 20
-8.614
 30
0.0
 10
1.404
 20
-8.614
 30
0.0
 10
1.404
 20
-8.614
 30
0.0
 10
1.4132
 20
-8.4959
 30
0.0
 10
1.4132
 20
-8.4959
 30
0.0
 10
1.4132
 20
-8.4959
 30
0.0
 10
1.4132
 20
-8.4959
 30
0.0
 10
1.4202
 20
-8.4212
 30
0.0
 10
1.4202
 20
-8.4212
 30
0.0
 10
1.4202
 20
-8.4212
 30
0.0
 10
1.4202
 20
-8.4212
 30
0.0
 10
1.4245
 20
-8.3789
 30
0.0
 10
1.4245
 20
-8.3789
 30
0.0
 10
1.4245
 20
-8.3789
 30
0.0
 10
1.4245
 20
-8.3789
 30
0.0
 10
1.4261
 20
-8.3648
 30
0.0
 10
1.4261
 20
-8.3648
 30
0.0
  0
SPLINE
  5
118
330
1F
100
AcDbEntity
  8
ROUND
 62
   250
100
AcDbSpline
210
0.0
220
0.0
230
1.0
 70
     8
 71
     3
 72
    32
 73
    28
 74
     0
 42
0.0000000001
 43
0.0000000001
 40
0.0
 40
0.0
 40
0.0
 40
0.0
 40
0.125
 40
0.125
 40
0.125
 40
0.125
 40
0.25
 40
0.25
 40
0.25
 40
0.25
 40
0.375
 40
0.375
 40
0.375
 40
0.375
 40
0.5
 40
0.5
 40
0.5
 40
0.5
 40
0.625
 40
0.625
 40
0.625
 40
0.625
 40
0.75
 40
0.75
 40
0.75
 40
0.75
 40
1.0
 40
1.0
 40
1.0
 40
1.0
 10
-18.0922
 20
-9.117
 30
0.0
 10
-18.0922
 20
-9.117
 30
0.0
 10
-18.0943
 20
-8.9373
 30
0.0
 10
-18.0943
 20
-8.9373
 30
0.0
 10
-18.0943
 20
-8.9373
 30
0.0
 10
-18.0943
 20
-8.9373
 30
0.0
 10
-18.1004
 20
-8.7665
 30
0.0
 10
-18.1004
 20
-8.7665
 30
0.0
 10
-18.1004
 20
-8.7665
 30
0.0
 10
-18.1004
 20
-8.7665
 30
0.0
 10
-18.1092
 20
-8.614
 30
0.0
 10
-18.1092
 20
-8.614
 30
0.0
 10
-18.1092
 20
-8.614
 30
0.0
 10
-18.1092
 20
-8.614
 30
0.0
 10
-18.1184
 20
-8.4959
 30
0.0
 10
-18.1184
 20
-8.4959
 30
0.0
 10
-18.1184
 20
-8.4959
 30
0.0
 10
-18.1184
 20
-8.4959
 30
0.0
 10
-18.1254
 20
-8.4212
 30
0.0
 10
-18.1254
 20
-8.4212
 30
0.0
 10
-18.1254
 20
-8.4212
 30
0.0
 10
-18.1254
 20
-8.4212
 30
0.0
 10
-18.1298
 20
-8.3789
 30
0.0
 10
-18.1298
 20
-8.3789
 30
0.0
 10
-18.1298
 20
-8.3789
 30
0.0
 10
-18.1298
 20
-8.3789
 30
0.0
 10
-18.1314
 20
-8.3648
 30
0.0
 10
-18.1314
 20
-8.3648
 30
0.0
  0
SPLINE
  5
119
330
1F
100
AcDbEntity
  8
ROUND
 62
   250
100
AcDbSpline
210
0.0
220
0.0
230
1.0
 70
     8
 71
     3
 72
    76
 73
    72
 74
     0
 42
0.0000000001
 43
0.0000000001
 40
0.0
 40
0.0
 40
0.0
 40
0.0
 40
0.0526315789473684
 40
0.0526315789473684
 40
0.0526315789473684
 40
0.0526315789473684
 40
0.1052631578947368
 40
0.1052631578947368
 40
0.1052631578947368
 40
0.1052631578947368
 40
0.1578947368421053
 40
0.1578947368421053
 40
0.1578947368421053
 40
0.1578947368421053
 40
0.2105263157894737
 40
0.2105263157894737
 40
0.2105263157894737
 40
0.2105263157894737
 40
0.2631578947368421
 40
0.2631578947368421
 40
0.2631578947368421
 40
0.2631578947368421
 40
0.3157894736842105
 40
0.3157894736842105
 40
0.3157894736842105
 40
0.3157894736842105
 40
0.3684210526315789
 40
0.3684210526315789
 40
0.3684210526315789
 40
0.3684210526315789
 40
0.4210526315789473
 40
0.4210526315789473
 40
0.4210526315789473
 40
0.4210526315789473
 40
0.4736842105263158
 40
0.4736842105263158
 40
0.4736842105263158
 40
0.4736842105263158
 40
0.5263157894736842
 40
0.5263157894736842
 40
0.5263157894736842
 40
0.5263157894736842
 40
0.5789473684210527
 40
0.5789473684210527
 40
0.5789473684210527
 40
0.5789473684210527
 40
0.631578947368421
 40
0.631578947368421
 40
0.631578947368421
 40
0.631578947368421
 40
0.6842105263157895
 40
0.6842105263157895
 40
0.6842105263157895
 40
0.6842105263157895
 40
0.7368421052631579
 40
0.7368421052631579
 40
0.7368421052631579
 40
0.7368421052631579
 40
0.7894736842105263
 40
0.7894736842105263
 40
0.7894736842105263
 40
0.7894736842105263
 40
0.8421052631578947
 40
0.8421052631578947
 40
0.8421052631578947
 40
0.8421052631578947
 40
0.8947368421052632
 40
0.8947368421052632
 40
0.8947368421052632
 40
0.8947368421052632
 40
1.0
 40
1.0
 40
1.0
 40
1.0
 10
18.7269
 20
0.4081
 30
0.0
 10
18.7269
 20
0.4081
 30
0.0
 10
18.5389
 20
0.354
 30
0.0
 10
18.5389
 20
0.354
 30
0.0
 10
18.5389
 20
0.354
 30
0.0
 10
18.5389
 20
0.354
 30
0.0
 10
18.3559
 20
0.2876
 30
0.0
 10
18.3559
 20
0.2876
 30
0.0
 10
18.3559
 20
0.2876
 30
0.0
 10
18.3559
 20
0.2876
 30
0.0
 10
18.1789
 20
0.2115
 30
0.0
 10
18.1789
 20
0.2115
 30
0.0
 10
18.1789
 20
0.2115
 30
0.0
 10
18.1789
 20
0.2115
 30
0.0
 10
18.0082
 20
0.1281
 30
0.0
 10
18.0082
 20
0.1281
 30
0.0
 10
18.0082
 20
0.1281
 30
0.0
 10
18.0082
 20
0.1281
 30
0.0
 10
17.8416
 20
0.038
 30
0.0
 10
17.8416
 20
0.038
 30
0.0
 10
17.8416
 20
0.038
 30
0.0
 10
17.8416
 20
0.038
 30
0.0
 10
17.674
 20
-0.0601
 30
0.0
 10
17.674
 20
-0.0601
 30
0.0
 10
17.674
 20
-0.0601
 30
0.0
 10
17.674
 20
-0.0601
 30
0.0
 10
17.501
 20
-0.1686
 30
0.0
 10
17.501
 20
-0.1686
 30
0.0
 10
17.501
 20
-0.1686
 30
0.0
 10
17.501
 20
-0.1686
 30
0.0
 10
17.3191
 20
-0.2895
 30
0.0
 10
17.3191
 20
-0.2895
 30
0.0
 10
17.3191
 20
-0.2895
 30
0.0
 10
17.3191
 20
-0.2895
 30
0.0
 10
17.1257
 20
-0.4251
 30
0.0
 10
17.1257
 20
-0.4251
 30
0.0
 10
17.1257
 20
-0.4251
 30
0.0
 10
17.1257
 20
-0.4251
 30
0.0
 10
16.918
 20
-0.5773
 30
0.0
 10
16.918
 20
-0.5773
 30
0.0
 10
16.918
 20
-0.5773
 30
0.0
 10
16.918
 20
-0.5773
 30
0.0
 10
16.6957
 20
-0.7471
 30
0.0
 10
16.6957
 20
-0.7471
 30
0.0
 10
16.6957
 20
-0.7471
 30
0.0
 10
16.6957
 20
-0.7471
 30
0.0
 10
16.4603
 20
-0.9333
 30
0.0
 10
16.4603
 20
-0.9333
 30
0.0
 10
16.4603
 20
-0.9333
 30
0.0
 10
16.4603
 20
-0.9333
 30
0.0
 10
16.2171
 20
-1.1316
 30
0.0
 10
16.2171
 20
-1.1316
 30
0.0
 10
16.2171
 20
-1.1316
 30
0.0
 10
16.2171
 20
-1.1316
 30
0.0
 10
15.9779
 20
-1.3317
 30
0.0
 10
15.9779
 20
-1.3317
 30
0.0
 10
15.9779
 20
-1.3317
 30
0.0
 10
15.9779
 20
-1.3317
 30
0.0
 10
15.7631
 20
-1.5149
 30
0.0
 10
15.7631
 20
-1.5149
 30
0.0
 10
15.7631
 20
-1.5149
 30
0.0
 10
15.7631
 20
-1.5149
 30
0.0
 10
15.5952
 20
-1.6602
 30
0.0
 10
15.5952
 20
-1.6602
 30
0.0
 10
15.5952
 20
-1.6602
 30
0.0
 10
15.5952
 20
-1.6602
 30
0.0
 10
15.4894
 20
-1.7526
 30
0.0
 10
15.4894
 20
-1.7526
 30
0.0
 10
15.4894
 20
-1.7526
 30
0.0
 10
15.4894
 20
-1.7526
 30
0.0
 10
15.4548
 20
-1.783
 30
0.0
 10
15.4548
 20
-1.783
 30
0.0
  0
SPLINE
  5
11A
330
1F
100
AcDbEntity
  8
ROUND
 62
   250
100
AcDbSpline
210
0.0
220
0.0
230
1.0
 70
     8
 71
     3
 72
    48
 73
    44
 74
     0
 42
0.0000000001
 43
0.0000000001
 40
0.0
 40
0.0
 40
0.0
 40
0.0
 40
0.0833333333333333
 40
0.0833333333333333
 40
0.0833333333333333
 40
0.0833333333333333
 40
0.1666666666666667
 40
0.1666666666666667
 40
0.1666666666666667
 40
0.1666666666666667
 40
0.25
 40
0.25
 40
0.25
 40
0.25
 40
0.3333333333333333
 40
0.3333333333333333
 40
0.3333333333333333
 40
0.3333333333333333
 40
0.4166666666666667
 40
0.4166666666666667
 40
0.4166666666666667
 40
0.4166666666666667
 40
0.5
 40
0.5
 40
0.5
 40
0.5
 40
0.5833333333333334
 40
0.5833333333333334
 40
0.5833333333333334
 40
0.5833333333333334
 40
0.6666666666666666
 40
0.6666666666666666
 40
0.6666666666666666
 40
0.6666666666666666
 40
0.75
 40
0.75
 40
0.75
 40
0.75
 40
0.8333333333333334
 40
0.8333333333333334
 40
0.8333333333333334
 40
0.8333333333333334
 40
1.0
 40
1.0
 40
1.0
 40
1.0
 10
23.0521
 20
2.5422
 30
0.0
 10
23.0521
 20
2.5422
 30
0.0
 10
23.0076
 20
2.3256
 30
0.0
 10
23.0076
 20
2.3256
 30
0.0
 10
23.0076
 20
2.3256
 30
0.0
 10
23.0076
 20
2.3256
 30
0.0
 10
22.8743
 20
2.1096
 30
0.0
 10
22.8743
 20
2.1096
 30
0.0
 10
22.8743
 20
2.1096
 30
0.0
 10
22.8743
 20
2.1096
 30
0.0
 10
22.654
 20
1.8948
 30
0.0
 10
22.654
 20
1.8948
 30
0.0
 10
22.654
 20
1.8948
 30
0.0
 10
22.654
 20
1.8948
 30
0.0
 10
22.3498
 20
1.6822
 30
0.0
 10
22.3498
 20
1.6822
 30
0.0
 10
22.3498
 20
1.6822
 30
0.0
 10
22.3498
 20
1.6822
 30
0.0
 10
21.9673
 20
1.4734
 30
0.0
 10
21.9673
 20
1.4734
 30
0.0
 10
21.9673
 20
1.4734
 30
0.0
 10
21.9673
 20
1.4734
 30
0.0
 10
21.5159
 20
1.2703
 30
0.0
 10
21.5159
 20
1.2703
 30
0.0
 10
21.5159
 20
1.2703
 30
0.0
 10
21.5159
 20
1.2703
 30
0.0
 10
21.0118
 20
1.0764
 30
0.0
 10
21.0118
 20
1.0764
 30
0.0
 10
21.0118
 20
1.0764
 30
0.0
 10
21.0118
 20
1.0764
 30
0.0
 10
20.471
 20
0.8935
 30
0.0
 10
20.471
 20
0.8935
 30
0.0
 10
20.471
 20
0.8935
 30
0.0
 10
20.471
 20
0.8935
 30
0.0
 10
19.8994
 20
0.7201
 30
0.0
 10
19.8994
 20
0.7201
 30
0.0
 10
19.8994
 20
0.7201
 30
0.0
 10
19.8994
 20
0.7201
 30
0.0
 10
19.3109
 20
0.5574
 30
0.0
 10
19.3109
 20
0.5574
 30
0.0
 10
19.3109
 20
0.5574
 30
0.0
 10
19.3109
 20
0.5574
 30
0.0
 10
18.7269
 20
0.4081
 30
0.0
 10
18.7269
 20
0.4081
 30
0.0
  0
SPLINE
  5
11B
330
1F
100
AcDbEntity
  8
ROUND
 62
   250
100
AcDbSpline
210
0.0
220
0.0
230
1.0
 70
     8
 71
     3
 72
   104
 73
   100
 74
     0
 42
0.0000000001
 43
0.0000000001
 40
0.0
 40
0.0
 40
0.0
 40
0.0
 40
0.0384615384615385
 40
0.0384615384615385
 40
0.0384615384615385
 40
0.0384615384615385
 40
0.0769230769230769
 40
0.0769230769230769
 40
0.0769230769230769
 40
0.0769230769230769
 40
0.1153846153846154
 40
0.1153846153846154
 40
0.1153846153846154
 40
0.1153846153846154
 40
0.1538461538461539
 40
0.1538461538461539
 40
0.1538461538461539
 40
0.1538461538461539
 40
0.1923076923076923
 40
0.1923076923076923
 40
0.1923076923076923
 40
0.1923076923076923
 40
0.2307692307692308
 40
0.2307692307692308
 40
0.2307692307692308
 40
0.2307692307692308
 40
0.2692307692307692
 40
0.2692307692307692
 40
0.2692307692307692
 40
0.2692307692307692
 40
0.3076923076923077
 40
0.3076923076923077
 40
0.3076923076923077
 40
0.3076923076923077
 40
0.3461538461538461
 40
0.3461538461538461
 40
0.3461538461538461
 40
0.3461538461538461
 40
0.3846153846153846
 40
0.3846153846153846
 40
0.3846153846153846
 40
0.3846153846153846
 40
0.4230769230769231
 40
0.4230769230769231
 40
0.4230769230769231
 40
0.4230769230769231
 40
0.4615384615384616
 40
0.4615384615384616
 40
0.4615384615384616
 40
0.4615384615384616
 40
0.5
 40
0.5
 40
0.5
 40
0.5
 40
0.5384615384615384
 40
0.5384615384615384
 40
0.5384615384615384
 40
0.5384615384615384
 40
0.5769230769230769
 40
0.5769230769230769
 40
0.5769230769230769
 40
0.5769230769230769
 40
0.6153846153846154
 40
0.6153846153846154
 40
0.6153846153846154
 40
0.6153846153846154
 40
0.6538461538461539
 40
0.6538461538461539
 40
0.6538461538461539
 40
0.6538461538461539
 40
0.6923076923076923
 40
0.6923076923076923
 40
0.6923076923076923
 40
0.6923076923076923
 40
0.7307692307692307
 40
0.7307692307692307
 40
0.7307692307692307
 40
0.7307692307692307
 40
0.7692307692307693
 40
0.7692307692307693
 40
0.7692307692307693
 40
0.7692307692307693
 40
0.8076923076923077
 40
0.8076923076923077
 40
0.8076923076923077
 40
0.8076923076923077
 40
0.8461538461538461
 40
0.8461538461538461
 40
0.8461538461538461
 40
0.8461538461538461
 40
0.8846153846153846
 40
0.8846153846153846
 40
0.8846153846153846
 40
0.8846153846153846
 40
0.9230769230769231
 40
0.9230769230769231
 40
0.9230769230769231
 40
0.9230769230769231
 40
1.0
 40
1.0
 40
1.0
 40
1.0
 10
-3.1718
 20
2.5422
 30
0.0
 10
-3.1718
 20
2.5422
 30
0.0
 10
-3.1625
 20
2.8519
 30
0.0
 10
-3.1625
 20
2.8519
 30
0.0
 10
-3.1625
 20
2.8519
 30
0.0
 10
-3.1625
 20
2.8519
 30
0.0
 10
-3.1342
 20
3.1677
 30
0.0
 10
-3.1342
 20
3.1677
 30
0.0
 10
-3.1342
 20
3.1677
 30
0.0
 10
-3.1342
 20
3.1677
 30
0.0
 10
-3.086
 20
3.4888
 30
0.0
 10
-3.086
 20
3.4888
 30
0.0
 10
-3.086
 20
3.4888
 30
0.0
 10
-3.086
 20
3.4888
 30
0.0
 10
-3.0175
 20
3.8159
 30
0.0
 10
-3.0175
 20
3.8159
 30
0.0
 10
-3.0175
 20
3.8159
 30
0.0
 10
-3.0175
 20
3.8159
 30
0.0
 10
-2.9281
 20
4.1496
 30
0.0
 10
-2.9281
 20
4.1496
 30
0.0
 10
-2.9281
 20
4.1496
 30
0.0
 10
-2.9281
 20
4.1496
 30
0.0
 10
-2.8181
 20
4.489
 30
0.0
 10
-2.8181
 20
4.489
 30
0.0
 10
-2.8181
 20
4.489
 30
0.0
 10
-2.8181
 20
4.489
 30
0.0
 10
-2.6876
 20
4.8338
 30
0.0
 10
-2.6876
 20
4.8338
 30
0.0
 10
-2.6876
 20
4.8338
 30
0.0
 10
-2.6876
 20
4.8338
 30
0.0
 10
-2.5385
 20
5.181
 30
0.0
 10
-2.5385
 20
5.181
 30
0.0
 10
-2.5385
 20
5.181
 30
0.0
 10
-2.5385
 20
5.181
 30
0.0
 10
-2.3736
 20
5.5268
 30
0.0
 10
-2.3736
 20
5.5268
 30
0.0
 10
-2.3736
 20
5.5268
 30
0.0
 10
-2.3736
 20
5.5268
 30
0.0
 10
-2.1968
 20
5.8668
 30
0.0
 10
-2.1968
 20
5.8668
 30
0.0
 10
-2.1968
 20
5.8668
 30
0.0
 10
-2.1968
 20
5.8668
 30
0.0
 10
-2.0155
 20
6.1916
 30
0.0
 10
-2.0155
 20
6.1916
 30
0.0
 10
-2.0155
 20
6.1916
 30
0.0
 10
-2.0155
 20
6.1916
 30
0.0
 10
-1.8382
 20
6.4915
 30
0.0
 10
-1.8382
 20
6.4915
 30
0.0
 10
-1.8382
 20
6.4915
 30
0.0
 10
-1.8382
 20
6.4915
 30
0.0
 10
-1.6687
 20
6.7652
 30
0.0
 10
-1.6687
 20
6.7652
 30
0.0
 10
-1.6687
 20
6.7652
 30
0.0
 10
-1.6687
 20
6.7652
 30
0.0
 10
-1.5106
 20
7.0113
 30
0.0
 10
-1.5106
 20
7.0113
 30
0.0
 10
-1.5106
 20
7.0113
 30
0.0
 10
-1.5106
 20
7.0113
 30
0.0
 10
-1.3689
 20
7.2253
 30
0.0
 10
-1.3689
 20
7.2253
 30
0.0
 10
-1.3689
 20
7.2253
 30
0.0
 10
-1.3689
 20
7.2253
 30
0.0
 10
-1.2473
 20
7.4047
 30
0.0
 10
-1.2473
 20
7.4047
 30
0.0
 10
-1.2473
 20
7.4047
 30
0.0
 10
-1.2473
 20
7.4047
 30
0.0
 10
-1.1443
 20
7.5541
 30
0.0
 10
-1.1443
 20
7.5541
 30
0.0
 10
-1.1443
 20
7.5541
 30
0.0
 10
-1.1443
 20
7.5541
 30
0.0
 10
-1.0592
 20
7.6758
 30
0.0
 10
-1.0592
 20
7.6758
 30
0.0
 10
-1.0592
 20
7.6758
 30
0.0
 10
-1.0592
 20
7.6758
 30
0.0
 10
-0.9925
 20
7.77
 30
0.0
 10
-0.9925
 20
7.77
 30
0.0
 10
-0.9925
 20
7.77
 30
0.0
 10
-0.9925
 20
7.77
 30
0.0
 10
-0.9416
 20
7.8414
 30
0.0
 10
-0.9416
 20
7.8414
 30
0.0
 10
-0.9416
 20
7.8414
 30
0.0
 10
-0.9416
 20
7.8414
 30
0.0
 10
-0.9021
 20
7.8965
 30
0.0
 10
-0.9021
 20
7.8965
 30
0.0
 10
-0.9021
 20
7.8965
 30
0.0
 10
-0.9021
 20
7.8965
 30
0.0
 10
-0.8712
 20
7.9395
 30
0.0
 10
-0.8712
 20
7.9395
 30
0.0
 10
-0.8712
 20
7.9395
 30
0.0
 10
-0.8712
 20
7.9395
 30
0.0
 10
-0.8486
 20
7.9707
 30
0.0
 10
-0.8486
 20
7.9707
 30
0.0
 10
-0.8486
 20
7.9707
 30
0.0
 10
-0.8486
 20
7.9707
 30
0.0
 10
-0.835
 20
7.9895
 30
0.0
 10
-0.835
 20
7.9895
 30
0.0
 10
-0.835
 20
7.9895
 30
0.0
 10
-0.835
 20
7.9895
 30
0.0
 10
-0.8305
 20
7.9958
 30
0.0
 10
-0.8305
 20
7.9958
 30
0.0
  0
SPLINE
  5
11C
330
1F
100
AcDbEntity
  8
ROUND
 62
   250
100
AcDbSpline
210
0.0
220
0.0
230
1.0
 70
     8
 71
     3
 72
   104
 73
   100
 74
     0
 42
0.0000000001
 43
0.0000000001
 40
0.0
 40
0.0
 40
0.0
 40
0.0
 40
0.0384615384615385
 40
0.0384615384615385
 40
0.0384615384615385
 40
0.0384615384615385
 40
0.0769230769230769
 40
0.0769230769230769
 40
0.0769230769230769
 40
0.0769230769230769
 40
0.1153846153846154
 40
0.1153846153846154
 40
0.1153846153846154
 40
0.1153846153846154
 40
0.1538461538461539
 40
0.1538461538461539
 40
0.1538461538461539
 40
0.1538461538461539
 40
0.1923076923076923
 40
0.1923076923076923
 40
0.1923076923076923
 40
0.1923076923076923
 40
0.2307692307692308
 40
0.2307692307692308
 40
0.2307692307692308
 40
0.2307692307692308
 40
0.2692307692307692
 40
0.2692307692307692
 40
0.2692307692307692
 40
0.2692307692307692
 40
0.3076923076923077
 40
0.3076923076923077
 40
0.3076923076923077
 40
0.3076923076923077
 40
0.3461538461538461
 40
0.3461538461538461
 40
0.3461538461538461
 40
0.3461538461538461
 40
0.3846153846153846
 40
0.3846153846153846
 40
0.3846153846153846
 40
0.3846153846153846
 40
0.4230769230769231
 40
0.4230769230769231
 40
0.4230769230769231
 40
0.4230769230769231
 40
0.4615384615384616
 40
0.4615384615384616
 40
0.4615384615384616
 40
0.4615384615384616
 40
0.5
 40
0.5
 40
0.5
 40
0.5
 40
0.5384615384615384
 40
0.5384615384615384
 40
0.5384615384615384
 40
0.5384615384615384
 40
0.5769230769230769
 40
0.5769230769230769
 40
0.5769230769230769
 40
0.5769230769230769
 40
0.6153846153846154
 40
0.6153846153846154
 40
0.6153846153846154
 40
0.6153846153846154
 40
0.6538461538461539
 40
0.6538461538461539
 40
0.6538461538461539
 40
0.6538461538461539
 40
0.6923076923076923
 40
0.6923076923076923
 40
0.6923076923076923
 40
0.6923076923076923
 40
0.7307692307692307
 40
0.7307692307692307
 40
0.7307692307692307
 40
0.7307692307692307
 40
0.7692307692307693
 40
0.7692307692307693
 40
0.7692307692307693
 40
0.7692307692307693
 40
0.8076923076923077
 40
0.8076923076923077
 40
0.8076923076923077
 40
0.8076923076923077
 40
0.8461538461538461
 40
0.8461538461538461
 40
0.8461538461538461
 40
0.8461538461538461
 40
0.8846153846153846
 40
0.8846153846153846
 40
0.8846153846153846
 40
0.8846153846153846
 40
0.9230769230769231
 40
0.9230769230769231
 40
0.9230769230769231
 40
0.9230769230769231
 40
1.0
 40
1.0
 40
1.0
 40
1.0
 10
-0.8305
 20
-2.9113
 30
0.0
 10
-0.8305
 20
-2.9113
 30
0.0
 10
-0.835
 20
-2.9051
 30
0.0
 10
-0.835
 20
-2.9051
 30
0.0
 10
-0.835
 20
-2.9051
 30
0.0
 10
-0.835
 20
-2.9051
 30
0.0
 10
-0.8487
 20
-2.8862
 30
0.0
 10
-0.8487
 20
-2.8862
 30
0.0
 10
-0.8487
 20
-2.8862
 30
0.0
 10
-0.8487
 20
-2.8862
 30
0.0
 10
-0.8713
 20
-2.8549
 30
0.0
 10
-0.8713
 20
-2.8549
 30
0.0
 10
-0.8713
 20
-2.8549
 30
0.0
 10
-0.8713
 20
-2.8549
 30
0.0
 10
-0.9023
 20
-2.8119
 30
0.0
 10
-0.9023
 20
-2.8119
 30
0.0
 10
-0.9023
 20
-2.8119
 30
0.0
 10
-0.9023
 20
-2.8119
 30
0.0
 10
-0.9418
 20
-2.7566
 30
0.0
 10
-0.9418
 20
-2.7566
 30
0.0
 10
-0.9418
 20
-2.7566
 30
0.0
 10
-0.9418
 20
-2.7566
 30
0.0
 10
-0.9928
 20
-2.6852
 30
0.0
 10
-0.9928
 20
-2.6852
 30
0.0
 10
-0.9928
 20
-2.6852
 30
0.0
 10
-0.9928
 20
-2.6852
 30
0.0
 10
-1.0596
 20
-2.5908
 30
0.0
 10
-1.0596
 20
-2.5908
 30
0.0
 10
-1.0596
 20
-2.5908
 30
0.0
 10
-1.0596
 20
-2.5908
 30
0.0
 10
-1.1447
 20
-2.469
 30
0.0
 10
-1.1447
 20
-2.469
 30
0.0
 10
-1.1447
 20
-2.469
 30
0.0
 10
-1.1447
 20
-2.469
 30
0.0
 10
-1.2478
 20
-2.3197
 30
0.0
 10
-1.2478
 20
-2.3197
 30
0.0
 10
-1.2478
 20
-2.3197
 30
0.0
 10
-1.2478
 20
-2.3197
 30
0.0
 10
-1.3693
 20
-2.1401
 30
0.0
 10
-1.3693
 20
-2.1401
 30
0.0
 10
-1.3693
 20
-2.1401
 30
0.0
 10
-1.3693
 20
-2.1401
 30
0.0
 10
-1.511
 20
-1.9262
 30
0.0
 10
-1.511
 20
-1.9262
 30
0.0
 10
-1.511
 20
-1.9262
 30
0.0
 10
-1.511
 20
-1.9262
 30
0.0
 10
-1.6692
 20
-1.68
 30
0.0
 10
-1.6692
 20
-1.68
 30
0.0
 10
-1.6692
 20
-1.68
 30
0.0
 10
-1.6692
 20
-1.68
 30
0.0
 10
-1.8386
 20
-1.4063
 30
0.0
 10
-1.8386
 20
-1.4063
 30
0.0
 10
-1.8386
 20
-1.4063
 30
0.0
 10
-1.8386
 20
-1.4063
 30
0.0
 10
-2.0159
 20
-1.1064
 30
0.0
 10
-2.0159
 20
-1.1064
 30
0.0
 10
-2.0159
 20
-1.1064
 30
0.0
 10
-2.0159
 20
-1.1064
 30
0.0
 10
-2.1972
 20
-0.7816
 30
0.0
 10
-2.1972
 20
-0.7816
 30
0.0
 10
-2.1972
 20
-0.7816
 30
0.0
 10
-2.1972
 20
-0.7816
 30
0.0
 10
-2.3739
 20
-0.4416
 30
0.0
 10
-2.3739
 20
-0.4416
 30
0.0
 10
-2.3739
 20
-0.4416
 30
0.0
 10
-2.3739
 20
-0.4416
 30
0.0
 10
-2.5388
 20
-0.0959
 30
0.0
 10
-2.5388
 20
-0.0959
 30
0.0
 10
-2.5388
 20
-0.0959
 30
0.0
 10
-2.5388
 20
-0.0959
 30
0.0
 10
-2.6879
 20
0.2513
 30
0.0
 10
-2.6879
 20
0.2513
 30
0.0
 10
-2.6879
 20
0.2513
 30
0.0
 10
-2.6879
 20
0.2513
 30
0.0
 10
-2.8182
 20
0.5959
 30
0.0
 10
-2.8182
 20
0.5959
 30
0.0
 10
-2.8182
 20
0.5959
 30
0.0
 10
-2.8182
 20
0.5959
 30
0.0
 10
-2.9283
 20
0.9352
 30
0.0
 10
-2.9283
 20
0.9352
 30
0.0
 10
-2.9283
 20
0.9352
 30
0.0
 10
-2.9283
 20
0.9352
 30
0.0
 10
-3.0176
 20
1.2689
 30
0.0
 10
-3.0176
 20
1.2689
 30
0.0
 10
-3.0176
 20
1.2689
 30
0.0
 10
-3.0176
 20
1.2689
 30
0.0
 10
-3.086
 20
1.5958
 30
0.0
 10
-3.086
 20
1.5958
 30
0.0
 10
-3.086
 20
1.5958
 30
0.0
 10
-3.086
 20
1.5958
 30
0.0
 10
-3.1342
 20
1.9169
 30
0.0
 10
-3.1342
 20
1.9169
 30
0.0
 10
-3.1342
 20
1.9169
 30
0.0
 10
-3.1342
 20
1.9169
 30
0.0
 10
-3.1625
 20
2.2326
 30
0.0
 10
-3.1625
 20
2.2326
 30
0.0
 10
-3.1625
 20
2.2326
 30
0.0
 10
-3.1625
 20
2.2326
 30
0.0
 10
-3.1718
 20
2.5422
 30
0.0
 10
-3.1718
 20
2.5422
 30
0.0
  0
SPLINE
  5
11D
330
1F
100
AcDbEntity
  8
ROUND
  6
NEW_LINE15
 62
   250
100
AcDbSpline
210
0.0
220
0.0
230
1.0
 70
    24
 71
     3
 72
     8
 73
     4
 74
     0
 42
0.0000000001
 43
0.0000000001
 40
0.0
 40
0.0
 40
0.0
 40
0.0
 40
1.0
 40
1.0
 40
1.0
 40
1.0
 10
-8.3526
 20
-20.2126
 30
0.0
 10
-8.3526
 20
-20.2126
 30
0.0
 10
-8.3526
 20
23.416
 30
0.0
 10
-8.3526
 20
23.416
 30
0.0
  0
SPLINE
  5
11F
330
1F
100
AcDbEntity
  8
ROUND
  6
NEW_LINE16
 62
   250
100
AcDbSpline
210
0.0
220
0.0
230
1.0
 70
    24
 71
     3
 72
     8
 73
     4
 74
     0
 42
0.0000000001
 43
0.0000000001
 40
0.0
 40
0.0
 40
0.0
 40
0.0
 40
1.0
 40
1.0
 40
1.0
 40
1.0
 10
20.9983
 20
2.5422
 30
0.0
 10
20.9983
 20
2.5422
 30
0.0
 10
-10.0578
 20
2.5422
 30
0.0
 10
-10.0578
 20
2.5422
 30
0.0
  0
SPLINE
  5
121
330
1F
100
AcDbEntity
  8
ROUND
 62
   250
100
AcDbSpline
210
0.0
220
0.0
230
1.0
 70
    24
 71
     3
 72
     8
 73
     4
 74
     0
 42
0.0000000001
 43
0.0000000001
 40
0.0
 40
0.0
 40
0.0
 40
0.0
 40
1.0
 40
1.0
 40
1.0
 40
1.0
 10
23.4097
 20
-5.9201
 30
0.0
 10
23.4097
 20
-5.9201
 30
0.0
 10
15.0972
 20
-5.9201
 30
0.0
 10
15.0972
 20
-5.9201
 30
0.0
  0
SPLINE
  5
122
330
1F
100
AcDbEntity
  8
ROUND
 62
   250
100
AcDbSpline
210
0.0
220
0.0
230
1.0
 70
    24
 71
     3
 72
     8
 73
     4
 74
     0
 42
0.0000000001
 43
0.0000000001
 40
0.0
 40
0.0
 40
0.0
 40
0.0
 40
1.0
 40
1.0
 40
1.0
 40
1.0
 10
23.4857
 20
-3.2874
 30
0.0
 10
23.4857
 20
-3.2874
 30
0.0
 10
15.0211
 20
-3.2874
 30
0.0
 10
15.0211
 20
-3.2874
 30
0.0
  0
SPLINE
  5
123
330
1F
100
AcDbEntity
  8
ROUND
 62
   250
100
AcDbSpline
210
0.0
220
0.0
230
1.0
 70
     8
 71
     3
 72
    12
 73
     8
 74
     0
 42
0.0000000001
 43
0.0000000001
 40
0.0
 40
0.0
 40
0.0
 40
0.0
 40
0.3333333333333333
 40
0.3333333333333333
 40
0.3333333333333333
 40
0.3333333333333333
 40
1.0
 40
1.0
 40
1.0
 40
1.0
 10
15.0972
 20
-5.9201
 30
0.0
 10
15.0744
 20
-5.9201
 30
0.0
 10
15.0528
 20
-5.9304
 30
0.0
 10
15.0385
 20
-5.9483
 30
0.0
 10
15.0385
 20
-5.9483
 30
0.0
 10
15.0242
 20
-5.966
 30
0.0
 10
15.0188
 20
-5.9893
 30
0.0
 10
15.0237
 20
-6.0116
 30
0.0
  0
SPLINE
  5
124
330
1F
100
AcDbEntity
  8
ROUND
 62
   250
100
AcDbSpline
210
0.0
220
0.0
230
1.0
 70
     8
 71
     3
 72
    12
 73
     8
 74
     0
 42
0.0000000001
 43
0.0000000001
 40
0.0
 40
0.0
 40
0.0
 40
0.0
 40
0.3333333333333333
 40
0.3333333333333333
 40
0.3333333333333333
 40
0.3333333333333333
 40
1.0
 40
1.0
 40
1.0
 40
1.0
 10
23.4832
 20
-6.0116
 30
0.0
 10
23.4881
 20
-5.9893
 30
0.0
 10
23.4827
 20
-5.966
 30
0.0
 10
23.4684
 20
-5.9483
 30
0.0
 10
23.4684
 20
-5.9483
 30
0.0
 10
23.4541
 20
-5.9304
 30
0.0
 10
23.4326
 20
-5.9201
 30
0.0
 10
23.4097
 20
-5.9201
 30
0.0
  0
SPLINE
  5
125
330
1F
100
AcDbEntity
  8
ROUND
 62
   250
100
AcDbSpline
210
0.0
220
0.0
230
1.0
 70
     8
 71
     3
 72
    12
 73
     8
 74
     0
 42
0.0000000001
 43
0.0000000001
 40
0.0
 40
0.0
 40
0.0
 40
0.0
 40
0.3333333333333333
 40
0.3333333333333333
 40
0.3333333333333333
 40
0.3333333333333333
 40
1.0
 40
1.0
 40
1.0
 40
1.0
 10
15.0211
 20
-3.2874
 30
0.0
 10
14.9985
 20
-3.2874
 30
0.0
 10
14.977
 20
-3.2976
 30
0.0
 10
14.9627
 20
-3.3153
 30
0.0
 10
14.9627
 20
-3.3153
 30
0.0
 10
14.9484
 20
-3.3329
 30
0.0
 10
14.9428
 20
-3.3561
 30
0.0
 10
14.9475
 20
-3.3783
 30
0.0
  0
SPLINE
  5
126
330
1F
100
AcDbEntity
  8
ROUND
 62
   250
100
AcDbSpline
210
0.0
220
0.0
230
1.0
 70
     8
 71
     3
 72
    12
 73
     8
 74
     0
 42
0.0000000001
 43
0.0000000001
 40
0.0
 40
0.0
 40
0.0
 40
0.0
 40
0.3333333333333333
 40
0.3333333333333333
 40
0.3333333333333333
 40
0.3333333333333333
 40
1.0
 40
1.0
 40
1.0
 40
1.0
 10
23.5593
 20
-3.3783
 30
0.0
 10
23.564
 20
-3.3561
 30
0.0
 10
23.5585
 20
-3.3329
 30
0.0
 10
23.5442
 20
-3.3153
 30
0.0
 10
23.5442
 20
-3.3153
 30
0.0
 10
23.5299
 20
-3.2976
 30
0.0
 10
23.5085
 20
-3.2874
 30
0.0
 10
23.4857
 20
-3.2874
 30
0.0
  0
ENDSEC
  0
SECTION
  2
OBJECTS
  0
DICTIONARY
  5
C
330
0
100
AcDbDictionary
  3
ACAD_GROUP
350
D
  3
ACAD_LAYOUT
350
1A
  3
ACAD_MATERIAL
350
3B
  3
ACAD_MLEADERSTYLE
350
149
  3
ACAD_MLINESTYLE
350
17
  3
ACAD_PLOTSETTINGS
350
19
  3
ACAD_VISUALSTYLE
350
2A
  3
ACDBHEADERROUNDTRIPXREC
350
127
  3
ACDBVARIABLEDICTIONARY
350
147
  0
DICTIONARY
  5
D
102
{ACAD_REACTORS
330
C
102
}
330
C
100
AcDbDictionary
  0
DICTIONARY
  5
1A
102
{ACAD_REACTORS
330
C
102
}
330
C
100
AcDbDictionary
  0
DICTIONARY
  5
3B
102
{ACAD_REACTORS
330
C
102
}
330
C
100
AcDbDictionary
  3
BYBLOCK
350
3D
  3
BYLAYER
350
3C
  3
GLOBAL
350
3E
  0
DICTIONARY
  5
149
102
{ACAD_REACTORS
330
C
102
}
330
C
100
AcDbDictionary
  0
DICTIONARY
  5
17
102
{ACAD_REACTORS
330
C
102
}
330
C
100
AcDbDictionary
  3
STANDARD
350
18
  0
DICTIONARY
  5
19
102
{ACAD_REACTORS
330
C
102
}
330
C
100
AcDbDictionary
  0
DICTIONARY
  5
2A
102
{ACAD_REACTORS
330
C
102
}
330
C
100
AcDbDictionary
  3
2DWIREFRAME
350
2F
  3
3D_HIDDEN
350
31
  3
3DWIREFRAME
350
30
  3
BASIC
350
32
  3
BRIGHTEN
350
36
  3
COLORCHANGE
350
3A
  3
CONCEPTUAL
350
34
  3
DIM
350
35
  3
FACEPATTERN
350
39
  3
FLAT
350
2B
  3
FLATWITHEDGES
350
2C
  3
GOURAUD
350
2D
  3
GOURAUDWITHEDGES
350
2E
  3
LINEPATTERN
350
38
  3
REALISTIC
350
33
  3
THICKEN
350
37
  0
DICTIONARY
  5
127
102
{ACAD_REACTORS
330
C
102
}
330
C
100
AcDbDictionary
  3
CEPSNTYPE
350
130
  3
DIMSTYLEDATA
350
146
  3
FINGERPRINTGUID
350
131
  3
HYPERLINKBASE
350
12A
  3
INSUNITS
350
12F
  3
LAYOUTDICT
350
12C
  3
LWETCUNION
350
12E
  3
PLOTSETDICT
350
12D
  3
PSVPSCALE
350
133
  3
PUCSBASE
350
136
  3
PUCSORGBACK
350
13C
  3
PUCSORGBOTTOM
350
138
  3
PUCSORGFRONT
350
13B
  3
PUCSORGLEFT
350
139
  3
PUCSORGRIGHT
350
13A
  3
PUCSORGTOP
350
137
  3
PUCSORTHOREF
350
134
  3
PUCSORTHOVIEW
350
135
  3
STYLESHEET
350
12B
  3
TSTACKALIGN
350
128
  3
TSTACKSIZE
350
129
  3
UCSBASE
350
13F
  3
UCSORGBACK
350
145
  3
UCSORGBOTTOM
350
141
  3
UCSORGFRONT
350
144
  3
UCSORGLEFT
350
142
  3
UCSORGRIGHT
350
143
  3
UCSORGTOP
350
140
  3
UCSORTHOREF
350
13D
  3
UCSORTHOVIEW
350
13E
  3
VERSIONGUID
350
132
  0
DICTIONARY
  5
147
102
{ACAD_REACTORS
330
C
102
}
330
C
100
AcDbDictionary
  3
DIMASSOC
350
14A
  3
HIDETEXT
350
14B
  0
MATERIAL
  5
3D
102
{ACAD_REACTORS
330
3B
102
}
102
{ACAD_XDICTIONARY
360
14E
102
}
330
3B
100
AcDbMaterial
  1
ByBlock
  0
MATERIAL
  5
3C
102
{ACAD_REACTORS
330
3B
102
}
102
{ACAD_XDICTIONARY
360
14C
102
}
330
3B
100
AcDbMaterial
  1
ByLayer
  0
MATERIAL
  5
3E
102
{ACAD_REACTORS
330
3B
102
}
102
{ACAD_XDICTIONARY
360
150
102
}
330
3B
100
AcDbMaterial
  1
Global
  0
MLINESTYLE
  5
18
102
{ACAD_REACTORS
330
17
102
}
330
17
100
AcDbMlineStyle
  2
Standard
 70
     0
  3

 62
   256
 51
90.0
 52
90.0
 71
     2
 49
0.5
 62
   256
  6
BYLAYER
 49
-0.5
 62
   256
  6
BYLAYER
  0
ACAD_PROXY_OBJECT
  5
2F
102
{ACAD_REACTORS
330
2A
102
}
330
2A
100
AcDbProxyObject
 90
      499
 91
      501
 93
      436
310
42CC9915DA5C99599C985B595049028333333333333E3BF0000000000000FB0107901411070040501600405405064090741402480A0340
1001
ACAD
1000
AcDbSavedByObjectVersion
1070
     0
  0
ACAD_PROXY_OBJECT
  5
31
102
{ACAD_REACTORS
330
2A
102
}
330
2A
100
AcDbProxyObject
 90
      499
 91
      501
 93
      500
310
424CD108121A5919195B90640502408333333333333E3BF0000000000000FB01079024090700405020000000000001110200405405064090740C02480A0340
1001
ACAD
1000
AcDbSavedByObjectVersion
1070
     0
  0
ACAD_PROXY_OBJECT
  5
30
102
{ACAD_REACTORS
330
2A
102
}
330
2A
100
AcDbProxyObject
 90
      499
 91
      501
 93
      436
310
42CCD915DA5C99599C985B595059028333333333333E3BF0000000000000FB0107901411070040501600405405064090741402480A0340
1001
ACAD
1000
AcDbSavedByObjectVersion
1070
     0
  0
ACAD_PROXY_OBJECT
  5
32
102
{ACAD_REACTORS
330
2A
102
}
330
2A
100
AcDbProxyObject
 90
      499
 91
      501
 93
      388
310
4150985CDA58D07406404333333333333E3BF0000000000000FB0107A41107004050150841D405064090741402480A0350
1001
ACAD
1000
AcDbSavedByObjectVersion
1070
     0
  0
ACAD_PROXY_OBJECT
  5
36
102
{ACAD_REACTORS
330
2A
102
}
330
2A
100
AcDbProxyObject
 90
      499
 91
      501
 93
      428
310
42109C9A59DA1D195B90C409028333333333333E3BF0000000000000FB010790141107004050150841D405064090741402480A029950
1001
ACAD
1000
AcDbSavedByObjectVersion
1070
     0
  0
ACAD_PROXY_OBJECT
  5
3A
102
{ACAD_REACTORS
330
2A
102
}
330
2A
100
AcDbProxyObject
 90
      499
 91
      501
 93
      452
310
42D0DBDB1BDC90DA185B99D95104090240C333333333333E3BF0000000000000FB0108901411070040501508421405064090741402480A0350
1001
ACAD
1000
AcDbSavedByObjectVersion
1070
     0
  0
ACAD_PROXY_OBJECT
  5
34
102
{ACAD_REACTORS
330
2A
102
}
330
2A
100
AcDbProxyObject
 90
      499
 91
      501
 93
      500
310
4290DBDB98D95C1D1D585B10940D028333333333333E3BF0000000000000FB0107902409070040501000000000000111010841D405064090740C02480A0340
1001
ACAD
1000
AcDbSavedByObjectVersion
1070
     0
  0
ACAD_PROXY_OBJECT
  5
35
102
{ACAD_REACTORS
330
2A
102
}
330
2A
100
AcDbProxyObject
 90
      499
 91
      501
 93
      412
310
40D11A5B50B409028333333333333E3BF0000000000000FB010790141107004050150841D405064090741402480A02677FFFFFD0
1001
ACAD
1000
AcDbSavedByObjectVersion
1070
     0
  0
ACAD_PROXY_OBJECT
  5
39
102
{ACAD_REACTORS
330
2A
102
}
330
2A
100
AcDbProxyObject
 90
      499
 91
      501
 93
      444
310
42D19858D95C185D1D195C9B90F409028333333333333E3BF0000000000000FB010790141107004050150841D405064090741402480A0350
1001
ACAD
1000
AcDbSavedByObjectVersion
1070
     0
  0
ACAD_PROXY_OBJECT
  5
2B
102
{ACAD_REACTORS
330
2A
102
}
330
2A
100
AcDbProxyObject
 90
      499
 91
      501
 93
      388
310
41119B185D240901404333333333333E3BF0000000000000F9010740A41107004050150841D405064090741402480A1B50
1001
ACAD
1000
AcDbSavedByObjectVersion
1070
     0
  0
ACAD_PROXY_OBJECT
  5
2C
102
{ACAD_REACTORS
330
2A
102
}
330
2A
100
AcDbProxyObject
 90
      499
 91
      501
 93
      476
310
43519B185D15DA5D1A115919D95CD0140901404333333333333E3BF0000000000000F9010740901411070040501600405405064090741402480A1B50
1001
ACAD
1000
AcDbSavedByObjectVersion
1070
     0
  0
ACAD_PROXY_OBJECT
  5
2D
102
{ACAD_REACTORS
330
2A
102
}
330
2A
100
AcDbProxyObject
 90
      499
 91
      501
 93
      412
310
41D1DBDD5C985D5910240902404333333333333E3BF0000000000000F9010740A411070040501641D405064090741402480A1B50
1001
ACAD
1000
AcDbSavedByObjectVersion
1070
     0
  0
ACAD_PROXY_OBJECT
  5
2E
102
{ACAD_REACTORS
330
2A
102
}
330
2A
100
AcDbProxyObject
 90
      499
 91
      501
 93
      500
310
4411DBDD5C985D5915DA5D1A115919D95CD0340902404333333333333E3BF0000000000000F9010740901411070040501600405405064090741402480A1B50
1001
ACAD
1000
AcDbSavedByObjectVersion
1070
     0
  0
ACAD_PROXY_OBJECT
  5
38
102
{ACAD_REACTORS
330
2A
102
}
330
2A
100
AcDbProxyObject
 90
      499
 91
      501
 93
      444
310
42D31A5B995C185D1D195C9B90E409028333333333333E3BF0000000000000FB010790141107004050750841D405064090741402483A0350
1001
ACAD
1000
AcDbSavedByObjectVersion
1070
     0
  0
ACAD_PROXY_OBJECT
  5
33
102
{ACAD_REACTORS
330
2A
102
}
330
2A
100
AcDbProxyObject
 90
      499
 91
      501
 93
      420
310
425499585B1A5CDD1A58D08409028333333333333E3BF0000000000000FB01079019070040501508421405064090741402480A1B40
1001
ACAD
1000
AcDbSavedByObjectVersion
1070
     0
  0
ACAD_PROXY_OBJECT
  5
37
102
{ACAD_REACTORS
330
2A
102
}
330
2A
100
AcDbProxyObject
 90
      499
 91
      501
 93
      412
310
41D51A1A58DAD95B90D409028333333333333E3BF0000000000000FB010790141107004050150C41D405064090741402480A0350
1001
ACAD
1000
AcDbSavedByObjectVersion
1070
     0
  0
XRECORD
  5
130
102
{ACAD_REACTORS
330
127
102
}
330
127
100
AcDbXrecord
 90
        0
  0
XRECORD
  5
146
102
{ACAD_REACTORS
330
127
102
}
330
127
100
AcDbXrecord
1000
DSTYLE
1002
{
1070
   340
340
11
1002
}
  0
XRECORD
  5
131
102
{ACAD_REACTORS
330
127
102
}
330
127
100
AcDbXrecord
  1
{D07ECBEB-4823-467E-AB01-1C90B5E4FBE1}
  0
XRECORD
  5
12A
102
{ACAD_REACTORS
330
127
102
}
330
127
100
AcDbXrecord
  1

  0
XRECORD
  5
12F
102
{ACAD_REACTORS
330
127
102
}
330
127
100
AcDbXrecord
 90
        4
  0
XRECORD
  5
12C
102
{ACAD_REACTORS
330
127
102
}
330
127
100
AcDbXrecord
340
1A
  0
XRECORD
  5
12E
102
{ACAD_REACTORS
330
127
102
}
330
127
100
AcDbXrecord
 90
    10781
  0
XRECORD
  5
12D
102
{ACAD_REACTORS
330
127
102
}
330
127
100
AcDbXrecord
340
19
  0
XRECORD
  5
133
102
{ACAD_REACTORS
330
127
102
}
330
127
100
AcDbXrecord
 40
0.0
  0
XRECORD
  5
136
102
{ACAD_REACTORS
330
127
102
}
330
127
100
AcDbXrecord
340
0
  0
XRECORD
  5
13C
102
{ACAD_REACTORS
330
127
102
}
330
127
100
AcDbXrecord
 10
0.0
 20
0.0
 30
0.0
  0
XRECORD
  5
138
102
{ACAD_REACTORS
330
127
102
}
330
127
100
AcDbXrecord
 10
0.0
 20
0.0
 30
0.0
  0
XRECORD
  5
13B
102
{ACAD_REACTORS
330
127
102
}
330
127
100
AcDbXrecord
 10
0.0
 20
0.0
 30
0.0
  0
XRECORD
  5
139
102
{ACAD_REACTORS
330
127
102
}
330
127
100
AcDbXrecord
 10
0.0
 20
0.0
 30
0.0
  0
XRECORD
  5
13A
102
{ACAD_REACTORS
330
127
102
}
330
127
100
AcDbXrecord
 10
0.0
 20
0.0
 30
0.0
  0
XRECORD
  5
137
102
{ACAD_REACTORS
330
127
102
}
330
127
100
AcDbXrecord
 10
0.0
 20
0.0
 30
0.0
  0
XRECORD
  5
134
102
{ACAD_REACTORS
330
127
102
}
330
127
100
AcDbXrecord
340
0
  0
XRECORD
  5
135
102
{ACAD_REACTORS
330
127
102
}
330
127
100
AcDbXrecord
 70
     0
  0
XRECORD
  5
12B
102
{ACAD_REACTORS
330
127
102
}
330
127
100
AcDbXrecord
  1

  0
XRECORD
  5
128
102
{ACAD_REACTORS
330
127
102
}
330
127
100
AcDbXrecord
 90
        1
  0
XRECORD
  5
129
102
{ACAD_REACTORS
330
127
102
}
330
127
100
AcDbXrecord
 90
       70
  0
XRECORD
  5
13F
102
{ACAD_REACTORS
330
127
102
}
330
127
100
AcDbXrecord
340
0
  0
XRECORD
  5
145
102
{ACAD_REACTORS
330
127
102
}
330
127
100
AcDbXrecord
 10
0.0
 20
0.0
 30
0.0
  0
XRECORD
  5
141
102
{ACAD_REACTORS
330
127
102
}
330
127
100
AcDbXrecord
 10
0.0
 20
0.0
 30
0.0
  0
XRECORD
  5
144
102
{ACAD_REACTORS
330
127
102
}
330
127
100
AcDbXrecord
 10
0.0
 20
0.0
 30
0.0
  0
XRECORD
  5
142
102
{ACAD_REACTORS
330
127
102
}
330
127
100
AcDbXrecord
 10
0.0
 20
0.0
 30
0.0
  0
XRECORD
  5
143
102
{ACAD_REACTORS
330
127
102
}
330
127
100
AcDbXrecord
 10
0.0
 20
0.0
 30
0.0
  0
XRECORD
  5
140
102
{ACAD_REACTORS
330
127
102
}
330
127
100
AcDbXrecord
 10
0.0
 20
0.0
 30
0.0
  0
XRECORD
  5
13D
102
{ACAD_REACTORS
330
127
102
}
330
127
100
AcDbXrecord
340
0
  0
XRECORD
  5
13E
102
{ACAD_REACTORS
330
127
102
}
330
127
100
AcDbXrecord
 70
     0
  0
XRECORD
  5
132
102
{ACAD_REACTORS
330
127
102
}
330
127
100
AcDbXrecord
  1
{FAEB1C32-E019-11D5-929B-00C0DF256EC4}
  0
DICTIONARYVAR
  5
14A
102
{ACAD_REACTORS
330
147
102
}
330
147
100
DictionaryVariables
280
     0
  1
2
  0
DICTIONARYVAR
  5
14B
102
{ACAD_REACTORS
330
147
102
}
330
147
100
DictionaryVariables
280
     0
  1
1
  0
DICTIONARY
  5
14E
330
3D
100
AcDbDictionary
280
     1
  3
ACAD_XREC_ROUNDTRIP
360
14F
  0
DICTIONARY
  5
14C
330
3C
100
AcDbDictionary
280
     1
  3
ACAD_XREC_ROUNDTRIP
360
14D
  0
DICTIONARY
  5
150
330
3E
100
AcDbDictionary
280
     1
  3
ACAD_XREC_ROUNDTRIP
360
151
  0
XRECORD
  5
14F
102
{ACAD_REACTORS
330
14E
102
}
330
14E
100
AcDbXrecord
102
MATERIAL
148
0.0
149
0.0
149
0.0
 93
        0
 94
      127
282
     0
 72
     1
 77
     1
171
     1
175
     1
179
     1
273
     0
  0
XRECORD
  5
14D
102
{ACAD_REACTORS
330
14C
102
}
330
14C
100
AcDbXrecord
102
MATERIAL
148
0.0
149
0.0
149
0.0
 93
        0
 94
      127
282
     0
 72
     1
 77
     1
171
     1
175
     1
179
     1
273
     0
  0
XRECORD
  5
151
102
{ACAD_REACTORS
330
150
102
}
330
150
100
AcDbXrecord
102
MATERIAL
148
0.0
149
0.0
149
0.0
 93
        0
 94
      127
282
     0
 72
     1
 77
     1
171
     1
175
     1
179
     1
273
     0
  0
ENDSEC
  0
EOF
