  0
SECTION
  2
HEADER
  9
$ACADVER
  1
AC1014
  9
$ACADMAINTVER
 70
     9
  9
$DWGCODEPAGE
  3
ANSI_1250
  9
$INSBASE
 10
0.0
 20
0.0
 30
0.0
  9
$EXTMIN
 10
-18.9076
 20
-28.0739
 30
0.0
  9
$EXTMAX
 10
19.0723
 20
27.9092
 30
0.0
  9
$LIMMIN
 10
0.0
 20
0.0
  9
$LIMMAX
 10
12.0
 20
9.0
  9
$ORTHOMODE
 70
     0
  9
$REGENMODE
 70
     1
  9
$FILLMODE
 70
     1
  9
$QTEXTMODE
 70
     0
  9
$MIRRTEXT
 70
     1
  9
$DRAGMODE
 70
     2
  9
$LTSCALE
 40
1.0
  9
$OSMODE
 70
    37
  9
$ATTMODE
 70
     1
  9
$TEXTSIZE
 40
0.2
  9
$TRACEWID
 40
0.05
  9
$TEXTSTYLE
  7
STANDARD
  9
$CLAYER
  8
0
  9
$CELTYPE
  6
BYLAYER
  9
$CECOLOR
 62
   256
  9
$CELTSCALE
 40
1.0
  9
$DELOBJ
 70
     1
  9
$DISPSILH
 70
     0
  9
$DIMSCALE
 40
1.0
  9
$DIMASZ
 40
0.18
  9
$DIMEXO
 40
0.0625
  9
$DIMDLI
 40
0.38
  9
$DIMRND
 40
0.0
  9
$DIMDLE
 40
0.0
  9
$DIMEXE
 40
0.18
  9
$DIMTP
 40
0.0
  9
$DIMTM
 40
0.0
  9
$DIMTXT
 40
0.18
  9
$DIMCEN
 40
0.09
  9
$DIMTSZ
 40
0.0
  9
$DIMTOL
 70
     0
  9
$DIMLIM
 70
     0
  9
$DIMTIH
 70
     1
  9
$DIMTOH
 70
     1
  9
$DIMSE1
 70
     0
  9
$DIMSE2
 70
     0
  9
$DIMTAD
 70
     0
  9
$DIMZIN
 70
     0
  9
$DIMBLK
  1

  9
$DIMASO
 70
     1
  9
$DIMSHO
 70
     1
  9
$DIMPOST
  1

  9
$DIMAPOST
  1

  9
$DIMALT
 70
     0
  9
$DIMALTD
 70
     2
  9
$DIMALTF
 40
25.4
  9
$DIMLFAC
 40
1.0
  9
$DIMTOFL
 70
     0
  9
$DIMTVP
 40
0.0
  9
$DIMTIX
 70
     0
  9
$DIMSOXD
 70
     0
  9
$DIMSAH
 70
     0
  9
$DIMBLK1
  1

  9
$DIMBLK2
  1

  9
$DIMSTYLE
  2
STANDARD
  9
$DIMCLRD
 70
     0
  9
$DIMCLRE
 70
     0
  9
$DIMCLRT
 70
     0
  9
$DIMTFAC
 40
1.0
  9
$DIMGAP
 40
0.09
  9
$DIMJUST
 70
     0
  9
$DIMSD1
 70
     0
  9
$DIMSD2
 70
     0
  9
$DIMTOLJ
 70
     1
  9
$DIMTZIN
 70
     0
  9
$DIMALTZ
 70
     0
  9
$DIMALTTZ
 70
     0
  9
$DIMFIT
 70
     3
  9
$DIMUPT
 70
     0
  9
$DIMUNIT
 70
     2
  9
$DIMDEC
 70
     4
  9
$DIMTDEC
 70
     4
  9
$DIMALTU
 70
     2
  9
$DIMALTTD
 70
     2
  9
$DIMTXSTY
  7
STANDARD
  9
$DIMAUNIT
 70
     0
  9
$LUNITS
 70
     2
  9
$LUPREC
 70
     4
  9
$SKETCHINC
 40
0.1
  9
$FILLETRAD
 40
0.5
  9
$AUNITS
 70
     0
  9
$AUPREC
 70
     0
  9
$MENU
  1
.
  9
$ELEVATION
 40
0.0
  9
$PELEVATION
 40
0.0
  9
$THICKNESS
 40
0.0
  9
$LIMCHECK
 70
     0
  9
$CHAMFERA
 40
0.5
  9
$CHAMFERB
 40
0.5
  9
$CHAMFERC
 40
1.0
  9
$CHAMFERD
 40
0.0
  9
$SKPOLY
 70
     0
  9
$TDCREATE
 40
2456247.444790324
  9
$TDUPDATE
 40
2456247.444790336
  9
$TDINDWG
 40
0.0000000116
  9
$TDUSRTIMER
 40
0.0000000116
  9
$USRTIMER
 70
     1
  9
$ANGBASE
 50
0.0
  9
$ANGDIR
 70
     0
  9
$PDMODE
 70
     0
  9
$PDSIZE
 40
0.0
  9
$PLINEWID
 40
0.0
  9
$COORDS
 70
     1
  9
$SPLFRAME
 70
     0
  9
$SPLINETYPE
 70
     6
  9
$SPLINESEGS
 70
     8
  9
$ATTDIA
 70
     0
  9
$ATTREQ
 70
     1
  9
$HANDLING
 70
     1
  9
$HANDSEED
  5
101
  9
$SURFTAB1
 70
     6
  9
$SURFTAB2
 70
     6
  9
$SURFTYPE
 70
     6
  9
$SURFU
 70
     6
  9
$SURFV
 70
     6
  9
$UCSNAME
  2

  9
$UCSORG
 10
0.0
 20
0.0
 30
0.0
  9
$UCSXDIR
 10
1.0
 20
0.0
 30
0.0
  9
$UCSYDIR
 10
0.0
 20
1.0
 30
0.0
  9
$PUCSNAME
  2

  9
$PUCSORG
 10
0.0
 20
0.0
 30
0.0
  9
$PUCSXDIR
 10
1.0
 20
0.0
 30
0.0
  9
$PUCSYDIR
 10
0.0
 20
1.0
 30
0.0
  9
$USERI1
 70
     0
  9
$USERI2
 70
     0
  9
$USERI3
 70
     0
  9
$USERI4
 70
     0
  9
$USERI5
 70
     0
  9
$USERR1
 40
0.0
  9
$USERR2
 40
0.0
  9
$USERR3
 40
0.0
  9
$USERR4
 40
0.0
  9
$USERR5
 40
0.0
  9
$WORLDVIEW
 70
     1
  9
$SHADEDGE
 70
     3
  9
$SHADEDIF
 70
    70
  9
$TILEMODE
 70
     1
  9
$MAXACTVP
 70
    64
  9
$PINSBASE
 10
0.0
 20
0.0
 30
0.0
  9
$PLIMCHECK
 70
     0
  9
$PEXTMIN
 10
1.000000000000000E+20
 20
1.000000000000000E+20
 30
1.000000000000000E+20
  9
$PEXTMAX
 10
-1.000000000000000E+20
 20
-1.000000000000000E+20
 30
-1.000000000000000E+20
  9
$PLIMMIN
 10
0.0
 20
0.0
  9
$PLIMMAX
 10
12.0
 20
9.0
  9
$UNITMODE
 70
     0
  9
$VISRETAIN
 70
     1
  9
$PLINEGEN
 70
     0
  9
$PSLTSCALE
 70
     1
  9
$TREEDEPTH
 70
  3020
  9
$PICKSTYLE
 70
     1
  9
$CMLSTYLE
  2
STANDARD
  9
$CMLJUST
 70
     0
  9
$CMLSCALE
 40
1.0
  9
$PROXYGRAPHICS
 70
     1
  9
$MEASUREMENT
 70
     0
  0
ENDSEC
  0
SECTION
  2
CLASSES
  0
CLASS
  1
ACDBDICTIONARYWDFLT
  2
AcDbDictionaryWithDefault
  3
ObjectDBX Classes
 90
        0
280
     0
281
     0
  0
CLASS
  1
VISUALSTYLE
  2
AcDbVisualStyle
  3
ObjectDBX Classes
 90
     4095
280
     0
281
     0
  0
CLASS
  1
MATERIAL
  2
AcDbMaterial
  3
ObjectDBX Classes
 90
     1153
280
     0
281
     0
  0
CLASS
  1
DICTIONARYVAR
  2
AcDbDictionaryVar
  3
ObjectDBX Classes
 90
        0
280
     0
281
     0
  0
CLASS
  1
XRECORD
  2
AcDbXrecord
  3
AutoCAD 2000
 90
        0
280
     0
281
     0
  0
CLASS
  1
LWPOLYLINE
  2
AcDbPolyline
  3
AutoCAD 2000
 90
        0
280
     0
281
     1
  0
CLASS
  1
HATCH
  2
AcDbHatch
  3
AutoCAD 2000
 90
        0
280
     0
281
     1
  0
CLASS
  1
ACDBPLACEHOLDER
  2
AcDbPlaceHolder
  3
ObjectDBX Classes
 90
        0
280
     0
281
     0
  0
CLASS
  1
LAYOUT
  2
AcDbLayout
  3
ObjectDBX Classes
 90
        0
280
     0
281
     0
  0
ENDSEC
  0
SECTION
  2
TABLES
  0
TABLE
  2
VPORT
  5
8
330
0
100
AcDbSymbolTable
 70
     1
  0
VPORT
  5
29
330
8
100
AcDbSymbolTableRecord
100
AcDbViewportTableRecord
  2
*ACTIVE
 70
     0
 10
0.0
 20
0.0
 11
1.0
 21
1.0
 12
10.42990654205607
 22
4.5
 13
0.0
 23
0.0
 14
0.5
 24
0.5
 15
0.5
 25
0.5
 16
0.0
 26
0.0
 36
1.0
 17
0.0
 27
0.0
 37
0.0
 40
9.0
 41
1.972972972850329
 42
50.0
 43
0.0
 44
0.0
 50
0.0
 51
0.0
 71
     0
 72
   100
 73
     1
 74
     3
 75
     0
 76
     0
 77
     0
 78
     0
  0
ENDTAB
  0
TABLE
  2
LTYPE
  5
5
330
0
100
AcDbSymbolTable
 70
     2
  0
LTYPE
  5
14
330
5
100
AcDbSymbolTableRecord
100
AcDbLinetypeTableRecord
  2
BYBLOCK
 70
     0
  3

 72
    65
 73
     0
 40
0.0
  0
LTYPE
  5
15
330
5
100
AcDbSymbolTableRecord
100
AcDbLinetypeTableRecord
  2
BYLAYER
 70
     0
  3

 72
    65
 73
     0
 40
0.0
  0
LTYPE
  5
16
330
5
100
AcDbSymbolTableRecord
100
AcDbLinetypeTableRecord
  2
CONTINUOUS
 70
     0
  3
Solid line
 72
    65
 73
     0
 40
0.0
  0
LTYPE
  5
86
330
5
100
AcDbSymbolTableRecord
100
AcDbLinetypeTableRecord
  2
NEW_LINE1
 70
     0
  3

 72
    65
 73
     4
 40
1.2
 49
0.5
 74
     4
 75
     0
340
0
 46
1.0
 50
0.0
 44
0.0
 45
0.0
 49
-0.3
 74
     4
 75
     0
340
0
 46
1.0
 50
0.0
 44
0.0
 45
0.0
 49
0.1
 74
     4
 75
     0
340
0
 46
1.0
 50
0.0
 44
0.0
 45
0.0
 49
-0.3
 74
     4
 75
     0
340
0
 46
1.0
 50
0.0
 44
0.0
 45
0.0
  0
ENDTAB
  0
TABLE
  2
LAYER
  5
2
330
0
100
AcDbSymbolTable
 70
     2
  0
LAYER
  5
10
330
2
100
AcDbSymbolTableRecord
100
AcDbLayerTableRecord
  2
0
 70
     0
 62
     7
  6
CONTINUOUS
  0
LAYER
  5
40
330
2
100
AcDbSymbolTableRecord
100
AcDbLayerTableRecord
  2
DEFAULT_1
 70
     0
 62
     7
  6
CONTINUOUS
  0
ENDTAB
  0
TABLE
  2
STYLE
  5
3
330
0
100
AcDbSymbolTable
 70
     1
  0
STYLE
  5
11
330
3
100
AcDbSymbolTableRecord
100
AcDbTextStyleTableRecord
  2
STANDARD
 70
     0
 40
0.0
 41
1.0
 50
0.0
 71
     0
 42
0.2
  3
txt
  4

  0
ENDTAB
  0
TABLE
  2
VIEW
  5
6
330
0
100
AcDbSymbolTable
 70
     0
  0
ENDTAB
  0
TABLE
  2
UCS
  5
7
330
0
100
AcDbSymbolTable
 70
     0
  0
ENDTAB
  0
TABLE
  2
APPID
  5
9
330
0
100
AcDbSymbolTable
 70
     2
  0
APPID
  5
12
330
9
100
AcDbSymbolTableRecord
100
AcDbRegAppTableRecord
  2
ACAD
 70
     0
  0
APPID
  5
3F
330
9
100
AcDbSymbolTableRecord
100
AcDbRegAppTableRecord
  2
ODA
 70
     0
  0
ENDTAB
  0
TABLE
  2
DIMSTYLE
  5
A
330
0
100
AcDbSymbolTable
 70
     1
  0
DIMSTYLE
105
27
330
A
100
AcDbSymbolTableRecord
100
AcDbDimStyleTableRecord
  2
STANDARD
 70
     0
  3

  4

  5

  6

  7

 40
1.0
 41
0.18
 42
0.0625
 43
0.38
 44
0.18
 45
0.0
 46
0.0
 47
0.0
 48
0.0
140
0.18
141
0.09
142
0.0
143
25.4
144
1.0
145
0.0
146
1.0
147
0.09
 71
     0
 72
     0
 73
     1
 74
     1
 75
     0
 76
     0
 77
     0
 78
     0
170
     0
171
     2
172
     0
173
     0
174
     0
175
     0
176
     0
177
     0
178
     0
270
     2
271
     4
272
     4
273
     2
274
     2
340
11
275
     0
280
     0
281
     0
282
     0
283
     1
284
     0
285
     0
286
     0
287
     3
288
     0
  0
ENDTAB
  0
TABLE
  2
BLOCK_RECORD
  5
1
330
0
100
AcDbSymbolTable
 70
     1
  0
BLOCK_RECORD
  5
1F
330
1
100
AcDbSymbolTableRecord
100
AcDbBlockTableRecord
  2
*MODEL_SPACE
  0
BLOCK_RECORD
  5
1B
330
1
100
AcDbSymbolTableRecord
100
AcDbBlockTableRecord
  2
*PAPER_SPACE
  0
ENDTAB
  0
ENDSEC
  0
SECTION
  2
BLOCKS
  0
BLOCK
  5
20
330
1F
100
AcDbEntity
  8
0
100
AcDbBlockBegin
  2
*MODEL_SPACE
 70
     0
 10
0.0
 20
0.0
 30
0.0
  3
*MODEL_SPACE
  1

  0
ENDBLK
  5
21
330
1F
100
AcDbEntity
  8
0
100
AcDbBlockEnd
  0
BLOCK
  5
1C
330
1B
100
AcDbEntity
 67
     1
  8
0
100
AcDbBlockBegin
  2
*PAPER_SPACE
 70
     0
 10
0.0
 20
0.0
 30
0.0
  3
*PAPER_SPACE
  1

  0
ENDBLK
  5
1D
330
1B
100
AcDbEntity
 67
     1
  8
0
100
AcDbBlockEnd
  0
ENDSEC
  0
SECTION
  2
ENTITIES
  0
SPLINE
  5
41
330
1F
100
AcDbEntity
  8
DEFAULT_1
 62
   250
100
AcDbSpline
210
0.0
220
0.0
230
1.0
 70
    24
 71
     3
 72
     8
 73
     4
 74
     0
 42
0.0000000001
 43
0.0000000001
 40
0.0
 40
0.0
 40
0.0
 40
0.0
 40
1.0
 40
1.0
 40
1.0
 40
1.0
 10
-6.253
 20
-17.3021
 30
0.0
 10
-6.253
 20
-17.3021
 30
0.0
 10
-6.253
 20
-22.9734
 30
0.0
 10
-6.253
 20
-22.9734
 30
0.0
  0
SPLINE
  5
42
330
1F
100
AcDbEntity
  8
DEFAULT_1
 62
   250
100
AcDbSpline
210
0.0
220
0.0
230
1.0
 70
    24
 71
     3
 72
     8
 73
     4
 74
     0
 42
0.0000000001
 43
0.0000000001
 40
0.0
 40
0.0
 40
0.0
 40
0.0
 40
1.0
 40
1.0
 40
1.0
 40
1.0
 10
9.9232
 20
-17.3103
 30
0.0
 10
9.9232
 20
-17.3103
 30
0.0
 10
9.9232
 20
-22.9238
 30
0.0
 10
9.9232
 20
-22.9238
 30
0.0
  0
SPLINE
  5
43
330
1F
100
AcDbEntity
  8
DEFAULT_1
 62
   250
100
AcDbSpline
210
0.0
220
0.0
230
1.0
 70
    24
 71
     3
 72
     8
 73
     4
 74
     0
 42
0.0000000001
 43
0.0000000001
 40
0.0
 40
0.0
 40
0.0
 40
0.0
 40
1.0
 40
1.0
 40
1.0
 40
1.0
 10
-5.9032
 20
-22.4574
 30
0.0
 10
-5.9032
 20
-22.4574
 30
0.0
 10
9.0685
 20
-22.4574
 30
0.0
 10
9.0685
 20
-22.4574
 30
0.0
  0
SPLINE
  5
44
330
1F
100
AcDbEntity
  8
DEFAULT_1
 62
   250
100
AcDbSpline
210
0.0
220
0.0
230
1.0
 70
    24
 71
     3
 72
     8
 73
     4
 74
     0
 42
0.0000000001
 43
0.0000000001
 40
0.0
 40
0.0
 40
0.0
 40
0.0
 40
1.0
 40
1.0
 40
1.0
 40
1.0
 10
-6.4217
 20
-17.3374
 30
0.0
 10
-6.4217
 20
-17.3374
 30
0.0
 10
-16.7559
 20
-17.3374
 30
0.0
 10
-16.7559
 20
-17.3374
 30
0.0
  0
SPLINE
  5
45
330
1F
100
AcDbEntity
  8
DEFAULT_1
 62
   250
100
AcDbSpline
210
0.0
220
0.0
230
1.0
 70
    24
 71
     3
 72
     8
 73
     4
 74
     0
 42
0.0000000001
 43
0.0000000001
 40
0.0
 40
0.0
 40
0.0
 40
0.0
 40
1.0
 40
1.0
 40
1.0
 40
1.0
 10
-6.5702
 20
-13.1081
 30
0.0
 10
-6.5702
 20
-13.1081
 30
0.0
 10
-11.0354
 20
-13.1081
 30
0.0
 10
-11.0354
 20
-13.1081
 30
0.0
  0
SPLINE
  5
46
330
1F
100
AcDbEntity
  8
DEFAULT_1
 62
   250
100
AcDbSpline
210
0.0
220
0.0
230
1.0
 70
    24
 71
     3
 72
     8
 73
     4
 74
     0
 42
0.0000000001
 43
0.0000000001
 40
0.0
 40
0.0
 40
0.0
 40
0.0
 40
1.0
 40
1.0
 40
1.0
 40
1.0
 10
-10.6088
 20
-21.6368
 30
0.0
 10
-10.6088
 20
-21.6368
 30
0.0
 10
-10.6088
 20
-8.6265
 30
0.0
 10
-10.6088
 20
-8.6265
 30
0.0
  0
SPLINE
  5
47
330
1F
100
AcDbEntity
  8
DEFAULT_1
 62
   250
100
AcDbSpline
210
0.0
220
0.0
230
1.0
 70
    24
 71
     3
 72
     8
 73
     4
 74
     0
 42
0.0000000001
 43
0.0000000001
 40
0.0
 40
0.0
 40
0.0
 40
0.0
 40
1.0
 40
1.0
 40
1.0
 40
1.0
 10
-10.3451
 20
10.0731
 30
0.0
 10
-10.3451
 20
10.0731
 30
0.0
 10
-16.4435
 20
10.0731
 30
0.0
 10
-16.4435
 20
10.0731
 30
0.0
  0
SPLINE
  5
48
330
1F
100
AcDbEntity
  8
DEFAULT_1
 62
   250
100
AcDbSpline
210
0.0
220
0.0
230
1.0
 70
    24
 71
     3
 72
     8
 73
     4
 74
     0
 42
0.0000000001
 43
0.0000000001
 40
0.0
 40
0.0
 40
0.0
 40
0.0
 40
1.0
 40
1.0
 40
1.0
 40
1.0
 10
18.7306
 20
18.3473
 30
0.0
 10
18.7306
 20
18.3473
 30
0.0
 10
14.2619
 20
18.3473
 30
0.0
 10
14.2619
 20
18.3473
 30
0.0
  0
SPLINE
  5
49
330
1F
100
AcDbEntity
  8
DEFAULT_1
 62
   250
100
AcDbSpline
210
0.0
220
0.0
230
1.0
 70
    24
 71
     3
 72
     8
 73
     4
 74
     0
 42
0.0000000001
 43
0.0000000001
 40
0.0
 40
0.0
 40
0.0
 40
0.0
 40
1.0
 40
1.0
 40
1.0
 40
1.0
 10
-15.8916
 20
-17.1204
 30
0.0
 10
-15.8916
 20
-17.1204
 30
0.0
 10
-15.8916
 20
9.1412
 30
0.0
 10
-15.8916
 20
9.1412
 30
0.0
  0
SPLINE
  5
4A
330
1F
100
AcDbEntity
  8
DEFAULT_1
 62
   250
100
AcDbSpline
210
0.0
220
0.0
230
1.0
 70
    24
 71
     3
 72
     8
 73
     4
 74
     0
 42
0.0000000001
 43
0.0000000001
 40
0.0
 40
0.0
 40
0.0
 40
0.0
 40
1.0
 40
1.0
 40
1.0
 40
1.0
 10
-15.8915
 20
22.1886
 30
0.0
 10
-15.8915
 20
22.1886
 30
0.0
 10
-15.8915
 20
9.1412
 30
0.0
 10
-15.8915
 20
9.1412
 30
0.0
  0
SPLINE
  5
4B
330
1F
100
AcDbEntity
  8
DEFAULT_1
 62
   250
100
AcDbSpline
210
0.0
220
0.0
230
1.0
 70
    24
 71
     3
 72
     8
 73
     4
 74
     0
 42
0.0000000001
 43
0.0000000001
 40
0.0
 40
0.0
 40
0.0
 40
0.0
 40
1.0
 40
1.0
 40
1.0
 40
1.0
 10
18.4111
 20
24.7742
 30
0.0
 10
18.4111
 20
24.7742
 30
0.0
 10
18.4111
 20
14.2337
 30
0.0
 10
18.4111
 20
14.2337
 30
0.0
  0
SPLINE
  5
4C
330
1F
100
AcDbEntity
  8
DEFAULT_1
 62
   250
100
AcDbSpline
210
0.0
220
0.0
230
1.0
 70
    24
 71
     3
 72
     8
 73
     4
 74
     0
 42
0.0000000001
 43
0.0000000001
 40
0.0
 40
0.0
 40
0.0
 40
0.0
 40
1.0
 40
1.0
 40
1.0
 40
1.0
 10
-10.6115
 20
18.3414
 30
0.0
 10
-10.6115
 20
18.3414
 30
0.0
 10
-16.3535
 20
18.3414
 30
0.0
 10
-16.3535
 20
18.3414
 30
0.0
  0
SPLINE
  5
4D
330
1F
100
AcDbEntity
  8
DEFAULT_1
 62
   250
100
AcDbSpline
210
0.0
220
0.0
230
1.0
 70
    24
 71
     3
 72
     8
 73
     4
 74
     0
 42
0.0000000001
 43
0.0000000001
 40
0.0
 40
0.0
 40
0.0
 40
0.0
 40
1.0
 40
1.0
 40
1.0
 40
1.0
 10
18.7926
 20
21.0263
 30
0.0
 10
18.7926
 20
21.0263
 30
0.0
 10
14.6088
 20
21.0263
 30
0.0
 10
14.6088
 20
21.0263
 30
0.0
  0
SPLINE
  5
4E
330
1F
100
AcDbEntity
  8
DEFAULT_1
 62
   250
100
AcDbSpline
210
0.0
220
0.0
230
1.0
 70
    24
 71
     3
 72
     8
 73
     4
 74
     0
 42
0.0000000001
 43
0.0000000001
 40
0.0
 40
0.0
 40
0.0
 40
0.0
 40
1.0
 40
1.0
 40
1.0
 40
1.0
 10
-15.8907
 20
19.3094
 30
0.0
 10
-15.8907
 20
19.3094
 30
0.0
 10
-15.8907
 20
20.3239
 30
0.0
 10
-15.8907
 20
20.3239
 30
0.0
  0
SPLINE
  5
4F
330
1F
100
AcDbEntity
  8
DEFAULT_1
 62
   250
100
AcDbSpline
210
0.0
220
0.0
230
1.0
 70
    24
 71
     3
 72
     8
 73
     4
 74
     0
 42
0.0000000001
 43
0.0000000001
 40
0.0
 40
0.0
 40
0.0
 40
0.0
 40
1.0
 40
1.0
 40
1.0
 40
1.0
 10
18.4119
 20
21.8951
 30
0.0
 10
18.4119
 20
21.8951
 30
0.0
 10
18.4119
 20
22.9096
 30
0.0
 10
18.4119
 20
22.9096
 30
0.0
  0
SPLINE
  5
50
330
1F
100
AcDbEntity
  8
DEFAULT_1
 62
   250
100
AcDbSpline
210
0.0
220
0.0
230
1.0
 70
    24
 71
     3
 72
     8
 73
     4
 74
     0
 42
0.0000000001
 43
0.0000000001
 40
0.0
 40
0.0
 40
0.0
 40
0.0
 40
1.0
 40
1.0
 40
1.0
 40
1.0
 10
-6.7767
 20
-13.0429
 30
0.0
 10
-6.7767
 20
-13.0429
 30
0.0
 10
-6.7767
 20
-27.8315
 30
0.0
 10
-6.7767
 20
-27.8315
 30
0.0
  0
SPLINE
  5
51
330
1F
100
AcDbEntity
  8
DEFAULT_1
 62
   250
100
AcDbSpline
210
0.0
220
0.0
230
1.0
 70
    24
 71
     3
 72
     8
 73
     4
 74
     0
 42
0.0000000001
 43
0.0000000001
 40
0.0
 40
0.0
 40
0.0
 40
0.0
 40
1.0
 40
1.0
 40
1.0
 40
1.0
 10
10.4115
 20
-13.0133
 30
0.0
 10
10.4115
 20
-13.0133
 30
0.0
 10
10.4115
 20
-27.8765
 30
0.0
 10
10.4115
 20
-27.8765
 30
0.0
  0
SPLINE
  5
52
330
1F
100
AcDbEntity
  8
DEFAULT_1
 62
   250
100
AcDbSpline
210
0.0
220
0.0
230
1.0
 70
    24
 71
     3
 72
     8
 73
     4
 74
     0
 42
0.0000000001
 43
0.0000000001
 40
0.0
 40
0.0
 40
0.0
 40
0.0
 40
1.0
 40
1.0
 40
1.0
 40
1.0
 10
-6.2757
 20
-27.3892
 30
0.0
 10
-6.2757
 20
-27.3892
 30
0.0
 10
9.1956
 20
-27.3892
 30
0.0
 10
9.1956
 20
-27.3892
 30
0.0
  0
SPLINE
  5
53
330
1F
100
AcDbEntity
  8
DEFAULT_1
 62
   250
100
AcDbSpline
210
0.0
220
0.0
230
1.0
 70
    11
 71
     3
 72
    84
 73
    80
 74
     0
 42
0.0000000001
 43
0.0000000001
 40
0.0
 40
0.0
 40
0.0
 40
0.0
 40
0.0476190476190476
 40
0.0476190476190476
 40
0.0476190476190476
 40
0.0476190476190476
 40
0.0952380952380952
 40
0.0952380952380952
 40
0.0952380952380952
 40
0.0952380952380952
 40
0.1428571428571428
 40
0.1428571428571428
 40
0.1428571428571428
 40
0.1428571428571428
 40
0.1904761904761905
 40
0.1904761904761905
 40
0.1904761904761905
 40
0.1904761904761905
 40
0.2380952380952381
 40
0.2380952380952381
 40
0.2380952380952381
 40
0.2380952380952381
 40
0.2857142857142857
 40
0.2857142857142857
 40
0.2857142857142857
 40
0.2857142857142857
 40
0.3333333333333333
 40
0.3333333333333333
 40
0.3333333333333333
 40
0.3333333333333333
 40
0.3809523809523809
 40
0.3809523809523809
 40
0.3809523809523809
 40
0.3809523809523809
 40
0.4285714285714285
 40
0.4285714285714285
 40
0.4285714285714285
 40
0.4285714285714285
 40
0.4761904761904762
 40
0.4761904761904762
 40
0.4761904761904762
 40
0.4761904761904762
 40
0.5238095238095238
 40
0.5238095238095238
 40
0.5238095238095238
 40
0.5238095238095238
 40
0.5714285714285714
 40
0.5714285714285714
 40
0.5714285714285714
 40
0.5714285714285714
 40
0.6190476190476191
 40
0.6190476190476191
 40
0.6190476190476191
 40
0.6190476190476191
 40
0.6666666666666666
 40
0.6666666666666666
 40
0.6666666666666666
 40
0.6666666666666666
 40
0.7142857142857143
 40
0.7142857142857143
 40
0.7142857142857143
 40
0.7142857142857143
 40
0.7619047619047619
 40
0.7619047619047619
 40
0.7619047619047619
 40
0.7619047619047619
 40
0.8095238095238095
 40
0.8095238095238095
 40
0.8095238095238095
 40
0.8095238095238095
 40
0.8571428571428571
 40
0.8571428571428571
 40
0.8571428571428571
 40
0.8571428571428571
 40
0.9047619047619048
 40
0.9047619047619048
 40
0.9047619047619048
 40
0.9047619047619048
 40
1.0
 40
1.0
 40
1.0
 40
1.0
 10
0.9061
 20
27.6501
 30
0.0
 10
0.9061
 20
27.6501
 30
0.0
 10
1.1375
 20
27.9092
 30
0.0
 10
1.1375
 20
27.9092
 30
0.0
 10
1.1375
 20
27.9092
 30
0.0
 10
1.1375
 20
27.9092
 30
0.0
 10
1.2739
 20
27.7935
 30
0.0
 10
1.2739
 20
27.7935
 30
0.0
 10
1.2739
 20
27.7935
 30
0.0
 10
1.2739
 20
27.7935
 30
0.0
 10
1.0317
 20
27.5207
 30
0.0
 10
1.0317
 20
27.5207
 30
0.0
 10
1.0317
 20
27.5207
 30
0.0
 10
1.1107
 20
27.4031
 30
0.0
 10
1.1638
 20
27.3001
 30
0.0
 10
1.1916
 20
27.2122
 30
0.0
 10
1.1916
 20
27.2122
 30
0.0
 10
1.2283
 20
27.0964
 30
0.0
 10
1.2466
 20
26.9666
 30
0.0
 10
1.2466
 20
26.8236
 30
0.0
 10
1.2466
 20
26.8236
 30
0.0
 10
1.2466
 20
26.6167
 30
0.0
 10
1.2048
 20
26.4323
 30
0.0
 10
1.121
 20
26.271
 30
0.0
 10
1.121
 20
26.271
 30
0.0
 10
1.0373
 20
26.1091
 30
0.0
 10
0.9202
 20
25.9869
 30
0.0
 10
0.7692
 20
25.9041
 30
0.0
 10
0.7692
 20
25.9041
 30
0.0
 10
0.6177
 20
25.8218
 30
0.0
 10
0.4574
 20
25.7804
 30
0.0
 10
0.2876
 20
25.7804
 30
0.0
 10
0.2876
 20
25.7804
 30
0.0
 10
0.1606
 20
25.7804
 30
0.0
 10
0.0458
 20
25.7982
 30
0.0
 10
-0.0572
 20
25.834
 30
0.0
 10
-0.0572
 20
25.834
 30
0.0
 10
-0.1362
 20
25.8617
 30
0.0
 10
-0.2284
 20
25.9144
 30
0.0
 10
-0.3343
 20
25.9925
 30
0.0
 10
-0.3343
 20
25.9925
 30
0.0
 10
-0.3343
 20
25.9925
 30
0.0
 10
-0.5657
 20
25.7333
 30
0.0
 10
-0.5657
 20
25.7333
 30
0.0
 10
-0.5657
 20
25.7333
 30
0.0
 10
-0.5657
 20
25.7333
 30
0.0
 10
-0.7021
 20
25.849
 30
0.0
 10
-0.7021
 20
25.849
 30
0.0
 10
-0.7021
 20
25.849
 30
0.0
 10
-0.7021
 20
25.849
 30
0.0
 10
-0.4594
 20
26.1204
 30
0.0
 10
-0.4594
 20
26.1204
 30
0.0
 10
-0.4594
 20
26.1204
 30
0.0
 10
-0.5497
 20
26.2573
 30
0.0
 10
-0.6099
 20
26.3744
 30
0.0
 10
-0.64
 20
26.4713
 30
0.0
 10
-0.64
 20
26.4713
 30
0.0
 10
-0.6701
 20
26.5682
 30
0.0
 10
-0.6856
 20
26.6849
 30
0.0
 10
-0.6856
 20
26.8208
 30
0.0
 10
-0.6856
 20
26.8208
 30
0.0
 10
-0.6856
 20
27.0282
 30
0.0
 10
-0.6442
 20
27.2131
 30
0.0
 10
-0.5615
 20
27.3754
 30
0.0
 10
-0.5615
 20
27.3754
 30
0.0
 10
-0.4787
 20
27.5377
 30
0.0
 10
-0.363
 20
27.6604
 30
0.0
 10
-0.2134
 20
27.7441
 30
0.0
 10
-0.2134
 20
27.7441
 30
0.0
 10
-0.0643
 20
27.8274
 30
0.0
 10
0.1018
 20
27.8693
 30
0.0
 10
0.2847
 20
27.8693
 30
0.0
 10
0.2847
 20
27.8693
 30
0.0
 10
0.408
 20
27.8693
 30
0.0
 10
0.5157
 20
27.8533
 30
0.0
 10
0.6079
 20
27.8203
 30
0.0
 10
0.6079
 20
27.8203
 30
0.0
 10
0.7001
 20
27.7879
 30
0.0
 10
0.7998
 20
27.731
 30
0.0
 10
0.9061
 20
27.6501
 30
0.0
  0
SPLINE
  5
54
330
1F
100
AcDbEntity
  8
DEFAULT_1
 62
   250
100
AcDbSpline
210
0.0
220
0.0
230
1.0
 70
    11
 71
     3
 72
    32
 73
    28
 74
     0
 42
0.0000000001
 43
0.0000000001
 40
0.0
 40
0.0
 40
0.0
 40
0.0
 40
0.125
 40
0.125
 40
0.125
 40
0.125
 40
0.25
 40
0.25
 40
0.25
 40
0.25
 40
0.375
 40
0.375
 40
0.375
 40
0.375
 40
0.5
 40
0.5
 40
0.5
 40
0.5
 40
0.625
 40
0.625
 40
0.625
 40
0.625
 40
0.75
 40
0.75
 40
0.75
 40
0.75
 40
1.0
 40
1.0
 40
1.0
 40
1.0
 10
0.741
 20
27.4643
 30
0.0
 10
0.6544
 20
27.532
 30
0.0
 10
0.5787
 20
27.5786
 30
0.0
 10
0.5143
 20
27.6035
 30
0.0
 10
0.5143
 20
27.6035
 30
0.0
 10
0.4494
 20
27.628
 30
0.0
 10
0.3732
 20
27.6407
 30
0.0
 10
0.2861
 20
27.6407
 30
0.0
 10
0.2861
 20
27.6407
 30
0.0
 10
0.0848
 20
27.6407
 30
0.0
 10
-0.0812
 20
27.5725
 30
0.0
 10
-0.2129
 20
27.4361
 30
0.0
 10
-0.2129
 20
27.4361
 30
0.0
 10
-0.3442
 20
27.2996
 30
0.0
 10
-0.41
 20
27.096
 30
0.0
 10
-0.41
 20
26.8246
 30
0.0
 10
-0.41
 20
26.8246
 30
0.0
 10
-0.41
 20
26.7183
 30
0.0
 10
-0.3997
 20
26.6237
 30
0.0
 10
-0.3794
 20
26.5409
 30
0.0
 10
-0.3794
 20
26.5409
 30
0.0
 10
-0.3648
 20
26.4793
 30
0.0
 10
-0.3343
 20
26.4036
 30
0.0
 10
-0.2872
 20
26.3138
 30
0.0
 10
-0.2872
 20
26.3138
 30
0.0
 10
-0.2872
 20
26.3138
 30
0.0
 10
0.741
 20
27.4643
 30
0.0
 10
0.741
 20
27.4643
 30
0.0
  0
SPLINE
  5
55
330
1F
100
AcDbEntity
  8
DEFAULT_1
 62
   250
100
AcDbSpline
210
0.0
220
0.0
230
1.0
 70
    11
 71
     3
 72
    28
 73
    24
 74
     0
 42
0.0000000001
 43
0.0000000001
 40
0.0
 40
0.0
 40
0.0
 40
0.0
 40
0.1428571428571428
 40
0.1428571428571428
 40
0.1428571428571428
 40
0.1428571428571428
 40
0.2857142857142857
 40
0.2857142857142857
 40
0.2857142857142857
 40
0.2857142857142857
 40
0.4285714285714285
 40
0.4285714285714285
 40
0.4285714285714285
 40
0.4285714285714285
 40
0.5714285714285714
 40
0.5714285714285714
 40
0.5714285714285714
 40
0.5714285714285714
 40
0.7142857142857143
 40
0.7142857142857143
 40
0.7142857142857143
 40
0.7142857142857143
 40
1.0
 40
1.0
 40
1.0
 40
1.0
 10
0.8539
 20
27.3222
 30
0.0
 10
0.8539
 20
27.3222
 30
0.0
 10
-0.1701
 20
26.1759
 30
0.0
 10
-0.1701
 20
26.1759
 30
0.0
 10
-0.1701
 20
26.1759
 30
0.0
 10
-0.0996
 20
26.1181
 30
0.0
 10
-0.0342
 20
26.0776
 30
0.0
 10
0.0256
 20
26.0546
 30
0.0
 10
0.0256
 20
26.0546
 30
0.0
 10
0.1036
 20
26.024
 30
0.0
 10
0.1883
 20
26.009
 30
0.0
 10
0.2791
 20
26.009
 30
0.0
 10
0.2791
 20
26.009
 30
0.0
 10
0.4795
 20
26.009
 30
0.0
 10
0.6446
 20
26.0795
 30
0.0
 10
0.7753
 20
26.2211
 30
0.0
 10
0.7753
 20
26.2211
 30
0.0
 10
0.9056
 20
26.3627
 30
0.0
 10
0.971
 20
26.5612
 30
0.0
 10
0.971
 20
26.8166
 30
0.0
 10
0.971
 20
26.8166
 30
0.0
 10
0.971
 20
27.0075
 30
0.0
 10
0.932
 20
27.1764
 30
0.0
 10
0.8539
 20
27.3222
 30
0.0
  0
SPLINE
  5
56
330
1F
100
AcDbEntity
  8
DEFAULT_1
 62
   250
100
AcDbSpline
210
0.0
220
0.0
230
1.0
 70
    11
 71
     3
 72
    80
 73
    76
 74
     0
 42
0.0000000001
 43
0.0000000001
 40
0.0
 40
0.0
 40
0.0
 40
0.0
 40
0.05
 40
0.05
 40
0.05
 40
0.05
 40
0.1
 40
0.1
 40
0.1
 40
0.1
 40
0.15
 40
0.15
 40
0.15
 40
0.15
 40
0.2
 40
0.2
 40
0.2
 40
0.2
 40
0.25
 40
0.25
 40
0.25
 40
0.25
 40
0.3
 40
0.3
 40
0.3
 40
0.3
 40
0.35
 40
0.35
 40
0.35
 40
0.35
 40
0.4
 40
0.4
 40
0.4
 40
0.4
 40
0.45
 40
0.45
 40
0.45
 40
0.45
 40
0.5
 40
0.5
 40
0.5
 40
0.5
 40
0.55
 40
0.55
 40
0.55
 40
0.55
 40
0.6
 40
0.6
 40
0.6
 40
0.6
 40
0.65
 40
0.65
 40
0.65
 40
0.65
 40
0.7
 40
0.7
 40
0.7
 40
0.7
 40
0.75
 40
0.75
 40
0.75
 40
0.75
 40
0.8
 40
0.8
 40
0.8
 40
0.8
 40
0.85
 40
0.85
 40
0.85
 40
0.85
 40
0.9
 40
0.9
 40
0.9
 40
0.9
 40
1.0
 40
1.0
 40
1.0
 40
1.0
 10
2.7828
 20
27.3401
 30
0.0
 10
2.7828
 20
27.3401
 30
0.0
 10
2.5364
 20
27.3208
 30
0.0
 10
2.5364
 20
27.3208
 30
0.0
 10
2.5364
 20
27.3208
 30
0.0
 10
2.5143
 20
27.4182
 30
0.0
 10
2.4832
 20
27.4892
 30
0.0
 10
2.4428
 20
27.5329
 30
0.0
 10
2.4428
 20
27.5329
 30
0.0
 10
2.3755
 20
27.604
 30
0.0
 10
2.2927
 20
27.6393
 30
0.0
 10
2.1944
 20
27.6393
 30
0.0
 10
2.1944
 20
27.6393
 30
0.0
 10
2.1154
 20
27.6393
 30
0.0
 10
2.0463
 20
27.6171
 30
0.0
 10
1.9865
 20
27.5729
 30
0.0
 10
1.9865
 20
27.5729
 30
0.0
 10
1.9084
 20
27.516
 30
0.0
 10
1.8468
 20
27.4328
 30
0.0
 10
1.8017
 20
27.3236
 30
0.0
 10
1.8017
 20
27.3236
 30
0.0
 10
1.757
 20
27.2145
 30
0.0
 10
1.7335
 20
27.0588
 30
0.0
 10
1.7316
 20
26.8566
 30
0.0
 10
1.7316
 20
26.8566
 30
0.0
 10
1.7913
 20
26.9473
 30
0.0
 10
1.8642
 20
27.0151
 30
0.0
 10
1.9508
 20
27.0593
 30
0.0
 10
1.9508
 20
27.0593
 30
0.0
 10
2.0368
 20
27.103
 30
0.0
 10
2.1276
 20
27.1251
 30
0.0
 10
2.2222
 20
27.1251
 30
0.0
 10
2.2222
 20
27.1251
 30
0.0
 10
2.3877
 20
27.1251
 30
0.0
 10
2.5284
 20
27.0645
 30
0.0
 10
2.6446
 20
26.9426
 30
0.0
 10
2.6446
 20
26.9426
 30
0.0
 10
2.7607
 20
26.8208
 30
0.0
 10
2.8191
 20
26.6637
 30
0.0
 10
2.8191
 20
26.4709
 30
0.0
 10
2.8191
 20
26.4709
 30
0.0
 10
2.8191
 20
26.3439
 30
0.0
 10
2.7913
 20
26.2263
 30
0.0
 10
2.7367
 20
26.1171
 30
0.0
 10
2.7367
 20
26.1171
 30
0.0
 10
2.6822
 20
26.0085
 30
0.0
 10
2.6069
 20
25.9248
 30
0.0
 10
2.5114
 20
25.8669
 30
0.0
 10
2.5114
 20
25.8669
 30
0.0
 10
2.416
 20
25.8091
 30
0.0
 10
2.3078
 20
25.7804
 30
0.0
 10
2.1864
 20
25.7804
 30
0.0
 10
2.1864
 20
25.7804
 30
0.0
 10
1.9795
 20
25.7804
 30
0.0
 10
1.8111
 20
25.8561
 30
0.0
 10
1.6808
 20
26.0085
 30
0.0
 10
1.6808
 20
26.0085
 30
0.0
 10
1.55
 20
26.1604
 30
0.0
 10
1.4851
 20
26.4111
 30
0.0
 10
1.4851
 20
26.7601
 30
0.0
 10
1.4851
 20
26.7601
 30
0.0
 10
1.4851
 20
27.1505
 30
0.0
 10
1.5571
 20
27.4342
 30
0.0
 10
1.7015
 20
27.6115
 30
0.0
 10
1.7015
 20
27.6115
 30
0.0
 10
1.8271
 20
27.7658
 30
0.0
 10
1.9964
 20
27.8434
 30
0.0
 10
2.2099
 20
27.8434
 30
0.0
 10
2.2099
 20
27.8434
 30
0.0
 10
2.3685
 20
27.8434
 30
0.0
 10
2.4987
 20
27.7987
 30
0.0
 10
2.6003
 20
27.7093
 30
0.0
 10
2.6003
 20
27.7093
 30
0.0
 10
2.7019
 20
27.6204
 30
0.0
 10
2.7626
 20
27.4972
 30
0.0
 10
2.7828
 20
27.3401
 30
0.0
  0
SPLINE
  5
57
330
1F
100
AcDbEntity
  8
DEFAULT_1
 62
   250
100
AcDbSpline
210
0.0
220
0.0
230
1.0
 70
    11
 71
     3
 72
    40
 73
    36
 74
     0
 42
0.0000000001
 43
0.0000000001
 40
0.0
 40
0.0
 40
0.0
 40
0.0
 40
0.1
 40
0.1
 40
0.1
 40
0.1
 40
0.2
 40
0.2
 40
0.2
 40
0.2
 40
0.3
 40
0.3
 40
0.3
 40
0.3
 40
0.4
 40
0.4
 40
0.4
 40
0.4
 40
0.5
 40
0.5
 40
0.5
 40
0.5
 40
0.6
 40
0.6
 40
0.6
 40
0.6
 40
0.7
 40
0.7
 40
0.7
 40
0.7
 40
0.8
 40
0.8
 40
0.8
 40
0.8
 40
1.0
 40
1.0
 40
1.0
 40
1.0
 10
1.7701
 20
26.4695
 30
0.0
 10
1.7701
 20
26.3838
 30
0.0
 10
1.7885
 20
26.302
 30
0.0
 10
1.8247
 20
26.2239
 30
0.0
 10
1.8247
 20
26.2239
 30
0.0
 10
1.8609
 20
26.1458
 30
0.0
 10
1.9117
 20
26.0866
 30
0.0
 10
1.9766
 20
26.0457
 30
0.0
 10
1.9766
 20
26.0457
 30
0.0
 10
2.042
 20
26.0047
 30
0.0
 10
2.1107
 20
25.984
 30
0.0
 10
2.1822
 20
25.984
 30
0.0
 10
2.1822
 20
25.984
 30
0.0
 10
2.2871
 20
25.984
 30
0.0
 10
2.3769
 20
26.0264
 30
0.0
 10
2.4522
 20
26.111
 30
0.0
 10
2.4522
 20
26.111
 30
0.0
 10
2.5274
 20
26.1957
 30
0.0
 10
2.5651
 20
26.3105
 30
0.0
 10
2.5651
 20
26.4553
 30
0.0
 10
2.5651
 20
26.4553
 30
0.0
 10
2.5651
 20
26.595
 30
0.0
 10
2.5279
 20
26.7051
 30
0.0
 10
2.4536
 20
26.7855
 30
0.0
 10
2.4536
 20
26.7855
 30
0.0
 10
2.3793
 20
26.866
 30
0.0
 10
2.2857
 20
26.906
 30
0.0
 10
2.1728
 20
26.906
 30
0.0
 10
2.1728
 20
26.906
 30
0.0
 10
2.0604
 20
26.906
 30
0.0
 10
1.9653
 20
26.866
 30
0.0
 10
1.8873
 20
26.7855
 30
0.0
 10
1.8873
 20
26.7855
 30
0.0
 10
1.8092
 20
26.7051
 30
0.0
 10
1.7701
 20
26.5997
 30
0.0
 10
1.7701
 20
26.4695
 30
0.0
  0
SPLINE
  5
58
330
1F
100
AcDbEntity
  8
DEFAULT_1
 62
   250
100
AcDbSpline
210
0.0
220
0.0
230
1.0
 70
    11
 71
     3
 72
    48
 73
    44
 74
     0
 42
0.0000000001
 43
0.0000000001
 40
0.0
 40
0.0
 40
0.0
 40
0.0
 40
0.0833333333333333
 40
0.0833333333333333
 40
0.0833333333333333
 40
0.0833333333333333
 40
0.1666666666666667
 40
0.1666666666666667
 40
0.1666666666666667
 40
0.1666666666666667
 40
0.25
 40
0.25
 40
0.25
 40
0.25
 40
0.3333333333333333
 40
0.3333333333333333
 40
0.3333333333333333
 40
0.3333333333333333
 40
0.4166666666666667
 40
0.4166666666666667
 40
0.4166666666666667
 40
0.4166666666666667
 40
0.5
 40
0.5
 40
0.5
 40
0.5
 40
0.5833333333333334
 40
0.5833333333333334
 40
0.5833333333333334
 40
0.5833333333333334
 40
0.6666666666666666
 40
0.6666666666666666
 40
0.6666666666666666
 40
0.6666666666666666
 40
0.75
 40
0.75
 40
0.75
 40
0.75
 40
0.8333333333333334
 40
0.8333333333333334
 40
0.8333333333333334
 40
0.8333333333333334
 40
1.0
 40
1.0
 40
1.0
 40
1.0
 10
3.8604
 20
25.8147
 30
0.0
 10
3.8604
 20
25.8147
 30
0.0
 10
3.8604
 20
26.2982
 30
0.0
 10
3.8604
 20
26.2982
 30
0.0
 10
3.8604
 20
26.2982
 30
0.0
 10
3.8604
 20
26.2982
 30
0.0
 10
2.9841
 20
26.2982
 30
0.0
 10
2.9841
 20
26.2982
 30
0.0
 10
2.9841
 20
26.2982
 30
0.0
 10
2.9841
 20
26.2982
 30
0.0
 10
2.9841
 20
26.5259
 30
0.0
 10
2.9841
 20
26.5259
 30
0.0
 10
2.9841
 20
26.5259
 30
0.0
 10
2.9841
 20
26.5259
 30
0.0
 10
3.9061
 20
27.8349
 30
0.0
 10
3.9061
 20
27.8349
 30
0.0
 10
3.9061
 20
27.8349
 30
0.0
 10
3.9061
 20
27.8349
 30
0.0
 10
4.1088
 20
27.8349
 30
0.0
 10
4.1088
 20
27.8349
 30
0.0
 10
4.1088
 20
27.8349
 30
0.0
 10
4.1088
 20
27.8349
 30
0.0
 10
4.1088
 20
26.5259
 30
0.0
 10
4.1088
 20
26.5259
 30
0.0
 10
4.1088
 20
26.5259
 30
0.0
 10
4.1088
 20
26.5259
 30
0.0
 10
4.3816
 20
26.5259
 30
0.0
 10
4.3816
 20
26.5259
 30
0.0
 10
4.3816
 20
26.5259
 30
0.0
 10
4.3816
 20
26.5259
 30
0.0
 10
4.3816
 20
26.2982
 30
0.0
 10
4.3816
 20
26.2982
 30
0.0
 10
4.3816
 20
26.2982
 30
0.0
 10
4.3816
 20
26.2982
 30
0.0
 10
4.1088
 20
26.2982
 30
0.0
 10
4.1088
 20
26.2982
 30
0.0
 10
4.1088
 20
26.2982
 30
0.0
 10
4.1088
 20
26.2982
 30
0.0
 10
4.1088
 20
25.8147
 30
0.0
 10
4.1088
 20
25.8147
 30
0.0
 10
4.1088
 20
25.8147
 30
0.0
 10
4.1088
 20
25.8147
 30
0.0
 10
3.8604
 20
25.8147
 30
0.0
 10
3.8604
 20
25.8147
 30
0.0
  0
SPLINE
  5
59
330
1F
100
AcDbEntity
  8
DEFAULT_1
 62
   250
100
AcDbSpline
210
0.0
220
0.0
230
1.0
 70
    11
 71
     3
 72
    16
 73
    12
 74
     0
 42
0.0000000001
 43
0.0000000001
 40
0.0
 40
0.0
 40
0.0
 40
0.0
 40
0.25
 40
0.25
 40
0.25
 40
0.25
 40
0.5
 40
0.5
 40
0.5
 40
0.5
 40
1.0
 40
1.0
 40
1.0
 40
1.0
 10
3.8604
 20
26.5259
 30
0.0
 10
3.8604
 20
26.5259
 30
0.0
 10
3.8604
 20
27.4365
 30
0.0
 10
3.8604
 20
27.4365
 30
0.0
 10
3.8604
 20
27.4365
 30
0.0
 10
3.8604
 20
27.4365
 30
0.0
 10
3.2283
 20
26.5259
 30
0.0
 10
3.2283
 20
26.5259
 30
0.0
 10
3.2283
 20
26.5259
 30
0.0
 10
3.2283
 20
26.5259
 30
0.0
 10
3.8604
 20
26.5259
 30
0.0
 10
3.8604
 20
26.5259
 30
0.0
  0
SPLINE
  5
5A
330
1F
100
AcDbEntity
  8
DEFAULT_1
 62
   250
100
AcDbSpline
210
0.0
220
0.0
230
1.0
 70
    11
 71
     3
 72
    80
 73
    76
 74
     0
 42
0.0000000001
 43
0.0000000001
 40
0.0
 40
0.0
 40
0.0
 40
0.0
 40
0.05
 40
0.05
 40
0.05
 40
0.05
 40
0.1
 40
0.1
 40
0.1
 40
0.1
 40
0.15
 40
0.15
 40
0.15
 40
0.15
 40
0.2
 40
0.2
 40
0.2
 40
0.2
 40
0.25
 40
0.25
 40
0.25
 40
0.25
 40
0.3
 40
0.3
 40
0.3
 40
0.3
 40
0.35
 40
0.35
 40
0.35
 40
0.35
 40
0.4
 40
0.4
 40
0.4
 40
0.4
 40
0.45
 40
0.45
 40
0.45
 40
0.45
 40
0.5
 40
0.5
 40
0.5
 40
0.5
 40
0.55
 40
0.55
 40
0.55
 40
0.55
 40
0.6
 40
0.6
 40
0.6
 40
0.6
 40
0.65
 40
0.65
 40
0.65
 40
0.65
 40
0.7
 40
0.7
 40
0.7
 40
0.7
 40
0.75
 40
0.75
 40
0.75
 40
0.75
 40
0.8
 40
0.8
 40
0.8
 40
0.8
 40
0.85
 40
0.85
 40
0.85
 40
0.85
 40
0.9
 40
0.9
 40
0.9
 40
0.9
 40
1.0
 40
1.0
 40
1.0
 40
1.0
 10
-17.8724
 20
-3.6116
 30
0.0
 10
-17.8724
 20
-3.6116
 30
0.0
 10
-17.8531
 20
-3.858
 30
0.0
 10
-17.8531
 20
-3.858
 30
0.0
 10
-17.8531
 20
-3.858
 30
0.0
 10
-17.9505
 20
-3.8801
 30
0.0
 10
-18.0215
 20
-3.9112
 30
0.0
 10
-18.0652
 20
-3.9516
 30
0.0
 10
-18.0652
 20
-3.9516
 30
0.0
 10
-18.1363
 20
-4.0189
 30
0.0
 10
-18.1716
 20
-4.1017
 30
0.0
 10
-18.1716
 20
-4.2
 30
0.0
 10
-18.1716
 20
-4.2
 30
0.0
 10
-18.1716
 20
-4.279
 30
0.0
 10
-18.1494
 20
-4.3481
 30
0.0
 10
-18.1052
 20
-4.4079
 30
0.0
 10
-18.1052
 20
-4.4079
 30
0.0
 10
-18.0483
 20
-4.486
 30
0.0
 10
-17.9651
 20
-4.5476
 30
0.0
 10
-17.8559
 20
-4.5927
 30
0.0
 10
-17.8559
 20
-4.5927
 30
0.0
 10
-17.7468
 20
-4.6374
 30
0.0
 10
-17.5911
 20
-4.6609
 30
0.0
 10
-17.3889
 20
-4.6628
 30
0.0
 10
-17.3889
 20
-4.6628
 30
0.0
 10
-17.4796
 20
-4.6031
 30
0.0
 10
-17.5474
 20
-4.5302
 30
0.0
 10
-17.5916
 20
-4.4436
 30
0.0
 10
-17.5916
 20
-4.4436
 30
0.0
 10
-17.6353
 20
-4.3576
 30
0.0
 10
-17.6574
 20
-4.2668
 30
0.0
 10
-17.6574
 20
-4.1722
 30
0.0
 10
-17.6574
 20
-4.1722
 30
0.0
 10
-17.6574
 20
-4.0067
 30
0.0
 10
-17.5968
 20
-3.866
 30
0.0
 10
-17.4749
 20
-3.7498
 30
0.0
 10
-17.4749
 20
-3.7498
 30
0.0
 10
-17.3531
 20
-3.6337
 30
0.0
 10
-17.196
 20
-3.5753
 30
0.0
 10
-17.0032
 20
-3.5753
 30
0.0
 10
-17.0032
 20
-3.5753
 30
0.0
 10
-16.8762
 20
-3.5753
 30
0.0
 10
-16.7586
 20
-3.6031
 30
0.0
 10
-16.6494
 20
-3.6577
 30
0.0
 10
-16.6494
 20
-3.6577
 30
0.0
 10
-16.5408
 20
-3.7122
 30
0.0
 10
-16.4571
 20
-3.7875
 30
0.0
 10
-16.3992
 20
-3.883
 30
0.0
 10
-16.3992
 20
-3.883
 30
0.0
 10
-16.3414
 20
-3.9784
 30
0.0
 10
-16.3127
 20
-4.0866
 30
0.0
 10
-16.3127
 20
-4.208
 30
0.0
 10
-16.3127
 20
-4.208
 30
0.0
 10
-16.3127
 20
-4.4149
 30
0.0
 10
-16.3884
 20
-4.5833
 30
0.0
 10
-16.5408
 20
-4.7136
 30
0.0
 10
-16.5408
 20
-4.7136
 30
0.0
 10
-16.6927
 20
-4.8444
 30
0.0
 10
-16.9434
 20
-4.9093
 30
0.0
 10
-17.2924
 20
-4.9093
 30
0.0
 10
-17.2924
 20
-4.9093
 30
0.0
 10
-17.6828
 20
-4.9093
 30
0.0
 10
-17.9665
 20
-4.8373
 30
0.0
 10
-18.1438
 20
-4.6929
 30
0.0
 10
-18.1438
 20
-4.6929
 30
0.0
 10
-18.2981
 20
-4.5673
 30
0.0
 10
-18.3757
 20
-4.398
 30
0.0
 10
-18.3757
 20
-4.1845
 30
0.0
 10
-18.3757
 20
-4.1845
 30
0.0
 10
-18.3757
 20
-4.0259
 30
0.0
 10
-18.331
 20
-3.8957
 30
0.0
 10
-18.2416
 20
-3.7941
 30
0.0
 10
-18.2416
 20
-3.7941
 30
0.0
 10
-18.1527
 20
-3.6925
 30
0.0
 10
-18.0295
 20
-3.6318
 30
0.0
 10
-17.8724
 20
-3.6116
 30
0.0
  0
SPLINE
  5
5B
330
1F
100
AcDbEntity
  8
DEFAULT_1
 62
   250
100
AcDbSpline
210
0.0
220
0.0
230
1.0
 70
    11
 71
     3
 72
    40
 73
    36
 74
     0
 42
0.0000000001
 43
0.0000000001
 40
0.0
 40
0.0
 40
0.0
 40
0.0
 40
0.1
 40
0.1
 40
0.1
 40
0.1
 40
0.2
 40
0.2
 40
0.2
 40
0.2
 40
0.3
 40
0.3
 40
0.3
 40
0.3
 40
0.4
 40
0.4
 40
0.4
 40
0.4
 40
0.5
 40
0.5
 40
0.5
 40
0.5
 40
0.6
 40
0.6
 40
0.6
 40
0.6
 40
0.7
 40
0.7
 40
0.7
 40
0.7
 40
0.8
 40
0.8
 40
0.8
 40
0.8
 40
1.0
 40
1.0
 40
1.0
 40
1.0
 10
-17.0018
 20
-4.6243
 30
0.0
 10
-16.9161
 20
-4.6243
 30
0.0
 10
-16.8343
 20
-4.6059
 30
0.0
 10
-16.7562
 20
-4.5697
 30
0.0
 10
-16.7562
 20
-4.5697
 30
0.0
 10
-16.6781
 20
-4.5335
 30
0.0
 10
-16.6189
 20
-4.4827
 30
0.0
 10
-16.578
 20
-4.4178
 30
0.0
 10
-16.578
 20
-4.4178
 30
0.0
 10
-16.537
 20
-4.3524
 30
0.0
 10
-16.5163
 20
-4.2837
 30
0.0
 10
-16.5163
 20
-4.2122
 30
0.0
 10
-16.5163
 20
-4.2122
 30
0.0
 10
-16.5163
 20
-4.1073
 30
0.0
 10
-16.5587
 20
-4.0175
 30
0.0
 10
-16.6433
 20
-3.9422
 30
0.0
 10
-16.6433
 20
-3.9422
 30
0.0
 10
-16.728
 20
-3.867
 30
0.0
 10
-16.8428
 20
-3.8293
 30
0.0
 10
-16.9876
 20
-3.8293
 30
0.0
 10
-16.9876
 20
-3.8293
 30
0.0
 10
-17.1273
 20
-3.8293
 30
0.0
 10
-17.2374
 20
-3.8665
 30
0.0
 10
-17.3178
 20
-3.9408
 30
0.0
 10
-17.3178
 20
-3.9408
 30
0.0
 10
-17.3983
 20
-4.0151
 30
0.0
 10
-17.4383
 20
-4.1087
 30
0.0
 10
-17.4383
 20
-4.2216
 30
0.0
 10
-17.4383
 20
-4.2216
 30
0.0
 10
-17.4383
 20
-4.334
 30
0.0
 10
-17.3983
 20
-4.4291
 30
0.0
 10
-17.3178
 20
-4.5071
 30
0.0
 10
-17.3178
 20
-4.5071
 30
0.0
 10
-17.2374
 20
-4.5852
 30
0.0
 10
-17.132
 20
-4.6243
 30
0.0
 10
-17.0018
 20
-4.6243
 30
0.0
  0
SPLINE
  5
5C
330
1F
100
AcDbEntity
  8
DEFAULT_1
 62
   250
100
AcDbSpline
210
0.0
220
0.0
230
1.0
 70
    11
 71
     3
 72
    92
 73
    88
 74
     0
 42
0.0000000001
 43
0.0000000001
 40
0.0
 40
0.0
 40
0.0
 40
0.0
 40
0.0434782608695652
 40
0.0434782608695652
 40
0.0434782608695652
 40
0.0434782608695652
 40
0.0869565217391304
 40
0.0869565217391304
 40
0.0869565217391304
 40
0.0869565217391304
 40
0.1304347826086956
 40
0.1304347826086956
 40
0.1304347826086956
 40
0.1304347826086956
 40
0.1739130434782609
 40
0.1739130434782609
 40
0.1739130434782609
 40
0.1739130434782609
 40
0.2173913043478261
 40
0.2173913043478261
 40
0.2173913043478261
 40
0.2173913043478261
 40
0.2608695652173913
 40
0.2608695652173913
 40
0.2608695652173913
 40
0.2608695652173913
 40
0.3043478260869565
 40
0.3043478260869565
 40
0.3043478260869565
 40
0.3043478260869565
 40
0.3478260869565217
 40
0.3478260869565217
 40
0.3478260869565217
 40
0.3478260869565217
 40
0.391304347826087
 40
0.391304347826087
 40
0.391304347826087
 40
0.391304347826087
 40
0.4347826086956522
 40
0.4347826086956522
 40
0.4347826086956522
 40
0.4347826086956522
 40
0.4782608695652174
 40
0.4782608695652174
 40
0.4782608695652174
 40
0.4782608695652174
 40
0.5217391304347826
 40
0.5217391304347826
 40
0.5217391304347826
 40
0.5217391304347826
 40
0.5652173913043478
 40
0.5652173913043478
 40
0.5652173913043478
 40
0.5652173913043478
 40
0.6086956521739131
 40
0.6086956521739131
 40
0.6086956521739131
 40
0.6086956521739131
 40
0.6521739130434783
 40
0.6521739130434783
 40
0.6521739130434783
 40
0.6521739130434783
 40
0.6956521739130435
 40
0.6956521739130435
 40
0.6956521739130435
 40
0.6956521739130435
 40
0.7391304347826086
 40
0.7391304347826086
 40
0.7391304347826086
 40
0.7391304347826086
 40
0.782608695652174
 40
0.782608695652174
 40
0.782608695652174
 40
0.782608695652174
 40
0.8260869565217391
 40
0.8260869565217391
 40
0.8260869565217391
 40
0.8260869565217391
 40
0.8695652173913043
 40
0.8695652173913043
 40
0.8695652173913043
 40
0.8695652173913043
 40
0.9130434782608695
 40
0.9130434782608695
 40
0.9130434782608695
 40
0.9130434782608695
 40
1.0
 40
1.0
 40
1.0
 40
1.0
 10
-16.8141
 20
-3.2917
 30
0.0
 10
-16.8141
 20
-3.2917
 30
0.0
 10
-16.8362
 20
-3.0532
 30
0.0
 10
-16.8362
 20
-3.0532
 30
0.0
 10
-16.8362
 20
-3.0532
 30
0.0
 10
-16.7242
 20
-3.033
 30
0.0
 10
-16.6429
 20
-2.9944
 30
0.0
 10
-16.5921
 20
-2.9375
 30
0.0
 10
-16.5921
 20
-2.9375
 30
0.0
 10
-16.5417
 20
-2.8806
 30
0.0
 10
-16.5163
 20
-2.8077
 30
0.0
 10
-16.5163
 20
-2.7183
 30
0.0
 10
-16.5163
 20
-2.7183
 30
0.0
 10
-16.5163
 20
-2.6421
 30
0.0
 10
-16.5337
 20
-2.5754
 30
0.0
 10
-16.569
 20
-2.518
 30
0.0
 10
-16.569
 20
-2.518
 30
0.0
 10
-16.6038
 20
-2.4606
 30
0.0
 10
-16.6504
 20
-2.4135
 30
0.0
 10
-16.7087
 20
-2.3769
 30
0.0
 10
-16.7087
 20
-2.3769
 30
0.0
 10
-16.767
 20
-2.3397
 30
0.0
 10
-16.8461
 20
-2.3091
 30
0.0
 10
-16.9448
 20
-2.2842
 30
0.0
 10
-16.9448
 20
-2.2842
 30
0.0
 10
-17.0441
 20
-2.2597
 30
0.0
 10
-17.1452
 20
-2.247
 30
0.0
 10
-17.2482
 20
-2.247
 30
0.0
 10
-17.2482
 20
-2.247
 30
0.0
 10
-17.259
 20
-2.247
 30
0.0
 10
-17.276
 20
-2.2475
 30
0.0
 10
-17.2976
 20
-2.2484
 30
0.0
 10
-17.2976
 20
-2.2484
 30
0.0
 10
-17.2191
 20
-2.2983
 30
0.0
 10
-17.1546
 20
-2.366
 30
0.0
 10
-17.1057
 20
-2.4516
 30
0.0
 10
-17.1057
 20
-2.4516
 30
0.0
 10
-17.0563
 20
-2.5377
 30
0.0
 10
-17.0319
 20
-2.6309
 30
0.0
 10
-17.0319
 20
-2.7306
 30
0.0
 10
-17.0319
 20
-2.7306
 30
0.0
 10
-17.0319
 20
-2.898
 30
0.0
 10
-17.0925
 20
-3.0396
 30
0.0
 10
-17.2139
 20
-3.1553
 30
0.0
 10
-17.2139
 20
-3.1553
 30
0.0
 10
-17.3352
 20
-3.271
 30
0.0
 10
-17.4947
 20
-3.3289
 30
0.0
 10
-17.6932
 20
-3.3289
 30
0.0
 10
-17.6932
 20
-3.3289
 30
0.0
 10
-17.8983
 20
-3.3289
 30
0.0
 10
-18.0629
 20
-3.2687
 30
0.0
 10
-18.188
 20
-3.1478
 30
0.0
 10
-18.188
 20
-3.1478
 30
0.0
 10
-18.3131
 20
-3.0269
 30
0.0
 10
-18.3757
 20
-2.8754
 30
0.0
 10
-18.3757
 20
-2.6934
 30
0.0
 10
-18.3757
 20
-2.6934
 30
0.0
 10
-18.3757
 20
-2.5622
 30
0.0
 10
-18.3399
 20
-2.4422
 30
0.0
 10
-18.2694
 20
-2.3331
 30
0.0
 10
-18.2694
 20
-2.3331
 30
0.0
 10
-18.1988
 20
-2.2245
 30
0.0
 10
-18.0977
 20
-2.1417
 30
0.0
 10
-17.9669
 20
-2.0852
 30
0.0
 10
-17.9669
 20
-2.0852
 30
0.0
 10
-17.8362
 20
-2.0288
 30
0.0
 10
-17.6466
 20
-2.0006
 30
0.0
 10
-17.3983
 20
-2.0006
 30
0.0
 10
-17.3983
 20
-2.0006
 30
0.0
 10
-17.1405
 20
-2.0006
 30
0.0
 10
-16.935
 20
-2.0283
 30
0.0
 10
-16.7816
 20
-2.0843
 30
0.0
 10
-16.7816
 20
-2.0843
 30
0.0
 10
-16.6287
 20
-2.1407
 30
0.0
 10
-16.5126
 20
-2.224
 30
0.0
 10
-16.4326
 20
-2.3345
 30
0.0
 10
-16.4326
 20
-2.3345
 30
0.0
 10
-16.3526
 20
-2.4455
 30
0.0
 10
-16.3127
 20
-2.5749
 30
0.0
 10
-16.3127
 20
-2.724
 30
0.0
 10
-16.3127
 20
-2.724
 30
0.0
 10
-16.3127
 20
-2.882
 30
0.0
 10
-16.3564
 20
-3.0109
 30
0.0
 10
-16.4444
 20
-3.1111
 30
0.0
 10
-16.4444
 20
-3.1111
 30
0.0
 10
-16.5319
 20
-3.2113
 30
0.0
 10
-16.6551
 20
-3.2715
 30
0.0
 10
-16.8141
 20
-3.2917
 30
0.0
  0
SPLINE
  5
5D
330
1F
100
AcDbEntity
  8
DEFAULT_1
 62
   250
100
AcDbSpline
210
0.0
220
0.0
230
1.0
 70
    11
 71
     3
 72
    36
 73
    32
 74
     0
 42
0.0000000001
 43
0.0000000001
 40
0.0
 40
0.0
 40
0.0
 40
0.0
 40
0.1111111111111111
 40
0.1111111111111111
 40
0.1111111111111111
 40
0.1111111111111111
 40
0.2222222222222222
 40
0.2222222222222222
 40
0.2222222222222222
 40
0.2222222222222222
 40
0.3333333333333333
 40
0.3333333333333333
 40
0.3333333333333333
 40
0.3333333333333333
 40
0.4444444444444444
 40
0.4444444444444444
 40
0.4444444444444444
 40
0.4444444444444444
 40
0.5555555555555556
 40
0.5555555555555556
 40
0.5555555555555556
 40
0.5555555555555556
 40
0.6666666666666666
 40
0.6666666666666666
 40
0.6666666666666666
 40
0.6666666666666666
 40
0.7777777777777778
 40
0.7777777777777778
 40
0.7777777777777778
 40
0.7777777777777778
 40
1.0
 40
1.0
 40
1.0
 40
1.0
 10
-17.7059
 20
-2.2762
 30
0.0
 10
-17.8479
 20
-2.2762
 30
0.0
 10
-17.9613
 20
-2.3138
 30
0.0
 10
-18.0446
 20
-2.3896
 30
0.0
 10
-18.0446
 20
-2.3896
 30
0.0
 10
-18.1283
 20
-2.4658
 30
0.0
 10
-18.1701
 20
-2.5565
 30
0.0
 10
-18.1701
 20
-2.6633
 30
0.0
 10
-18.1701
 20
-2.6633
 30
0.0
 10
-18.1701
 20
-2.7734
 30
0.0
 10
-18.125
 20
-2.8693
 30
0.0
 10
-18.0351
 20
-2.9512
 30
0.0
 10
-18.0351
 20
-2.9512
 30
0.0
 10
-17.9448
 20
-3.033
 30
0.0
 10
-17.8282
 20
-3.0739
 30
0.0
 10
-17.6852
 20
-3.0739
 30
0.0
 10
-17.6852
 20
-3.0739
 30
0.0
 10
-17.5563
 20
-3.0739
 30
0.0
 10
-17.4519
 20
-3.0349
 30
0.0
 10
-17.3715
 20
-2.9573
 30
0.0
 10
-17.3715
 20
-2.9573
 30
0.0
 10
-17.291
 20
-2.8797
 30
0.0
 10
-17.251
 20
-2.7842
 30
0.0
 10
-17.251
 20
-2.6704
 30
0.0
 10
-17.251
 20
-2.6704
 30
0.0
 10
-17.251
 20
-2.5551
 30
0.0
 10
-17.291
 20
-2.4611
 30
0.0
 10
-17.3715
 20
-2.3872
 30
0.0
 10
-17.3715
 20
-2.3872
 30
0.0
 10
-17.4519
 20
-2.3129
 30
0.0
 10
-17.5634
 20
-2.2762
 30
0.0
 10
-17.7059
 20
-2.2762
 30
0.0
  0
SPLINE
  5
5E
330
1F
100
AcDbEntity
  8
DEFAULT_1
 62
   250
100
AcDbSpline
210
0.0
220
0.0
230
1.0
 70
    11
 71
     3
 72
    20
 73
    16
 74
     0
 42
0.0000000001
 43
0.0000000001
 40
0.0
 40
0.0
 40
0.0
 40
0.0
 40
0.2
 40
0.2
 40
0.2
 40
0.2
 40
0.4
 40
0.4
 40
0.4
 40
0.4
 40
0.6
 40
0.6
 40
0.6
 40
0.6
 40
1.0
 40
1.0
 40
1.0
 40
1.0
 10
6.8405
 20
-21.9852
 30
0.0
 10
6.8405
 20
-21.9852
 30
0.0
 10
9.8406
 20
-22.4086
 30
0.0
 10
9.8406
 20
-22.4086
 30
0.0
 10
9.8406
 20
-22.4086
 30
0.0
 10
9.8406
 20
-22.4086
 30
0.0
 10
9.8406
 20
-22.5026
 30
0.0
 10
9.8406
 20
-22.5026
 30
0.0
 10
9.8406
 20
-22.5026
 30
0.0
 10
9.8406
 20
-22.5026
 30
0.0
 10
6.8405
 20
-22.9541
 30
0.0
 10
6.8405
 20
-22.9541
 30
0.0
 10
6.8405
 20
-22.9541
 30
0.0
 10
6.8405
 20
-22.9541
 30
0.0
 10
6.8405
 20
-21.9852
 30
0.0
 10
6.8405
 20
-21.9852
 30
0.0
  0
SPLINE
  5
5F
330
1F
100
AcDbEntity
  8
DEFAULT_1
 62
   250
100
AcDbSpline
210
0.0
220
0.0
230
1.0
 70
    11
 71
     3
 72
    20
 73
    16
 74
     0
 42
0.0000000001
 43
0.0000000001
 40
0.0
 40
0.0
 40
0.0
 40
0.0
 40
0.2
 40
0.2
 40
0.2
 40
0.2
 40
0.4
 40
0.4
 40
0.4
 40
0.4
 40
0.6
 40
0.6
 40
0.6
 40
0.6
 40
1.0
 40
1.0
 40
1.0
 40
1.0
 10
-3.0833
 20
-22.9485
 30
0.0
 10
-3.0833
 20
-22.9485
 30
0.0
 10
-6.0833
 20
-22.5251
 30
0.0
 10
-6.0833
 20
-22.5251
 30
0.0
 10
-6.0833
 20
-22.5251
 30
0.0
 10
-6.0833
 20
-22.5251
 30
0.0
 10
-6.0833
 20
-22.4311
 30
0.0
 10
-6.0833
 20
-22.4311
 30
0.0
 10
-6.0833
 20
-22.4311
 30
0.0
 10
-6.0833
 20
-22.4311
 30
0.0
 10
-3.0833
 20
-21.9796
 30
0.0
 10
-3.0833
 20
-21.9796
 30
0.0
 10
-3.0833
 20
-21.9796
 30
0.0
 10
-3.0833
 20
-21.9796
 30
0.0
 10
-3.0833
 20
-22.9485
 30
0.0
 10
-3.0833
 20
-22.9485
 30
0.0
  0
SPLINE
  5
60
330
1F
100
AcDbEntity
  8
DEFAULT_1
 62
   250
100
AcDbSpline
210
0.0
220
0.0
230
1.0
 70
    11
 71
     3
 72
   120
 73
   116
 74
     0
 42
0.0000000001
 43
0.0000000001
 40
0.0
 40
0.0
 40
0.0
 40
0.0
 40
0.0333333333333333
 40
0.0333333333333333
 40
0.0333333333333333
 40
0.0333333333333333
 40
0.0666666666666667
 40
0.0666666666666667
 40
0.0666666666666667
 40
0.0666666666666667
 40
0.1
 40
0.1
 40
0.1
 40
0.1
 40
0.1333333333333333
 40
0.1333333333333333
 40
0.1333333333333333
 40
0.1333333333333333
 40
0.1666666666666667
 40
0.1666666666666667
 40
0.1666666666666667
 40
0.1666666666666667
 40
0.2
 40
0.2
 40
0.2
 40
0.2
 40
0.2333333333333333
 40
0.2333333333333333
 40
0.2333333333333333
 40
0.2333333333333333
 40
0.2666666666666667
 40
0.2666666666666667
 40
0.2666666666666667
 40
0.2666666666666667
 40
0.3
 40
0.3
 40
0.3
 40
0.3
 40
0.3333333333333333
 40
0.3333333333333333
 40
0.3333333333333333
 40
0.3333333333333333
 40
0.3666666666666666
 40
0.3666666666666666
 40
0.3666666666666666
 40
0.3666666666666666
 40
0.4
 40
0.4
 40
0.4
 40
0.4
 40
0.4333333333333333
 40
0.4333333333333333
 40
0.4333333333333333
 40
0.4333333333333333
 40
0.4666666666666667
 40
0.4666666666666667
 40
0.4666666666666667
 40
0.4666666666666667
 40
0.5
 40
0.5
 40
0.5
 40
0.5
 40
0.5333333333333333
 40
0.5333333333333333
 40
0.5333333333333333
 40
0.5333333333333333
 40
0.5666666666666667
 40
0.5666666666666667
 40
0.5666666666666667
 40
0.5666666666666667
 40
0.6
 40
0.6
 40
0.6
 40
0.6
 40
0.6333333333333333
 40
0.6333333333333333
 40
0.6333333333333333
 40
0.6333333333333333
 40
0.6666666666666666
 40
0.6666666666666666
 40
0.6666666666666666
 40
0.6666666666666666
 40
0.7
 40
0.7
 40
0.7
 40
0.7
 40
0.7333333333333333
 40
0.7333333333333333
 40
0.7333333333333333
 40
0.7333333333333333
 40
0.7666666666666667
 40
0.7666666666666667
 40
0.7666666666666667
 40
0.7666666666666667
 40
0.8
 40
0.8
 40
0.8
 40
0.8
 40
0.8333333333333334
 40
0.8333333333333334
 40
0.8333333333333334
 40
0.8333333333333334
 40
0.8666666666666667
 40
0.8666666666666667
 40
0.8666666666666667
 40
0.8666666666666667
 40
0.9
 40
0.9
 40
0.9
 40
0.9
 40
0.9333333333333333
 40
0.9333333333333333
 40
0.9333333333333333
 40
0.9333333333333333
 40
1.0
 40
1.0
 40
1.0
 40
1.0
 10
-0.6483
 20
-21.2474
 30
0.0
 10
-0.6483
 20
-21.2474
 30
0.0
 10
-0.6483
 20
-21.0108
 30
0.0
 10
-0.6483
 20
-21.0108
 30
0.0
 10
-0.6483
 20
-21.0108
 30
0.0
 10
-0.6483
 20
-21.0108
 30
0.0
 10
0.2073
 20
-21.0094
 30
0.0
 10
0.2073
 20
-21.0094
 30
0.0
 10
0.2073
 20
-21.0094
 30
0.0
 10
0.2073
 20
-21.0094
 30
0.0
 10
0.2073
 20
-21.7587
 30
0.0
 10
0.2073
 20
-21.7587
 30
0.0
 10
0.2073
 20
-21.7587
 30
0.0
 10
0.0761
 20
-21.8636
 30
0.0
 10
-0.0594
 20
-21.9422
 30
0.0
 10
-0.1991
 20
-21.9953
 30
0.0
 10
-0.1991
 20
-21.9953
 30
0.0
 10
-0.3388
 20
-22.048
 30
0.0
 10
-0.4822
 20
-22.0743
 30
0.0
 10
-0.629
 20
-22.0743
 30
0.0
 10
-0.629
 20
-22.0743
 30
0.0
 10
-0.8275
 20
-22.0743
 30
0.0
 10
-1.0081
 20
-22.032
 30
0.0
 10
-1.1699
 20
-21.9469
 30
0.0
 10
-1.1699
 20
-21.9469
 30
0.0
 10
-1.3322
 20
-21.8622
 30
0.0
 10
-1.4545
 20
-21.739
 30
0.0
 10
-1.5373
 20
-21.5786
 30
0.0
 10
-1.5373
 20
-21.5786
 30
0.0
 10
-1.6201
 20
-21.4177
 30
0.0
 10
-1.6615
 20
-21.238
 30
0.0
 10
-1.6615
 20
-21.0395
 30
0.0
 10
-1.6615
 20
-21.0395
 30
0.0
 10
-1.6615
 20
-20.8429
 30
0.0
 10
-1.6201
 20
-20.6595
 30
0.0
 10
-1.5377
 20
-20.4892
 30
0.0
 10
-1.5377
 20
-20.4892
 30
0.0
 10
-1.4559
 20
-20.3185
 30
0.0
 10
-1.3374
 20
-20.1919
 30
0.0
 10
-1.1831
 20
-20.1091
 30
0.0
 10
-1.1831
 20
-20.1091
 30
0.0
 10
-1.0288
 20
-20.0268
 30
0.0
 10
-0.851
 20
-19.9854
 30
0.0
 10
-0.6497
 20
-19.9854
 30
0.0
 10
-0.6497
 20
-19.9854
 30
0.0
 10
-0.5039
 20
-19.9854
 30
0.0
 10
-0.3717
 20
-20.009
 30
0.0
 10
-0.2536
 20
-20.0565
 30
0.0
 10
-0.2536
 20
-20.0565
 30
0.0
 10
-0.1356
 20
-20.1035
 30
0.0
 10
-0.0429
 20
-20.1694
 30
0.0
 10
0.0239
 20
-20.254
 30
0.0
 10
0.0239
 20
-20.254
 30
0.0
 10
0.0911
 20
-20.3387
 30
0.0
 10
0.1419
 20
-20.4487
 30
0.0
 10
0.1772
 20
-20.5847
 30
0.0
 10
0.1772
 20
-20.5847
 30
0.0
 10
0.1772
 20
-20.5847
 30
0.0
 10
-0.0641
 20
-20.651
 30
0.0
 10
-0.0641
 20
-20.651
 30
0.0
 10
-0.0641
 20
-20.651
 30
0.0
 10
-0.0947
 20
-20.548
 30
0.0
 10
-0.1323
 20
-20.4671
 30
0.0
 10
-0.177
 20
-20.4083
 30
0.0
 10
-0.177
 20
-20.4083
 30
0.0
 10
-0.2221
 20
-20.3495
 30
0.0
 10
-0.2866
 20
-20.3025
 30
0.0
 10
-0.3703
 20
-20.2672
 30
0.0
 10
-0.3703
 20
-20.2672
 30
0.0
 10
-0.4536
 20
-20.2319
 30
0.0
 10
-0.5467
 20
-20.214
 30
0.0
 10
-0.6483
 20
-20.214
 30
0.0
 10
-0.6483
 20
-20.214
 30
0.0
 10
-0.7706
 20
-20.214
 30
0.0
 10
-0.8764
 20
-20.2329
 30
0.0
 10
-0.9653
 20
-20.27
 30
0.0
 10
-0.9653
 20
-20.27
 30
0.0
 10
-1.0547
 20
-20.3072
 30
0.0
 10
-1.1262
 20
-20.3561
 30
0.0
 10
-1.1812
 20
-20.4168
 30
0.0
 10
-1.1812
 20
-20.4168
 30
0.0
 10
-1.2358
 20
-20.4774
 30
0.0
 10
-1.2781
 20
-20.5438
 30
0.0
 10
-1.3087
 20
-20.6167
 30
0.0
 10
-1.3087
 20
-20.6167
 30
0.0
 10
-1.3599
 20
-20.7413
 30
0.0
 10
-1.3858
 20
-20.8768
 30
0.0
 10
-1.3858
 20
-21.0231
 30
0.0
 10
-1.3858
 20
-21.0231
 30
0.0
 10
-1.3858
 20
-21.2032
 30
0.0
 10
-1.3548
 20
-21.3537
 30
0.0
 10
-1.2927
 20
-21.4751
 30
0.0
 10
-1.2927
 20
-21.4751
 30
0.0
 10
-1.2306
 20
-21.5964
 30
0.0
 10
-1.1403
 20
-21.6863
 30
0.0
 10
-1.0218
 20
-21.7451
 30
0.0
 10
-1.0218
 20
-21.7451
 30
0.0
 10
-0.9032
 20
-21.8039
 30
0.0
 10
-0.7776
 20
-21.8335
 30
0.0
 10
-0.6445
 20
-21.8335
 30
0.0
 10
-0.6445
 20
-21.8335
 30
0.0
 10
-0.5283
 20
-21.8335
 30
0.0
 10
-0.4155
 20
-21.8109
 30
0.0
 10
-0.3054
 20
-21.7662
 30
0.0
 10
-0.3054
 20
-21.7662
 30
0.0
 10
-0.1948
 20
-21.722
 30
0.0
 10
-0.1116
 20
-21.6745
 30
0.0
 10
-0.0547
 20
-21.6237
 30
0.0
 10
-0.0547
 20
-21.6237
 30
0.0
 10
-0.0547
 20
-21.6237
 30
0.0
 10
-0.0547
 20
-21.2474
 30
0.0
 10
-0.0547
 20
-21.2474
 30
0.0
 10
-0.0547
 20
-21.2474
 30
0.0
 10
-0.0547
 20
-21.2474
 30
0.0
 10
-0.6483
 20
-21.2474
 30
0.0
 10
-0.6483
 20
-21.2474
 30
0.0
  0
SPLINE
  5
61
330
1F
100
AcDbEntity
  8
DEFAULT_1
 62
   250
100
AcDbSpline
210
0.0
220
0.0
230
1.0
 70
    11
 71
     3
 72
    92
 73
    88
 74
     0
 42
0.0000000001
 43
0.0000000001
 40
0.0
 40
0.0
 40
0.0
 40
0.0
 40
0.0434782608695652
 40
0.0434782608695652
 40
0.0434782608695652
 40
0.0434782608695652
 40
0.0869565217391304
 40
0.0869565217391304
 40
0.0869565217391304
 40
0.0869565217391304
 40
0.1304347826086956
 40
0.1304347826086956
 40
0.1304347826086956
 40
0.1304347826086956
 40
0.1739130434782609
 40
0.1739130434782609
 40
0.1739130434782609
 40
0.1739130434782609
 40
0.2173913043478261
 40
0.2173913043478261
 40
0.2173913043478261
 40
0.2173913043478261
 40
0.2608695652173913
 40
0.2608695652173913
 40
0.2608695652173913
 40
0.2608695652173913
 40
0.3043478260869565
 40
0.3043478260869565
 40
0.3043478260869565
 40
0.3043478260869565
 40
0.3478260869565217
 40
0.3478260869565217
 40
0.3478260869565217
 40
0.3478260869565217
 40
0.391304347826087
 40
0.391304347826087
 40
0.391304347826087
 40
0.391304347826087
 40
0.4347826086956522
 40
0.4347826086956522
 40
0.4347826086956522
 40
0.4347826086956522
 40
0.4782608695652174
 40
0.4782608695652174
 40
0.4782608695652174
 40
0.4782608695652174
 40
0.5217391304347826
 40
0.5217391304347826
 40
0.5217391304347826
 40
0.5217391304347826
 40
0.5652173913043478
 40
0.5652173913043478
 40
0.5652173913043478
 40
0.5652173913043478
 40
0.6086956521739131
 40
0.6086956521739131
 40
0.6086956521739131
 40
0.6086956521739131
 40
0.6521739130434783
 40
0.6521739130434783
 40
0.6521739130434783
 40
0.6521739130434783
 40
0.6956521739130435
 40
0.6956521739130435
 40
0.6956521739130435
 40
0.6956521739130435
 40
0.7391304347826086
 40
0.7391304347826086
 40
0.7391304347826086
 40
0.7391304347826086
 40
0.782608695652174
 40
0.782608695652174
 40
0.782608695652174
 40
0.782608695652174
 40
0.8260869565217391
 40
0.8260869565217391
 40
0.8260869565217391
 40
0.8260869565217391
 40
0.8695652173913043
 40
0.8695652173913043
 40
0.8695652173913043
 40
0.8695652173913043
 40
0.9130434782608695
 40
0.9130434782608695
 40
0.9130434782608695
 40
0.9130434782608695
 40
1.0
 40
1.0
 40
1.0
 40
1.0
 10
1.2849
 20
-21.5108
 30
0.0
 10
1.2849
 20
-21.5108
 30
0.0
 10
1.5455
 20
-21.4887
 30
0.0
 10
1.5455
 20
-21.4887
 30
0.0
 10
1.5455
 20
-21.4887
 30
0.0
 10
1.5648
 20
-21.6157
 30
0.0
 10
1.6095
 20
-21.7107
 30
0.0
 10
1.6796
 20
-21.7747
 30
0.0
 10
1.6796
 20
-21.7747
 30
0.0
 10
1.7501
 20
-21.8387
 30
0.0
 10
1.8348
 20
-21.8707
 30
0.0
 10
1.934
 20
-21.8707
 30
0.0
 10
1.934
 20
-21.8707
 30
0.0
 10
2.0535
 20
-21.8707
 30
0.0
 10
2.1546
 20
-21.8255
 30
0.0
 10
2.2369
 20
-21.7357
 30
0.0
 10
2.2369
 20
-21.7357
 30
0.0
 10
2.3197
 20
-21.6454
 30
0.0
 10
2.3611
 20
-21.5259
 30
0.0
 10
2.3611
 20
-21.3773
 30
0.0
 10
2.3611
 20
-21.3773
 30
0.0
 10
2.3611
 20
-21.2357
 30
0.0
 10
2.3216
 20
-21.1242
 30
0.0
 10
2.2421
 20
-21.0424
 30
0.0
 10
2.2421
 20
-21.0424
 30
0.0
 10
2.1626
 20
-20.9605
 30
0.0
 10
2.0587
 20
-20.9196
 30
0.0
 10
1.9298
 20
-20.9196
 30
0.0
 10
1.9298
 20
-20.9196
 30
0.0
 10
1.8498
 20
-20.9196
 30
0.0
 10
1.7779
 20
-20.9379
 30
0.0
 10
1.7134
 20
-20.9741
 30
0.0
 10
1.7134
 20
-20.9741
 30
0.0
 10
1.649
 20
-21.0104
 30
0.0
 10
1.5987
 20
-21.0574
 30
0.0
 10
1.562
 20
-21.1153
 30
0.0
 10
1.562
 20
-21.1153
 30
0.0
 10
1.562
 20
-21.1153
 30
0.0
 10
1.3291
 20
-21.0852
 30
0.0
 10
1.3291
 20
-21.0852
 30
0.0
 10
1.3291
 20
-21.0852
 30
0.0
 10
1.3291
 20
-21.0852
 30
0.0
 10
1.5248
 20
-20.0475
 30
0.0
 10
1.5248
 20
-20.0475
 30
0.0
 10
1.5248
 20
-20.0475
 30
0.0
 10
1.5248
 20
-20.0475
 30
0.0
 10
2.5295
 20
-20.0475
 30
0.0
 10
2.5295
 20
-20.0475
 30
0.0
 10
2.5295
 20
-20.0475
 30
0.0
 10
2.5295
 20
-20.0475
 30
0.0
 10
2.5295
 20
-20.2846
 30
0.0
 10
2.5295
 20
-20.2846
 30
0.0
 10
2.5295
 20
-20.2846
 30
0.0
 10
2.5295
 20
-20.2846
 30
0.0
 10
1.7233
 20
-20.2846
 30
0.0
 10
1.7233
 20
-20.2846
 30
0.0
 10
1.7233
 20
-20.2846
 30
0.0
 10
1.7233
 20
-20.2846
 30
0.0
 10
1.6142
 20
-20.8274
 30
0.0
 10
1.6142
 20
-20.8274
 30
0.0
 10
1.6142
 20
-20.8274
 30
0.0
 10
1.7355
 20
-20.7427
 30
0.0
 10
1.863
 20
-20.7004
 30
0.0
 10
1.9961
 20
-20.7004
 30
0.0
 10
1.9961
 20
-20.7004
 30
0.0
 10
2.1725
 20
-20.7004
 30
0.0
 10
2.3211
 20
-20.7615
 30
0.0
 10
2.4425
 20
-20.8838
 30
0.0
 10
2.4425
 20
-20.8838
 30
0.0
 10
2.5638
 20
-21.0061
 30
0.0
 10
2.6245
 20
-21.1632
 30
0.0
 10
2.6245
 20
-21.3551
 30
0.0
 10
2.6245
 20
-21.3551
 30
0.0
 10
2.6245
 20
-21.5381
 30
0.0
 10
2.5709
 20
-21.6962
 30
0.0
 10
2.4646
 20
-21.8293
 30
0.0
 10
2.4646
 20
-21.8293
 30
0.0
 10
2.3348
 20
-21.9925
 30
0.0
 10
2.1579
 20
-22.0743
 30
0.0
 10
1.934
 20
-22.0743
 30
0.0
 10
1.934
 20
-22.0743
 30
0.0
 10
1.7501
 20
-22.0743
 30
0.0
 10
1.6001
 20
-22.0231
 30
0.0
 10
1.4839
 20
-21.9201
 30
0.0
 10
1.4839
 20
-21.9201
 30
0.0
 10
1.3677
 20
-21.817
 30
0.0
 10
1.3014
 20
-21.6806
 30
0.0
 10
1.2849
 20
-21.5108
 30
0.0
  0
SPLINE
  5
62
330
1F
100
AcDbEntity
  8
DEFAULT_1
 62
   250
100
AcDbSpline
210
0.0
220
0.0
230
1.0
 70
    11
 71
     3
 72
    20
 73
    16
 74
     0
 42
0.0000000001
 43
0.0000000001
 40
0.0
 40
0.0
 40
0.0
 40
0.0
 40
0.2
 40
0.2
 40
0.2
 40
0.2
 40
0.4
 40
0.4
 40
0.4
 40
0.4
 40
0.6
 40
0.6
 40
0.6
 40
0.6
 40
1.0
 40
1.0
 40
1.0
 40
1.0
 10
2.7374
 20
-22.0743
 30
0.0
 10
2.7374
 20
-22.0743
 30
0.0
 10
3.323
 20
-19.9854
 30
0.0
 10
3.323
 20
-19.9854
 30
0.0
 10
3.323
 20
-19.9854
 30
0.0
 10
3.323
 20
-19.9854
 30
0.0
 10
3.5215
 20
-19.9854
 30
0.0
 10
3.5215
 20
-19.9854
 30
0.0
 10
3.5215
 20
-19.9854
 30
0.0
 10
3.5215
 20
-19.9854
 30
0.0
 10
2.9373
 20
-22.0743
 30
0.0
 10
2.9373
 20
-22.0743
 30
0.0
 10
2.9373
 20
-22.0743
 30
0.0
 10
2.9373
 20
-22.0743
 30
0.0
 10
2.7374
 20
-22.0743
 30
0.0
 10
2.7374
 20
-22.0743
 30
0.0
  0
SPLINE
  5
63
330
1F
100
AcDbEntity
  8
DEFAULT_1
 62
   250
100
AcDbSpline
210
0.0
220
0.0
230
1.0
 70
    11
 71
     3
 72
    48
 73
    44
 74
     0
 42
0.0000000001
 43
0.0000000001
 40
0.0
 40
0.0
 40
0.0
 40
0.0
 40
0.0833333333333333
 40
0.0833333333333333
 40
0.0833333333333333
 40
0.0833333333333333
 40
0.1666666666666667
 40
0.1666666666666667
 40
0.1666666666666667
 40
0.1666666666666667
 40
0.25
 40
0.25
 40
0.25
 40
0.25
 40
0.3333333333333333
 40
0.3333333333333333
 40
0.3333333333333333
 40
0.3333333333333333
 40
0.4166666666666667
 40
0.4166666666666667
 40
0.4166666666666667
 40
0.4166666666666667
 40
0.5
 40
0.5
 40
0.5
 40
0.5
 40
0.5833333333333334
 40
0.5833333333333334
 40
0.5833333333333334
 40
0.5833333333333334
 40
0.6666666666666666
 40
0.6666666666666666
 40
0.6666666666666666
 40
0.6666666666666666
 40
0.75
 40
0.75
 40
0.75
 40
0.75
 40
0.8333333333333334
 40
0.8333333333333334
 40
0.8333333333333334
 40
0.8333333333333334
 40
1.0
 40
1.0
 40
1.0
 40
1.0
 10
4.4335
 20
-22.04
 30
0.0
 10
4.4335
 20
-22.04
 30
0.0
 10
4.4335
 20
-21.5565
 30
0.0
 10
4.4335
 20
-21.5565
 30
0.0
 10
4.4335
 20
-21.5565
 30
0.0
 10
4.4335
 20
-21.5565
 30
0.0
 10
3.5572
 20
-21.5565
 30
0.0
 10
3.5572
 20
-21.5565
 30
0.0
 10
3.5572
 20
-21.5565
 30
0.0
 10
3.5572
 20
-21.5565
 30
0.0
 10
3.5572
 20
-21.3288
 30
0.0
 10
3.5572
 20
-21.3288
 30
0.0
 10
3.5572
 20
-21.3288
 30
0.0
 10
3.5572
 20
-21.3288
 30
0.0
 10
4.4792
 20
-20.0198
 30
0.0
 10
4.4792
 20
-20.0198
 30
0.0
 10
4.4792
 20
-20.0198
 30
0.0
 10
4.4792
 20
-20.0198
 30
0.0
 10
4.6819
 20
-20.0198
 30
0.0
 10
4.6819
 20
-20.0198
 30
0.0
 10
4.6819
 20
-20.0198
 30
0.0
 10
4.6819
 20
-20.0198
 30
0.0
 10
4.6819
 20
-21.3288
 30
0.0
 10
4.6819
 20
-21.3288
 30
0.0
 10
4.6819
 20
-21.3288
 30
0.0
 10
4.6819
 20
-21.3288
 30
0.0
 10
4.9547
 20
-21.3288
 30
0.0
 10
4.9547
 20
-21.3288
 30
0.0
 10
4.9547
 20
-21.3288
 30
0.0
 10
4.9547
 20
-21.3288
 30
0.0
 10
4.9547
 20
-21.5565
 30
0.0
 10
4.9547
 20
-21.5565
 30
0.0
 10
4.9547
 20
-21.5565
 30
0.0
 10
4.9547
 20
-21.5565
 30
0.0
 10
4.6819
 20
-21.5565
 30
0.0
 10
4.6819
 20
-21.5565
 30
0.0
 10
4.6819
 20
-21.5565
 30
0.0
 10
4.6819
 20
-21.5565
 30
0.0
 10
4.6819
 20
-22.04
 30
0.0
 10
4.6819
 20
-22.04
 30
0.0
 10
4.6819
 20
-22.04
 30
0.0
 10
4.6819
 20
-22.04
 30
0.0
 10
4.4335
 20
-22.04
 30
0.0
 10
4.4335
 20
-22.04
 30
0.0
  0
SPLINE
  5
64
330
1F
100
AcDbEntity
  8
DEFAULT_1
 62
   250
100
AcDbSpline
210
0.0
220
0.0
230
1.0
 70
    11
 71
     3
 72
    16
 73
    12
 74
     0
 42
0.0000000001
 43
0.0000000001
 40
0.0
 40
0.0
 40
0.0
 40
0.0
 40
0.25
 40
0.25
 40
0.25
 40
0.25
 40
0.5
 40
0.5
 40
0.5
 40
0.5
 40
1.0
 40
1.0
 40
1.0
 40
1.0
 10
4.4335
 20
-21.3288
 30
0.0
 10
4.4335
 20
-21.3288
 30
0.0
 10
4.4335
 20
-20.4182
 30
0.0
 10
4.4335
 20
-20.4182
 30
0.0
 10
4.4335
 20
-20.4182
 30
0.0
 10
4.4335
 20
-20.4182
 30
0.0
 10
3.8014
 20
-21.3288
 30
0.0
 10
3.8014
 20
-21.3288
 30
0.0
 10
3.8014
 20
-21.3288
 30
0.0
 10
3.8014
 20
-21.3288
 30
0.0
 10
4.4335
 20
-21.3288
 30
0.0
 10
4.4335
 20
-21.3288
 30
0.0
  0
SPLINE
  5
65
330
1F
100
AcDbEntity
  8
DEFAULT_1
 62
   250
100
AcDbSpline
210
0.0
220
0.0
230
1.0
 70
    11
 71
     3
 72
    28
 73
    24
 74
     0
 42
0.0000000001
 43
0.0000000001
 40
0.0
 40
0.0
 40
0.0
 40
0.0
 40
0.1428571428571428
 40
0.1428571428571428
 40
0.1428571428571428
 40
0.1428571428571428
 40
0.2857142857142857
 40
0.2857142857142857
 40
0.2857142857142857
 40
0.2857142857142857
 40
0.4285714285714285
 40
0.4285714285714285
 40
0.4285714285714285
 40
0.4285714285714285
 40
0.5714285714285714
 40
0.5714285714285714
 40
0.5714285714285714
 40
0.5714285714285714
 40
0.7142857142857143
 40
0.7142857142857143
 40
0.7142857142857143
 40
0.7142857142857143
 40
1.0
 40
1.0
 40
1.0
 40
1.0
 10
5.2896
 20
-20.7352
 30
0.0
 10
5.2896
 20
-20.7352
 30
0.0
 10
5.2205
 20
-20.3504
 30
0.0
 10
5.2205
 20
-20.3504
 30
0.0
 10
5.2205
 20
-20.3504
 30
0.0
 10
5.2205
 20
-20.3504
 30
0.0
 10
5.2205
 20
-20.0198
 30
0.0
 10
5.2205
 20
-20.0198
 30
0.0
 10
5.2205
 20
-20.0198
 30
0.0
 10
5.2205
 20
-20.0198
 30
0.0
 10
5.5031
 20
-20.0198
 30
0.0
 10
5.5031
 20
-20.0198
 30
0.0
 10
5.5031
 20
-20.0198
 30
0.0
 10
5.5031
 20
-20.0198
 30
0.0
 10
5.5031
 20
-20.3504
 30
0.0
 10
5.5031
 20
-20.3504
 30
0.0
 10
5.5031
 20
-20.3504
 30
0.0
 10
5.5031
 20
-20.3504
 30
0.0
 10
5.4411
 20
-20.7352
 30
0.0
 10
5.4411
 20
-20.7352
 30
0.0
 10
5.4411
 20
-20.7352
 30
0.0
 10
5.4411
 20
-20.7352
 30
0.0
 10
5.2896
 20
-20.7352
 30
0.0
 10
5.2896
 20
-20.7352
 30
0.0
  0
SPLINE
  5
66
330
1F
100
AcDbEntity
  8
DEFAULT_1
 62
   250
100
AcDbSpline
210
0.0
220
0.0
230
1.0
 70
    11
 71
     3
 72
    28
 73
    24
 74
     0
 42
0.0000000001
 43
0.0000000001
 40
0.0
 40
0.0
 40
0.0
 40
0.0
 40
0.1428571428571428
 40
0.1428571428571428
 40
0.1428571428571428
 40
0.1428571428571428
 40
0.2857142857142857
 40
0.2857142857142857
 40
0.2857142857142857
 40
0.2857142857142857
 40
0.4285714285714285
 40
0.4285714285714285
 40
0.4285714285714285
 40
0.4285714285714285
 40
0.5714285714285714
 40
0.5714285714285714
 40
0.5714285714285714
 40
0.5714285714285714
 40
0.7142857142857143
 40
0.7142857142857143
 40
0.7142857142857143
 40
0.7142857142857143
 40
1.0
 40
1.0
 40
1.0
 40
1.0
 10
5.7459
 20
-20.7352
 30
0.0
 10
5.7459
 20
-20.7352
 30
0.0
 10
5.6781
 20
-20.3504
 30
0.0
 10
5.6781
 20
-20.3504
 30
0.0
 10
5.6781
 20
-20.3504
 30
0.0
 10
5.6781
 20
-20.3504
 30
0.0
 10
5.6781
 20
-20.0198
 30
0.0
 10
5.6781
 20
-20.0198
 30
0.0
 10
5.6781
 20
-20.0198
 30
0.0
 10
5.6781
 20
-20.0198
 30
0.0
 10
5.9608
 20
-20.0198
 30
0.0
 10
5.9608
 20
-20.0198
 30
0.0
 10
5.9608
 20
-20.0198
 30
0.0
 10
5.9608
 20
-20.0198
 30
0.0
 10
5.9608
 20
-20.3504
 30
0.0
 10
5.9608
 20
-20.3504
 30
0.0
 10
5.9608
 20
-20.3504
 30
0.0
 10
5.9608
 20
-20.3504
 30
0.0
 10
5.8945
 20
-20.7352
 30
0.0
 10
5.8945
 20
-20.7352
 30
0.0
 10
5.8945
 20
-20.7352
 30
0.0
 10
5.8945
 20
-20.7352
 30
0.0
 10
5.7459
 20
-20.7352
 30
0.0
 10
5.7459
 20
-20.7352
 30
0.0
  0
SPLINE
  5
67
330
1F
100
AcDbEntity
  8
DEFAULT_1
 62
   250
100
AcDbSpline
210
0.0
220
0.0
230
1.0
 70
    11
 71
     3
 72
    84
 73
    80
 74
     0
 42
0.0000000001
 43
0.0000000001
 40
0.0
 40
0.0
 40
0.0
 40
0.0
 40
0.0476190476190476
 40
0.0476190476190476
 40
0.0476190476190476
 40
0.0476190476190476
 40
0.0952380952380952
 40
0.0952380952380952
 40
0.0952380952380952
 40
0.0952380952380952
 40
0.1428571428571428
 40
0.1428571428571428
 40
0.1428571428571428
 40
0.1428571428571428
 40
0.1904761904761905
 40
0.1904761904761905
 40
0.1904761904761905
 40
0.1904761904761905
 40
0.2380952380952381
 40
0.2380952380952381
 40
0.2380952380952381
 40
0.2380952380952381
 40
0.2857142857142857
 40
0.2857142857142857
 40
0.2857142857142857
 40
0.2857142857142857
 40
0.3333333333333333
 40
0.3333333333333333
 40
0.3333333333333333
 40
0.3333333333333333
 40
0.3809523809523809
 40
0.3809523809523809
 40
0.3809523809523809
 40
0.3809523809523809
 40
0.4285714285714285
 40
0.4285714285714285
 40
0.4285714285714285
 40
0.4285714285714285
 40
0.4761904761904762
 40
0.4761904761904762
 40
0.4761904761904762
 40
0.4761904761904762
 40
0.5238095238095238
 40
0.5238095238095238
 40
0.5238095238095238
 40
0.5238095238095238
 40
0.5714285714285714
 40
0.5714285714285714
 40
0.5714285714285714
 40
0.5714285714285714
 40
0.6190476190476191
 40
0.6190476190476191
 40
0.6190476190476191
 40
0.6190476190476191
 40
0.6666666666666666
 40
0.6666666666666666
 40
0.6666666666666666
 40
0.6666666666666666
 40
0.7142857142857143
 40
0.7142857142857143
 40
0.7142857142857143
 40
0.7142857142857143
 40
0.7619047619047619
 40
0.7619047619047619
 40
0.7619047619047619
 40
0.7619047619047619
 40
0.8095238095238095
 40
0.8095238095238095
 40
0.8095238095238095
 40
0.8095238095238095
 40
0.8571428571428571
 40
0.8571428571428571
 40
0.8571428571428571
 40
0.8571428571428571
 40
0.9047619047619048
 40
0.9047619047619048
 40
0.9047619047619048
 40
0.9047619047619048
 40
1.0
 40
1.0
 40
1.0
 40
1.0
 10
0.7427
 20
-25.0994
 30
0.0
 10
0.7427
 20
-25.0994
 30
0.0
 10
0.9741
 20
-24.8403
 30
0.0
 10
0.9741
 20
-24.8403
 30
0.0
 10
0.9741
 20
-24.8403
 30
0.0
 10
0.9741
 20
-24.8403
 30
0.0
 10
1.1105
 20
-24.956
 30
0.0
 10
1.1105
 20
-24.956
 30
0.0
 10
1.1105
 20
-24.956
 30
0.0
 10
1.1105
 20
-24.956
 30
0.0
 10
0.8683
 20
-25.2288
 30
0.0
 10
0.8683
 20
-25.2288
 30
0.0
 10
0.8683
 20
-25.2288
 30
0.0
 10
0.9473
 20
-25.3464
 30
0.0
 10
1.0004
 20
-25.4494
 30
0.0
 10
1.0282
 20
-25.5373
 30
0.0
 10
1.0282
 20
-25.5373
 30
0.0
 10
1.0649
 20
-25.6531
 30
0.0
 10
1.0832
 20
-25.7829
 30
0.0
 10
1.0832
 20
-25.9259
 30
0.0
 10
1.0832
 20
-25.9259
 30
0.0
 10
1.0832
 20
-26.1328
 30
0.0
 10
1.0414
 20
-26.3172
 30
0.0
 10
0.9576
 20
-26.4785
 30
0.0
 10
0.9576
 20
-26.4785
 30
0.0
 10
0.8739
 20
-26.6404
 30
0.0
 10
0.7568
 20
-26.7626
 30
0.0
 10
0.6058
 20
-26.8454
 30
0.0
 10
0.6058
 20
-26.8454
 30
0.0
 10
0.4543
 20
-26.9277
 30
0.0
 10
0.294
 20
-26.9691
 30
0.0
 10
0.1242
 20
-26.9691
 30
0.0
 10
0.1242
 20
-26.9691
 30
0.0
 10
-0.0028
 20
-26.9691
 30
0.0
 10
-0.1176
 20
-26.9513
 30
0.0
 10
-0.2206
 20
-26.9155
 30
0.0
 10
-0.2206
 20
-26.9155
 30
0.0
 10
-0.2996
 20
-26.8878
 30
0.0
 10
-0.3918
 20
-26.8351
 30
0.0
 10
-0.4977
 20
-26.757
 30
0.0
 10
-0.4977
 20
-26.757
 30
0.0
 10
-0.4977
 20
-26.757
 30
0.0
 10
-0.7291
 20
-27.0162
 30
0.0
 10
-0.7291
 20
-27.0162
 30
0.0
 10
-0.7291
 20
-27.0162
 30
0.0
 10
-0.7291
 20
-27.0162
 30
0.0
 10
-0.8655
 20
-26.9005
 30
0.0
 10
-0.8655
 20
-26.9005
 30
0.0
 10
-0.8655
 20
-26.9005
 30
0.0
 10
-0.8655
 20
-26.9005
 30
0.0
 10
-0.6228
 20
-26.6291
 30
0.0
 10
-0.6228
 20
-26.6291
 30
0.0
 10
-0.6228
 20
-26.6291
 30
0.0
 10
-0.7131
 20
-26.4922
 30
0.0
 10
-0.7733
 20
-26.3751
 30
0.0
 10
-0.8034
 20
-26.2782
 30
0.0
 10
-0.8034
 20
-26.2782
 30
0.0
 10
-0.8335
 20
-26.1813
 30
0.0
 10
-0.849
 20
-26.0646
 30
0.0
 10
-0.849
 20
-25.9287
 30
0.0
 10
-0.849
 20
-25.9287
 30
0.0
 10
-0.849
 20
-25.7213
 30
0.0
 10
-0.8076
 20
-25.5364
 30
0.0
 10
-0.7249
 20
-25.3741
 30
0.0
 10
-0.7249
 20
-25.3741
 30
0.0
 10
-0.6421
 20
-25.2118
 30
0.0
 10
-0.5264
 20
-25.0891
 30
0.0
 10
-0.3768
 20
-25.0054
 30
0.0
 10
-0.3768
 20
-25.0054
 30
0.0
 10
-0.2277
 20
-24.9221
 30
0.0
 10
-0.0616
 20
-24.8802
 30
0.0
 10
0.1213
 20
-24.8802
 30
0.0
 10
0.1213
 20
-24.8802
 30
0.0
 10
0.2446
 20
-24.8802
 30
0.0
 10
0.3523
 20
-24.8962
 30
0.0
 10
0.4445
 20
-24.9292
 30
0.0
 10
0.4445
 20
-24.9292
 30
0.0
 10
0.5367
 20
-24.9616
 30
0.0
 10
0.6364
 20
-25.0185
 30
0.0
 10
0.7427
 20
-25.0994
 30
0.0
  0
SPLINE
  5
68
330
1F
100
AcDbEntity
  8
DEFAULT_1
 62
   250
100
AcDbSpline
210
0.0
220
0.0
230
1.0
 70
    11
 71
     3
 72
    32
 73
    28
 74
     0
 42
0.0000000001
 43
0.0000000001
 40
0.0
 40
0.0
 40
0.0
 40
0.0
 40
0.125
 40
0.125
 40
0.125
 40
0.125
 40
0.25
 40
0.25
 40
0.25
 40
0.25
 40
0.375
 40
0.375
 40
0.375
 40
0.375
 40
0.5
 40
0.5
 40
0.5
 40
0.5
 40
0.625
 40
0.625
 40
0.625
 40
0.625
 40
0.75
 40
0.75
 40
0.75
 40
0.75
 40
1.0
 40
1.0
 40
1.0
 40
1.0
 10
0.5776
 20
-25.2852
 30
0.0
 10
0.491
 20
-25.2175
 30
0.0
 10
0.4153
 20
-25.1709
 30
0.0
 10
0.3509
 20
-25.146
 30
0.0
 10
0.3509
 20
-25.146
 30
0.0
 10
0.286
 20
-25.1215
 30
0.0
 10
0.2098
 20
-25.1088
 30
0.0
 10
0.1227
 20
-25.1088
 30
0.0
 10
0.1227
 20
-25.1088
 30
0.0
 10
-0.0786
 20
-25.1088
 30
0.0
 10
-0.2446
 20
-25.177
 30
0.0
 10
-0.3763
 20
-25.3134
 30
0.0
 10
-0.3763
 20
-25.3134
 30
0.0
 10
-0.5076
 20
-25.4499
 30
0.0
 10
-0.5734
 20
-25.6535
 30
0.0
 10
-0.5734
 20
-25.9249
 30
0.0
 10
-0.5734
 20
-25.9249
 30
0.0
 10
-0.5734
 20
-26.0312
 30
0.0
 10
-0.5631
 20
-26.1258
 30
0.0
 10
-0.5428
 20
-26.2086
 30
0.0
 10
-0.5428
 20
-26.2086
 30
0.0
 10
-0.5282
 20
-26.2702
 30
0.0
 10
-0.4977
 20
-26.3459
 30
0.0
 10
-0.4506
 20
-26.4357
 30
0.0
 10
-0.4506
 20
-26.4357
 30
0.0
 10
-0.4506
 20
-26.4357
 30
0.0
 10
0.5776
 20
-25.2852
 30
0.0
 10
0.5776
 20
-25.2852
 30
0.0
  0
SPLINE
  5
69
330
1F
100
AcDbEntity
  8
DEFAULT_1
 62
   250
100
AcDbSpline
210
0.0
220
0.0
230
1.0
 70
    11
 71
     3
 72
    28
 73
    24
 74
     0
 42
0.0000000001
 43
0.0000000001
 40
0.0
 40
0.0
 40
0.0
 40
0.0
 40
0.1428571428571428
 40
0.1428571428571428
 40
0.1428571428571428
 40
0.1428571428571428
 40
0.2857142857142857
 40
0.2857142857142857
 40
0.2857142857142857
 40
0.2857142857142857
 40
0.4285714285714285
 40
0.4285714285714285
 40
0.4285714285714285
 40
0.4285714285714285
 40
0.5714285714285714
 40
0.5714285714285714
 40
0.5714285714285714
 40
0.5714285714285714
 40
0.7142857142857143
 40
0.7142857142857143
 40
0.7142857142857143
 40
0.7142857142857143
 40
1.0
 40
1.0
 40
1.0
 40
1.0
 10
0.6905
 20
-25.4273
 30
0.0
 10
0.6905
 20
-25.4273
 30
0.0
 10
-0.3335
 20
-26.5736
 30
0.0
 10
-0.3335
 20
-26.5736
 30
0.0
 10
-0.3335
 20
-26.5736
 30
0.0
 10
-0.263
 20
-26.6314
 30
0.0
 10
-0.1976
 20
-26.6719
 30
0.0
 10
-0.1378
 20
-26.6949
 30
0.0
 10
-0.1378
 20
-26.6949
 30
0.0
 10
-0.0598
 20
-26.7255
 30
0.0
 10
0.0249
 20
-26.7405
 30
0.0
 10
0.1157
 20
-26.7405
 30
0.0
 10
0.1157
 20
-26.7405
 30
0.0
 10
0.3161
 20
-26.7405
 30
0.0
 10
0.4812
 20
-26.67
 30
0.0
 10
0.6119
 20
-26.5284
 30
0.0
 10
0.6119
 20
-26.5284
 30
0.0
 10
0.7422
 20
-26.3868
 30
0.0
 10
0.8076
 20
-26.1883
 30
0.0
 10
0.8076
 20
-25.9329
 30
0.0
 10
0.8076
 20
-25.9329
 30
0.0
 10
0.8076
 20
-25.742
 30
0.0
 10
0.7686
 20
-25.5731
 30
0.0
 10
0.6905
 20
-25.4273
 30
0.0
  0
SPLINE
  5
6A
330
1F
100
AcDbEntity
  8
DEFAULT_1
 62
   250
100
AcDbSpline
210
0.0
220
0.0
230
1.0
 70
    11
 71
     3
 72
    48
 73
    44
 74
     0
 42
0.0000000001
 43
0.0000000001
 40
0.0
 40
0.0
 40
0.0
 40
0.0
 40
0.0833333333333333
 40
0.0833333333333333
 40
0.0833333333333333
 40
0.0833333333333333
 40
0.1666666666666667
 40
0.1666666666666667
 40
0.1666666666666667
 40
0.1666666666666667
 40
0.25
 40
0.25
 40
0.25
 40
0.25
 40
0.3333333333333333
 40
0.3333333333333333
 40
0.3333333333333333
 40
0.3333333333333333
 40
0.4166666666666667
 40
0.4166666666666667
 40
0.4166666666666667
 40
0.4166666666666667
 40
0.5
 40
0.5
 40
0.5
 40
0.5
 40
0.5833333333333334
 40
0.5833333333333334
 40
0.5833333333333334
 40
0.5833333333333334
 40
0.6666666666666666
 40
0.6666666666666666
 40
0.6666666666666666
 40
0.6666666666666666
 40
0.75
 40
0.75
 40
0.75
 40
0.75
 40
0.8333333333333334
 40
0.8333333333333334
 40
0.8333333333333334
 40
0.8333333333333334
 40
1.0
 40
1.0
 40
1.0
 40
1.0
 10
2.1274
 20
-26.9348
 30
0.0
 10
2.1274
 20
-26.9348
 30
0.0
 10
2.1274
 20
-26.4513
 30
0.0
 10
2.1274
 20
-26.4513
 30
0.0
 10
2.1274
 20
-26.4513
 30
0.0
 10
2.1274
 20
-26.4513
 30
0.0
 10
1.2511
 20
-26.4513
 30
0.0
 10
1.2511
 20
-26.4513
 30
0.0
 10
1.2511
 20
-26.4513
 30
0.0
 10
1.2511
 20
-26.4513
 30
0.0
 10
1.2511
 20
-26.2236
 30
0.0
 10
1.2511
 20
-26.2236
 30
0.0
 10
1.2511
 20
-26.2236
 30
0.0
 10
1.2511
 20
-26.2236
 30
0.0
 10
2.1731
 20
-24.9146
 30
0.0
 10
2.1731
 20
-24.9146
 30
0.0
 10
2.1731
 20
-24.9146
 30
0.0
 10
2.1731
 20
-24.9146
 30
0.0
 10
2.3758
 20
-24.9146
 30
0.0
 10
2.3758
 20
-24.9146
 30
0.0
 10
2.3758
 20
-24.9146
 30
0.0
 10
2.3758
 20
-24.9146
 30
0.0
 10
2.3758
 20
-26.2236
 30
0.0
 10
2.3758
 20
-26.2236
 30
0.0
 10
2.3758
 20
-26.2236
 30
0.0
 10
2.3758
 20
-26.2236
 30
0.0
 10
2.6486
 20
-26.2236
 30
0.0
 10
2.6486
 20
-26.2236
 30
0.0
 10
2.6486
 20
-26.2236
 30
0.0
 10
2.6486
 20
-26.2236
 30
0.0
 10
2.6486
 20
-26.4513
 30
0.0
 10
2.6486
 20
-26.4513
 30
0.0
 10
2.6486
 20
-26.4513
 30
0.0
 10
2.6486
 20
-26.4513
 30
0.0
 10
2.3758
 20
-26.4513
 30
0.0
 10
2.3758
 20
-26.4513
 30
0.0
 10
2.3758
 20
-26.4513
 30
0.0
 10
2.3758
 20
-26.4513
 30
0.0
 10
2.3758
 20
-26.9348
 30
0.0
 10
2.3758
 20
-26.9348
 30
0.0
 10
2.3758
 20
-26.9348
 30
0.0
 10
2.3758
 20
-26.9348
 30
0.0
 10
2.1274
 20
-26.9348
 30
0.0
 10
2.1274
 20
-26.9348
 30
0.0
  0
SPLINE
  5
6B
330
1F
100
AcDbEntity
  8
DEFAULT_1
 62
   250
100
AcDbSpline
210
0.0
220
0.0
230
1.0
 70
    11
 71
     3
 72
    16
 73
    12
 74
     0
 42
0.0000000001
 43
0.0000000001
 40
0.0
 40
0.0
 40
0.0
 40
0.0
 40
0.25
 40
0.25
 40
0.25
 40
0.25
 40
0.5
 40
0.5
 40
0.5
 40
0.5
 40
1.0
 40
1.0
 40
1.0
 40
1.0
 10
2.1274
 20
-26.2236
 30
0.0
 10
2.1274
 20
-26.2236
 30
0.0
 10
2.1274
 20
-25.313
 30
0.0
 10
2.1274
 20
-25.313
 30
0.0
 10
2.1274
 20
-25.313
 30
0.0
 10
2.1274
 20
-25.313
 30
0.0
 10
1.4953
 20
-26.2236
 30
0.0
 10
1.4953
 20
-26.2236
 30
0.0
 10
1.4953
 20
-26.2236
 30
0.0
 10
1.4953
 20
-26.2236
 30
0.0
 10
2.1274
 20
-26.2236
 30
0.0
 10
2.1274
 20
-26.2236
 30
0.0
  0
SPLINE
  5
6C
330
1F
100
AcDbEntity
  8
DEFAULT_1
 62
   250
100
AcDbSpline
210
0.0
220
0.0
230
1.0
 70
    11
 71
     3
 72
   124
 73
   120
 74
     0
 42
0.0000000001
 43
0.0000000001
 40
0.0
 40
0.0
 40
0.0
 40
0.0
 40
0.032258064516129
 40
0.032258064516129
 40
0.032258064516129
 40
0.032258064516129
 40
0.0645161290322581
 40
0.0645161290322581
 40
0.0645161290322581
 40
0.0645161290322581
 40
0.0967741935483871
 40
0.0967741935483871
 40
0.0967741935483871
 40
0.0967741935483871
 40
0.1290322580645161
 40
0.1290322580645161
 40
0.1290322580645161
 40
0.1290322580645161
 40
0.1612903225806452
 40
0.1612903225806452
 40
0.1612903225806452
 40
0.1612903225806452
 40
0.1935483870967742
 40
0.1935483870967742
 40
0.1935483870967742
 40
0.1935483870967742
 40
0.2258064516129032
 40
0.2258064516129032
 40
0.2258064516129032
 40
0.2258064516129032
 40
0.2580645161290323
 40
0.2580645161290323
 40
0.2580645161290323
 40
0.2580645161290323
 40
0.2903225806451613
 40
0.2903225806451613
 40
0.2903225806451613
 40
0.2903225806451613
 40
0.3225806451612903
 40
0.3225806451612903
 40
0.3225806451612903
 40
0.3225806451612903
 40
0.3548387096774194
 40
0.3548387096774194
 40
0.3548387096774194
 40
0.3548387096774194
 40
0.3870967741935484
 40
0.3870967741935484
 40
0.3870967741935484
 40
0.3870967741935484
 40
0.4193548387096774
 40
0.4193548387096774
 40
0.4193548387096774
 40
0.4193548387096774
 40
0.4516129032258064
 40
0.4516129032258064
 40
0.4516129032258064
 40
0.4516129032258064
 40
0.4838709677419355
 40
0.4838709677419355
 40
0.4838709677419355
 40
0.4838709677419355
 40
0.5161290322580645
 40
0.5161290322580645
 40
0.5161290322580645
 40
0.5161290322580645
 40
0.5483870967741935
 40
0.5483870967741935
 40
0.5483870967741935
 40
0.5483870967741935
 40
0.5806451612903226
 40
0.5806451612903226
 40
0.5806451612903226
 40
0.5806451612903226
 40
0.6129032258064516
 40
0.6129032258064516
 40
0.6129032258064516
 40
0.6129032258064516
 40
0.6451612903225806
 40
0.6451612903225806
 40
0.6451612903225806
 40
0.6451612903225806
 40
0.6774193548387096
 40
0.6774193548387096
 40
0.6774193548387096
 40
0.6774193548387096
 40
0.7096774193548387
 40
0.7096774193548387
 40
0.7096774193548387
 40
0.7096774193548387
 40
0.7419354838709677
 40
0.7419354838709677
 40
0.7419354838709677
 40
0.7419354838709677
 40
0.7741935483870968
 40
0.7741935483870968
 40
0.7741935483870968
 40
0.7741935483870968
 40
0.8064516129032258
 40
0.8064516129032258
 40
0.8064516129032258
 40
0.8064516129032258
 40
0.8387096774193549
 40
0.8387096774193549
 40
0.8387096774193549
 40
0.8387096774193549
 40
0.8709677419354839
 40
0.8709677419354839
 40
0.8709677419354839
 40
0.8709677419354839
 40
0.9032258064516129
 40
0.9032258064516129
 40
0.9032258064516129
 40
0.9032258064516129
 40
0.9354838709677419
 40
0.9354838709677419
 40
0.9354838709677419
 40
0.9354838709677419
 40
1.0
 40
1.0
 40
1.0
 40
1.0
 10
2.9035
 20
-26.4014
 30
0.0
 10
2.9035
 20
-26.4014
 30
0.0
 10
3.1514
 20
-26.3685
 30
0.0
 10
3.1514
 20
-26.3685
 30
0.0
 10
3.1514
 20
-26.3685
 30
0.0
 10
3.1801
 20
-26.5091
 30
0.0
 10
3.2286
 20
-26.6102
 30
0.0
 10
3.2968
 20
-26.6723
 30
0.0
 10
3.2968
 20
-26.6723
 30
0.0
 10
3.3654
 20
-26.7344
 30
0.0
 10
3.4487
 20
-26.7655
 30
0.0
 10
3.547
 20
-26.7655
 30
0.0
 10
3.547
 20
-26.7655
 30
0.0
 10
3.6636
 20
-26.7655
 30
0.0
 10
3.7624
 20
-26.725
 30
0.0
 10
3.8429
 20
-26.6441
 30
0.0
 10
3.8429
 20
-26.6441
 30
0.0
 10
3.9228
 20
-26.5632
 30
0.0
 10
3.9633
 20
-26.463
 30
0.0
 10
3.9633
 20
-26.3435
 30
0.0
 10
3.9633
 20
-26.3435
 30
0.0
 10
3.9633
 20
-26.2297
 30
0.0
 10
3.9261
 20
-26.1356
 30
0.0
 10
3.8518
 20
-26.0618
 30
0.0
 10
3.8518
 20
-26.0618
 30
0.0
 10
3.777
 20
-25.988
 30
0.0
 10
3.6825
 20
-25.9508
 30
0.0
 10
3.5677
 20
-25.9508
 30
0.0
 10
3.5677
 20
-25.9508
 30
0.0
 10
3.5207
 20
-25.9508
 30
0.0
 10
3.4623
 20
-25.9602
 30
0.0
 10
3.3927
 20
-25.9785
 30
0.0
 10
3.3927
 20
-25.9785
 30
0.0
 10
3.3927
 20
-25.9785
 30
0.0
 10
3.4205
 20
-25.7608
 30
0.0
 10
3.4205
 20
-25.7608
 30
0.0
 10
3.4205
 20
-25.7608
 30
0.0
 10
3.4369
 20
-25.7626
 30
0.0
 10
3.4501
 20
-25.7636
 30
0.0
 10
3.4604
 20
-25.7636
 30
0.0
 10
3.4604
 20
-25.7636
 30
0.0
 10
3.5658
 20
-25.7636
 30
0.0
 10
3.6608
 20
-25.7358
 30
0.0
 10
3.7455
 20
-25.6808
 30
0.0
 10
3.7455
 20
-25.6808
 30
0.0
 10
3.8302
 20
-25.6258
 30
0.0
 10
3.8725
 20
-25.5406
 30
0.0
 10
3.8725
 20
-25.4259
 30
0.0
 10
3.8725
 20
-25.4259
 30
0.0
 10
3.8725
 20
-25.3351
 30
0.0
 10
3.8414
 20
-25.2594
 30
0.0
 10
3.7798
 20
-25.2001
 30
0.0
 10
3.7798
 20
-25.2001
 30
0.0
 10
3.7182
 20
-25.1404
 30
0.0
 10
3.6387
 20
-25.1102
 30
0.0
 10
3.5413
 20
-25.1102
 30
0.0
 10
3.5413
 20
-25.1102
 30
0.0
 10
3.4449
 20
-25.1102
 30
0.0
 10
3.3645
 20
-25.1408
 30
0.0
 10
3.3005
 20
-25.201
 30
0.0
 10
3.3005
 20
-25.201
 30
0.0
 10
3.2361
 20
-25.2617
 30
0.0
 10
3.1947
 20
-25.353
 30
0.0
 10
3.1763
 20
-25.4743
 30
0.0
 10
3.1763
 20
-25.4743
 30
0.0
 10
3.1763
 20
-25.4743
 30
0.0
 10
2.9285
 20
-25.4301
 30
0.0
 10
2.9285
 20
-25.4301
 30
0.0
 10
2.9285
 20
-25.4301
 30
0.0
 10
2.9586
 20
-25.2636
 30
0.0
 10
3.0277
 20
-25.1347
 30
0.0
 10
3.135
 20
-25.0435
 30
0.0
 10
3.135
 20
-25.0435
 30
0.0
 10
3.2427
 20
-24.9522
 30
0.0
 10
3.3763
 20
-24.9061
 30
0.0
 10
3.5362
 20
-24.9061
 30
0.0
 10
3.5362
 20
-24.9061
 30
0.0
 10
3.6462
 20
-24.9061
 30
0.0
 10
3.7478
 20
-24.9301
 30
0.0
 10
3.8405
 20
-24.9771
 30
0.0
 10
3.8405
 20
-24.9771
 30
0.0
 10
3.9332
 20
-25.0246
 30
0.0
 10
4.0042
 20
-25.0891
 30
0.0
 10
4.0536
 20
-25.1709
 30
0.0
 10
4.0536
 20
-25.1709
 30
0.0
 10
4.1025
 20
-25.2528
 30
0.0
 10
4.1274
 20
-25.3393
 30
0.0
 10
4.1274
 20
-25.4315
 30
0.0
 10
4.1274
 20
-25.4315
 30
0.0
 10
4.1274
 20
-25.5185
 30
0.0
 10
4.1039
 20
-25.598
 30
0.0
 10
4.0569
 20
-25.67
 30
0.0
 10
4.0569
 20
-25.67
 30
0.0
 10
4.0098
 20
-25.7415
 30
0.0
 10
3.9407
 20
-25.7984
 30
0.0
 10
3.849
 20
-25.8407
 30
0.0
 10
3.849
 20
-25.8407
 30
0.0
 10
3.9684
 20
-25.868
 30
0.0
 10
4.0611
 20
-25.9254
 30
0.0
 10
4.1274
 20
-26.0124
 30
0.0
 10
4.1274
 20
-26.0124
 30
0.0
 10
4.1933
 20
-26.099
 30
0.0
 10
4.2262
 20
-26.2076
 30
0.0
 10
4.2262
 20
-26.3379
 30
0.0
 10
4.2262
 20
-26.3379
 30
0.0
 10
4.2262
 20
-26.5143
 30
0.0
 10
4.1622
 20
-26.6639
 30
0.0
 10
4.0334
 20
-26.7866
 30
0.0
 10
4.0334
 20
-26.7866
 30
0.0
 10
3.9049
 20
-26.9094
 30
0.0
 10
3.7422
 20
-26.9705
 30
0.0
 10
3.5456
 20
-26.9705
 30
0.0
 10
3.5456
 20
-26.9705
 30
0.0
 10
3.3683
 20
-26.9705
 30
0.0
 10
3.221
 20
-26.9179
 30
0.0
 10
3.1039
 20
-26.812
 30
0.0
 10
3.1039
 20
-26.812
 30
0.0
 10
2.9868
 20
-26.7067
 30
0.0
 10
2.92
 20
-26.5698
 30
0.0
 10
2.9035
 20
-26.4014
 30
0.0
  0
SPLINE
  5
6D
330
1F
100
AcDbEntity
  8
DEFAULT_1
 62
   250
100
AcDbSpline
210
0.0
220
0.0
230
1.0
 70
    11
 71
     3
 72
    20
 73
    16
 74
     0
 42
0.0000000001
 43
0.0000000001
 40
0.0
 40
0.0
 40
0.0
 40
0.0
 40
0.2
 40
0.2
 40
0.2
 40
0.2
 40
0.4
 40
0.4
 40
0.4
 40
0.4
 40
0.6
 40
0.6
 40
0.6
 40
0.6
 40
1.0
 40
1.0
 40
1.0
 40
1.0
 10
7.3246
 20
-26.9404
 30
0.0
 10
7.3246
 20
-26.9404
 30
0.0
 10
10.3247
 20
-27.3638
 30
0.0
 10
10.3247
 20
-27.3638
 30
0.0
 10
10.3247
 20
-27.3638
 30
0.0
 10
10.3247
 20
-27.3638
 30
0.0
 10
10.3247
 20
-27.4578
 30
0.0
 10
10.3247
 20
-27.4578
 30
0.0
 10
10.3247
 20
-27.4578
 30
0.0
 10
10.3247
 20
-27.4578
 30
0.0
 10
7.3246
 20
-27.9093
 30
0.0
 10
7.3246
 20
-27.9093
 30
0.0
 10
7.3246
 20
-27.9093
 30
0.0
 10
7.3246
 20
-27.9093
 30
0.0
 10
7.3246
 20
-26.9404
 30
0.0
 10
7.3246
 20
-26.9404
 30
0.0
  0
SPLINE
  5
6E
330
1F
100
AcDbEntity
  8
DEFAULT_1
 62
   250
100
AcDbSpline
210
0.0
220
0.0
230
1.0
 70
    11
 71
     3
 72
    20
 73
    16
 74
     0
 42
0.0000000001
 43
0.0000000001
 40
0.0
 40
0.0
 40
0.0
 40
0.0
 40
0.2
 40
0.2
 40
0.2
 40
0.2
 40
0.4
 40
0.4
 40
0.4
 40
0.4
 40
0.6
 40
0.6
 40
0.6
 40
0.6
 40
1.0
 40
1.0
 40
1.0
 40
1.0
 10
-3.6828
 20
-27.8508
 30
0.0
 10
-3.6828
 20
-27.8508
 30
0.0
 10
-6.6829
 20
-27.4274
 30
0.0
 10
-6.6829
 20
-27.4274
 30
0.0
 10
-6.6829
 20
-27.4274
 30
0.0
 10
-6.6829
 20
-27.4274
 30
0.0
 10
-6.6829
 20
-27.3334
 30
0.0
 10
-6.6829
 20
-27.3334
 30
0.0
 10
-6.6829
 20
-27.3334
 30
0.0
 10
-6.6829
 20
-27.3334
 30
0.0
 10
-3.6828
 20
-26.8819
 30
0.0
 10
-3.6828
 20
-26.8819
 30
0.0
 10
-3.6828
 20
-26.8819
 30
0.0
 10
-3.6828
 20
-26.8819
 30
0.0
 10
-3.6828
 20
-27.8508
 30
0.0
 10
-3.6828
 20
-27.8508
 30
0.0
  0
SPLINE
  5
6F
330
1F
100
AcDbEntity
  8
DEFAULT_1
 62
   250
100
AcDbSpline
210
0.0
220
0.0
230
1.0
 70
    11
 71
     3
 72
    40
 73
    36
 74
     0
 42
0.0000000001
 43
0.0000000001
 40
0.0
 40
0.0
 40
0.0
 40
0.0
 40
0.1
 40
0.1
 40
0.1
 40
0.1
 40
0.2
 40
0.2
 40
0.2
 40
0.2
 40
0.3
 40
0.3
 40
0.3
 40
0.3
 40
0.4
 40
0.4
 40
0.4
 40
0.4
 40
0.5
 40
0.5
 40
0.5
 40
0.5
 40
0.6
 40
0.6
 40
0.6
 40
0.6
 40
0.7
 40
0.7
 40
0.7
 40
0.7
 40
0.8
 40
0.8
 40
0.8
 40
0.8
 40
1.0
 40
1.0
 40
1.0
 40
1.0
 10
-11.0459
 20
-15.4719
 30
0.0
 10
-11.0459
 20
-15.4719
 30
0.0
 10
-11.0459
 20
-15.7198
 30
0.0
 10
-11.0459
 20
-15.7198
 30
0.0
 10
-11.0459
 20
-15.7198
 30
0.0
 10
-11.0459
 20
-15.7198
 30
0.0
 10
-12.6263
 20
-15.7198
 30
0.0
 10
-12.6263
 20
-15.7198
 30
0.0
 10
-12.6263
 20
-15.7198
 30
0.0
 10
-12.5694
 20
-15.7796
 30
0.0
 10
-12.5125
 20
-15.8576
 30
0.0
 10
-12.4556
 20
-15.9545
 30
0.0
 10
-12.4556
 20
-15.9545
 30
0.0
 10
-12.3987
 20
-16.0519
 30
0.0
 10
-12.3559
 20
-16.1389
 30
0.0
 10
-12.3276
 20
-16.2161
 30
0.0
 10
-12.3276
 20
-16.2161
 30
0.0
 10
-12.3276
 20
-16.2161
 30
0.0
 10
-12.5671
 20
-16.2161
 30
0.0
 10
-12.5671
 20
-16.2161
 30
0.0
 10
-12.5671
 20
-16.2161
 30
0.0
 10
-12.6324
 20
-16.0773
 30
0.0
 10
-12.7115
 20
-15.9559
 30
0.0
 10
-12.8041
 20
-15.852
 30
0.0
 10
-12.8041
 20
-15.852
 30
0.0
 10
-12.8973
 20
-15.7485
 30
0.0
 10
-12.9871
 20
-15.6747
 30
0.0
 10
-13.0746
 20
-15.6314
 30
0.0
 10
-13.0746
 20
-15.6314
 30
0.0
 10
-13.0746
 20
-15.6314
 30
0.0
 10
-13.0746
 20
-15.4719
 30
0.0
 10
-13.0746
 20
-15.4719
 30
0.0
 10
-13.0746
 20
-15.4719
 30
0.0
 10
-13.0746
 20
-15.4719
 30
0.0
 10
-11.0459
 20
-15.4719
 30
0.0
 10
-11.0459
 20
-15.4719
 30
0.0
  0
SPLINE
  5
70
330
1F
100
AcDbEntity
  8
DEFAULT_1
 62
   250
100
AcDbSpline
210
0.0
220
0.0
230
1.0
 70
    11
 71
     3
 72
    40
 73
    36
 74
     0
 42
0.0000000001
 43
0.0000000001
 40
0.0
 40
0.0
 40
0.0
 40
0.0
 40
0.1
 40
0.1
 40
0.1
 40
0.1
 40
0.2
 40
0.2
 40
0.2
 40
0.2
 40
0.3
 40
0.3
 40
0.3
 40
0.3
 40
0.4
 40
0.4
 40
0.4
 40
0.4
 40
0.5
 40
0.5
 40
0.5
 40
0.5
 40
0.6
 40
0.6
 40
0.6
 40
0.6
 40
0.7
 40
0.7
 40
0.7
 40
0.7
 40
0.8
 40
0.8
 40
0.8
 40
0.8
 40
1.0
 40
1.0
 40
1.0
 40
1.0
 10
-11.0459
 20
-14.1116
 30
0.0
 10
-11.0459
 20
-14.1116
 30
0.0
 10
-11.0459
 20
-14.3595
 30
0.0
 10
-11.0459
 20
-14.3595
 30
0.0
 10
-11.0459
 20
-14.3595
 30
0.0
 10
-11.0459
 20
-14.3595
 30
0.0
 10
-12.6263
 20
-14.3595
 30
0.0
 10
-12.6263
 20
-14.3595
 30
0.0
 10
-12.6263
 20
-14.3595
 30
0.0
 10
-12.5694
 20
-14.4193
 30
0.0
 10
-12.5125
 20
-14.4973
 30
0.0
 10
-12.4556
 20
-14.5942
 30
0.0
 10
-12.4556
 20
-14.5942
 30
0.0
 10
-12.3987
 20
-14.6916
 30
0.0
 10
-12.3559
 20
-14.7786
 30
0.0
 10
-12.3276
 20
-14.8558
 30
0.0
 10
-12.3276
 20
-14.8558
 30
0.0
 10
-12.3276
 20
-14.8558
 30
0.0
 10
-12.5671
 20
-14.8558
 30
0.0
 10
-12.5671
 20
-14.8558
 30
0.0
 10
-12.5671
 20
-14.8558
 30
0.0
 10
-12.6324
 20
-14.717
 30
0.0
 10
-12.7115
 20
-14.5956
 30
0.0
 10
-12.8041
 20
-14.4917
 30
0.0
 10
-12.8041
 20
-14.4917
 30
0.0
 10
-12.8973
 20
-14.3882
 30
0.0
 10
-12.9871
 20
-14.3144
 30
0.0
 10
-13.0746
 20
-14.2711
 30
0.0
 10
-13.0746
 20
-14.2711
 30
0.0
 10
-13.0746
 20
-14.2711
 30
0.0
 10
-13.0746
 20
-14.1116
 30
0.0
 10
-13.0746
 20
-14.1116
 30
0.0
 10
-13.0746
 20
-14.1116
 30
0.0
 10
-13.0746
 20
-14.1116
 30
0.0
 10
-11.0459
 20
-14.1116
 30
0.0
 10
-11.0459
 20
-14.1116
 30
0.0
  0
SPLINE
  5
71
330
1F
100
AcDbEntity
  8
DEFAULT_1
 62
   250
100
AcDbSpline
210
0.0
220
0.0
230
1.0
 70
    11
 71
     3
 72
   116
 73
   112
 74
     0
 42
0.0000000001
 43
0.0000000001
 40
0.0
 40
0.0
 40
0.0
 40
0.0
 40
0.0344827586206897
 40
0.0344827586206897
 40
0.0344827586206897
 40
0.0344827586206897
 40
0.0689655172413793
 40
0.0689655172413793
 40
0.0689655172413793
 40
0.0689655172413793
 40
0.103448275862069
 40
0.103448275862069
 40
0.103448275862069
 40
0.103448275862069
 40
0.1379310344827586
 40
0.1379310344827586
 40
0.1379310344827586
 40
0.1379310344827586
 40
0.1724137931034483
 40
0.1724137931034483
 40
0.1724137931034483
 40
0.1724137931034483
 40
0.2068965517241379
 40
0.2068965517241379
 40
0.2068965517241379
 40
0.2068965517241379
 40
0.2413793103448276
 40
0.2413793103448276
 40
0.2413793103448276
 40
0.2413793103448276
 40
0.2758620689655172
 40
0.2758620689655172
 40
0.2758620689655172
 40
0.2758620689655172
 40
0.3103448275862069
 40
0.3103448275862069
 40
0.3103448275862069
 40
0.3103448275862069
 40
0.3448275862068966
 40
0.3448275862068966
 40
0.3448275862068966
 40
0.3448275862068966
 40
0.3793103448275862
 40
0.3793103448275862
 40
0.3793103448275862
 40
0.3793103448275862
 40
0.4137931034482759
 40
0.4137931034482759
 40
0.4137931034482759
 40
0.4137931034482759
 40
0.4482758620689655
 40
0.4482758620689655
 40
0.4482758620689655
 40
0.4482758620689655
 40
0.4827586206896552
 40
0.4827586206896552
 40
0.4827586206896552
 40
0.4827586206896552
 40
0.5172413793103449
 40
0.5172413793103449
 40
0.5172413793103449
 40
0.5172413793103449
 40
0.5517241379310345
 40
0.5517241379310345
 40
0.5517241379310345
 40
0.5517241379310345
 40
0.5862068965517241
 40
0.5862068965517241
 40
0.5862068965517241
 40
0.5862068965517241
 40
0.6206896551724138
 40
0.6206896551724138
 40
0.6206896551724138
 40
0.6206896551724138
 40
0.6551724137931034
 40
0.6551724137931034
 40
0.6551724137931034
 40
0.6551724137931034
 40
0.6896551724137931
 40
0.6896551724137931
 40
0.6896551724137931
 40
0.6896551724137931
 40
0.7241379310344828
 40
0.7241379310344828
 40
0.7241379310344828
 40
0.7241379310344828
 40
0.7586206896551724
 40
0.7586206896551724
 40
0.7586206896551724
 40
0.7586206896551724
 40
0.7931034482758621
 40
0.7931034482758621
 40
0.7931034482758621
 40
0.7931034482758621
 40
0.8275862068965517
 40
0.8275862068965517
 40
0.8275862068965517
 40
0.8275862068965517
 40
0.8620689655172413
 40
0.8620689655172413
 40
0.8620689655172413
 40
0.8620689655172413
 40
0.896551724137931
 40
0.896551724137931
 40
0.896551724137931
 40
0.896551724137931
 40
0.9310344827586207
 40
0.9310344827586207
 40
0.9310344827586207
 40
0.9310344827586207
 40
1.0
 40
1.0
 40
1.0
 40
1.0
 10
-16.8789
 20
9.9369
 30
0.0
 10
-16.8789
 20
9.9369
 30
0.0
 10
-18.3422
 20
9.9369
 30
0.0
 10
-18.3422
 20
9.9369
 30
0.0
 10
-18.3422
 20
9.9369
 30
0.0
 10
-18.3422
 20
9.9369
 30
0.0
 10
-18.3422
 20
10.1584
 30
0.0
 10
-18.3422
 20
10.1584
 30
0.0
 10
-18.3422
 20
10.1584
 30
0.0
 10
-18.3422
 20
10.1584
 30
0.0
 10
-18.1371
 20
10.1584
 30
0.0
 10
-18.1371
 20
10.1584
 30
0.0
 10
-18.1371
 20
10.1584
 30
0.0
 10
-18.2086
 20
10.2045
 30
0.0
 10
-18.2665
 20
10.2657
 30
0.0
 10
-18.3098
 20
10.3419
 30
0.0
 10
-18.3098
 20
10.3419
 30
0.0
 10
-18.3535
 20
10.4181
 30
0.0
 10
-18.3756
 20
10.5051
 30
0.0
 10
-18.3756
 20
10.6024
 30
0.0
 10
-18.3756
 20
10.6024
 30
0.0
 10
-18.3756
 20
10.7106
 30
0.0
 10
-18.353
 20
10.7995
 30
0.0
 10
-18.3079
 20
10.8687
 30
0.0
 10
-18.3079
 20
10.8687
 30
0.0
 10
-18.2627
 20
10.9383
 30
0.0
 10
-18.2002
 20
10.9872
 30
0.0
 10
-18.1193
 20
11.0154
 30
0.0
 10
-18.1193
 20
11.0154
 30
0.0
 10
-18.29
 20
11.1316
 30
0.0
 10
-18.3756
 20
11.2821
 30
0.0
 10
-18.3756
 20
11.4674
 30
0.0
 10
-18.3756
 20
11.4674
 30
0.0
 10
-18.3756
 20
11.6128
 30
0.0
 10
-18.3352
 20
11.7243
 30
0.0
 10
-18.2547
 20
11.8023
 30
0.0
 10
-18.2547
 20
11.8023
 30
0.0
 10
-18.1743
 20
11.8804
 30
0.0
 10
-18.0506
 20
11.9195
 30
0.0
 10
-17.8836
 20
11.9195
 30
0.0
 10
-17.8836
 20
11.9195
 30
0.0
 10
-17.8836
 20
11.9195
 30
0.0
 10
-16.8789
 20
11.9195
 30
0.0
 10
-16.8789
 20
11.9195
 30
0.0
 10
-16.8789
 20
11.9195
 30
0.0
 10
-16.8789
 20
11.9195
 30
0.0
 10
-16.8789
 20
11.673
 30
0.0
 10
-16.8789
 20
11.673
 30
0.0
 10
-16.8789
 20
11.673
 30
0.0
 10
-16.8789
 20
11.673
 30
0.0
 10
-17.8008
 20
11.673
 30
0.0
 10
-17.8008
 20
11.673
 30
0.0
 10
-17.8008
 20
11.673
 30
0.0
 10
-17.9001
 20
11.673
 30
0.0
 10
-17.9716
 20
11.665
 30
0.0
 10
-18.0153
 20
11.649
 30
0.0
 10
-18.0153
 20
11.649
 30
0.0
 10
-18.0586
 20
11.6325
 30
0.0
 10
-18.0939
 20
11.6034
 30
0.0
 10
-18.1207
 20
11.5615
 30
0.0
 10
-18.1207
 20
11.5615
 30
0.0
 10
-18.147
 20
11.5192
 30
0.0
 10
-18.1606
 20
11.4693
 30
0.0
 10
-18.1606
 20
11.4124
 30
0.0
 10
-18.1606
 20
11.4124
 30
0.0
 10
-18.1606
 20
11.3094
 30
0.0
 10
-18.1263
 20
11.2243
 30
0.0
 10
-18.0576
 20
11.1561
 30
0.0
 10
-18.0576
 20
11.1561
 30
0.0
 10
-17.9894
 20
11.0883
 30
0.0
 10
-17.8798
 20
11.054
 30
0.0
 10
-17.7293
 20
11.054
 30
0.0
 10
-17.7293
 20
11.054
 30
0.0
 10
-17.7293
 20
11.054
 30
0.0
 10
-16.8789
 20
11.054
 30
0.0
 10
-16.8789
 20
11.054
 30
0.0
 10
-16.8789
 20
11.054
 30
0.0
 10
-16.8789
 20
11.054
 30
0.0
 10
-16.8789
 20
10.8061
 30
0.0
 10
-16.8789
 20
10.8061
 30
0.0
 10
-16.8789
 20
10.8061
 30
0.0
 10
-16.8789
 20
10.8061
 30
0.0
 10
-17.8295
 20
10.8061
 30
0.0
 10
-17.8295
 20
10.8061
 30
0.0
 10
-17.8295
 20
10.8061
 30
0.0
 10
-17.94
 20
10.8061
 30
0.0
 10
-18.0228
 20
10.7859
 30
0.0
 10
-18.0779
 20
10.7454
 30
0.0
 10
-18.0779
 20
10.7454
 30
0.0
 10
-18.1329
 20
10.705
 30
0.0
 10
-18.1606
 20
10.6391
 30
0.0
 10
-18.1606
 20
10.5469
 30
0.0
 10
-18.1606
 20
10.5469
 30
0.0
 10
-18.1606
 20
10.4773
 30
0.0
 10
-18.1423
 20
10.4129
 30
0.0
 10
-18.1051
 20
10.3536
 30
0.0
 10
-18.1051
 20
10.3536
 30
0.0
 10
-18.0685
 20
10.2943
 30
0.0
 10
-18.0148
 20
10.2511
 30
0.0
 10
-17.9443
 20
10.2247
 30
0.0
 10
-17.9443
 20
10.2247
 30
0.0
 10
-17.8733
 20
10.1979
 30
0.0
 10
-17.7712
 20
10.1847
 30
0.0
 10
-17.6381
 20
10.1847
 30
0.0
 10
-17.6381
 20
10.1847
 30
0.0
 10
-17.6381
 20
10.1847
 30
0.0
 10
-16.8789
 20
10.1847
 30
0.0
 10
-16.8789
 20
10.1847
 30
0.0
 10
-16.8789
 20
10.1847
 30
0.0
 10
-16.8789
 20
10.1847
 30
0.0
 10
-16.8789
 20
9.9369
 30
0.0
 10
-16.8789
 20
9.9369
 30
0.0
  0
SPLINE
  5
72
330
1F
100
AcDbEntity
  8
DEFAULT_1
 62
   250
100
AcDbSpline
210
0.0
220
0.0
230
1.0
 70
    11
 71
     3
 72
   112
 73
   108
 74
     0
 42
0.0000000001
 43
0.0000000001
 40
0.0
 40
0.0
 40
0.0
 40
0.0
 40
0.0357142857142857
 40
0.0357142857142857
 40
0.0357142857142857
 40
0.0357142857142857
 40
0.0714285714285714
 40
0.0714285714285714
 40
0.0714285714285714
 40
0.0714285714285714
 40
0.1071428571428571
 40
0.1071428571428571
 40
0.1071428571428571
 40
0.1071428571428571
 40
0.1428571428571428
 40
0.1428571428571428
 40
0.1428571428571428
 40
0.1428571428571428
 40
0.1785714285714286
 40
0.1785714285714286
 40
0.1785714285714286
 40
0.1785714285714286
 40
0.2142857142857143
 40
0.2142857142857143
 40
0.2142857142857143
 40
0.2142857142857143
 40
0.25
 40
0.25
 40
0.25
 40
0.25
 40
0.2857142857142857
 40
0.2857142857142857
 40
0.2857142857142857
 40
0.2857142857142857
 40
0.3214285714285715
 40
0.3214285714285715
 40
0.3214285714285715
 40
0.3214285714285715
 40
0.3571428571428572
 40
0.3571428571428572
 40
0.3571428571428572
 40
0.3571428571428572
 40
0.3928571428571428
 40
0.3928571428571428
 40
0.3928571428571428
 40
0.3928571428571428
 40
0.4285714285714285
 40
0.4285714285714285
 40
0.4285714285714285
 40
0.4285714285714285
 40
0.4642857142857143
 40
0.4642857142857143
 40
0.4642857142857143
 40
0.4642857142857143
 40
0.5
 40
0.5
 40
0.5
 40
0.5
 40
0.5357142857142857
 40
0.5357142857142857
 40
0.5357142857142857
 40
0.5357142857142857
 40
0.5714285714285714
 40
0.5714285714285714
 40
0.5714285714285714
 40
0.5714285714285714
 40
0.6071428571428571
 40
0.6071428571428571
 40
0.6071428571428571
 40
0.6071428571428571
 40
0.6428571428571429
 40
0.6428571428571429
 40
0.6428571428571429
 40
0.6428571428571429
 40
0.6785714285714286
 40
0.6785714285714286
 40
0.6785714285714286
 40
0.6785714285714286
 40
0.7142857142857143
 40
0.7142857142857143
 40
0.7142857142857143
 40
0.7142857142857143
 40
0.75
 40
0.75
 40
0.75
 40
0.75
 40
0.7857142857142857
 40
0.7857142857142857
 40
0.7857142857142857
 40
0.7857142857142857
 40
0.8214285714285714
 40
0.8214285714285714
 40
0.8214285714285714
 40
0.8214285714285714
 40
0.8571428571428571
 40
0.8571428571428571
 40
0.8571428571428571
 40
0.8571428571428571
 40
0.8928571428571429
 40
0.8928571428571429
 40
0.8928571428571429
 40
0.8928571428571429
 40
0.9285714285714286
 40
0.9285714285714286
 40
0.9285714285714286
 40
0.9285714285714286
 40
1.0
 40
1.0
 40
1.0
 40
1.0
 10
-17.0595
 20
13.2426
 30
0.0
 10
-16.9814
 20
13.1504
 30
0.0
 10
-16.9264
 20
13.062
 30
0.0
 10
-16.894
 20
12.9773
 30
0.0
 10
-16.894
 20
12.9773
 30
0.0
 10
-16.862
 20
12.8922
 30
0.0
 10
-16.846
 20
12.8009
 30
0.0
 10
-16.846
 20
12.7036
 30
0.0
 10
-16.846
 20
12.7036
 30
0.0
 10
-16.846
 20
12.5427
 30
0.0
 10
-16.885
 20
12.4195
 30
0.0
 10
-16.9636
 20
12.3329
 30
0.0
 10
-16.9636
 20
12.3329
 30
0.0
 10
-17.0421
 20
12.2468
 30
0.0
 10
-17.1428
 20
12.2036
 30
0.0
 10
-17.2646
 20
12.2036
 30
0.0
 10
-17.2646
 20
12.2036
 30
0.0
 10
-17.3366
 20
12.2036
 30
0.0
 10
-17.4019
 20
12.2196
 30
0.0
 10
-17.4612
 20
12.2525
 30
0.0
 10
-17.4612
 20
12.2525
 30
0.0
 10
-17.5205
 20
12.2849
 30
0.0
 10
-17.568
 20
12.3277
 30
0.0
 10
-17.6037
 20
12.3804
 30
0.0
 10
-17.6037
 20
12.3804
 30
0.0
 10
-17.6395
 20
12.4336
 30
0.0
 10
-17.6668
 20
12.4928
 30
0.0
 10
-17.6851
 20
12.5592
 30
0.0
 10
-17.6851
 20
12.5592
 30
0.0
 10
-17.6978
 20
12.6076
 30
0.0
 10
-17.7105
 20
12.681
 30
0.0
 10
-17.7223
 20
12.7793
 30
0.0
 10
-17.7223
 20
12.7793
 30
0.0
 10
-17.7463
 20
12.9797
 30
0.0
 10
-17.7745
 20
13.1274
 30
0.0
 10
-17.8079
 20
13.2219
 30
0.0
 10
-17.8079
 20
13.2219
 30
0.0
 10
-17.8417
 20
13.2229
 30
0.0
 10
-17.8634
 20
13.2233
 30
0.0
 10
-17.8723
 20
13.2233
 30
0.0
 10
-17.8723
 20
13.2233
 30
0.0
 10
-17.9734
 20
13.2233
 30
0.0
 10
-18.0449
 20
13.1998
 30
0.0
 10
-18.0859
 20
13.1528
 30
0.0
 10
-18.0859
 20
13.1528
 30
0.0
 10
-18.1423
 20
13.0897
 30
0.0
 10
-18.1701
 20
12.9952
 30
0.0
 10
-18.1701
 20
12.8705
 30
0.0
 10
-18.1701
 20
12.8705
 30
0.0
 10
-18.1701
 20
12.7539
 30
0.0
 10
-18.1498
 20
12.6678
 30
0.0
 10
-18.1089
 20
12.6118
 30
0.0
 10
-18.1089
 20
12.6118
 30
0.0
 10
-18.068
 20
12.5563
 30
0.0
 10
-17.9956
 20
12.5154
 30
0.0
 10
-17.8916
 20
12.4886
 30
0.0
 10
-17.8916
 20
12.4886
 30
0.0
 10
-17.8916
 20
12.4886
 30
0.0
 10
-17.925
 20
12.2464
 30
0.0
 10
-17.925
 20
12.2464
 30
0.0
 10
-17.925
 20
12.2464
 30
0.0
 10
-18.0285
 20
12.2685
 30
0.0
 10
-18.1127
 20
12.3047
 30
0.0
 10
-18.1762
 20
12.355
 30
0.0
 10
-18.1762
 20
12.355
 30
0.0
 10
-18.2401
 20
12.4054
 30
0.0
 10
-18.2895
 20
12.4787
 30
0.0
 10
-18.3239
 20
12.5742
 30
0.0
 10
-18.3239
 20
12.5742
 30
0.0
 10
-18.3582
 20
12.6697
 30
0.0
 10
-18.3756
 20
12.7802
 30
0.0
 10
-18.3756
 20
12.9063
 30
0.0
 10
-18.3756
 20
12.9063
 30
0.0
 10
-18.3756
 20
13.0314
 30
0.0
 10
-18.3606
 20
13.1325
 30
0.0
 10
-18.3314
 20
13.2106
 30
0.0
 10
-18.3314
 20
13.2106
 30
0.0
 10
-18.3018
 20
13.2887
 30
0.0
 10
-18.2651
 20
13.3461
 30
0.0
 10
-18.2204
 20
13.3832
 30
0.0
 10
-18.2204
 20
13.3832
 30
0.0
 10
-18.1757
 20
13.4199
 30
0.0
 10
-18.1197
 20
13.4453
 30
0.0
 10
-18.0515
 20
13.4604
 30
0.0
 10
-18.0515
 20
13.4604
 30
0.0
 10
-18.0092
 20
13.4684
 30
0.0
 10
-17.933
 20
13.4726
 30
0.0
 10
-17.8229
 20
13.4726
 30
0.0
 10
-17.8229
 20
13.4726
 30
0.0
 10
-17.8229
 20
13.4726
 30
0.0
 10
-17.4923
 20
13.4726
 30
0.0
 10
-17.4923
 20
13.4726
 30
0.0
 10
-17.4923
 20
13.4726
 30
0.0
 10
-17.2613
 20
13.4726
 30
0.0
 10
-17.1155
 20
13.4778
 30
0.0
 10
-17.0548
 20
13.4886
 30
0.0
 10
-17.0548
 20
13.4886
 30
0.0
 10
-16.9937
 20
13.499
 30
0.0
 10
-16.9349
 20
13.5201
 30
0.0
 10
-16.8789
 20
13.5512
 30
0.0
 10
-16.8789
 20
13.5512
 30
0.0
 10
-16.8789
 20
13.5512
 30
0.0
 10
-16.8789
 20
13.292
 30
0.0
 10
-16.8789
 20
13.292
 30
0.0
 10
-16.8789
 20
13.292
 30
0.0
 10
-16.9302
 20
13.2666
 30
0.0
 10
-16.9904
 20
13.2497
 30
0.0
 10
-17.0595
 20
13.2426
 30
0.0
  0
SPLINE
  5
73
330
1F
100
AcDbEntity
  8
DEFAULT_1
 62
   250
100
AcDbSpline
210
0.0
220
0.0
230
1.0
 70
    11
 71
     3
 72
    44
 73
    40
 74
     0
 42
0.0000000001
 43
0.0000000001
 40
0.0
 40
0.0
 40
0.0
 40
0.0
 40
0.0909090909090909
 40
0.0909090909090909
 40
0.0909090909090909
 40
0.0909090909090909
 40
0.1818181818181818
 40
0.1818181818181818
 40
0.1818181818181818
 40
0.1818181818181818
 40
0.2727272727272727
 40
0.2727272727272727
 40
0.2727272727272727
 40
0.2727272727272727
 40
0.3636363636363636
 40
0.3636363636363636
 40
0.3636363636363636
 40
0.3636363636363636
 40
0.4545454545454545
 40
0.4545454545454545
 40
0.4545454545454545
 40
0.4545454545454545
 40
0.5454545454545454
 40
0.5454545454545454
 40
0.5454545454545454
 40
0.5454545454545454
 40
0.6363636363636364
 40
0.6363636363636364
 40
0.6363636363636364
 40
0.6363636363636364
 40
0.7272727272727273
 40
0.7272727272727273
 40
0.7272727272727273
 40
0.7272727272727273
 40
0.8181818181818182
 40
0.8181818181818182
 40
0.8181818181818182
 40
0.8181818181818182
 40
1.0
 40
1.0
 40
1.0
 40
1.0
 10
-17.6136
 20
13.2219
 30
0.0
 10
-17.5765
 20
13.1316
 30
0.0
 10
-17.5454
 20
12.9966
 30
0.0
 10
-17.5195
 20
12.8169
 30
0.0
 10
-17.5195
 20
12.8169
 30
0.0
 10
-17.505
 20
12.7149
 30
0.0
 10
-17.4885
 20
12.6424
 30
0.0
 10
-17.4702
 20
12.6006
 30
0.0
 10
-17.4702
 20
12.6006
 30
0.0
 10
-17.4518
 20
12.5582
 30
0.0
 10
-17.425
 20
12.5253
 30
0.0
 10
-17.3892
 20
12.5027
 30
0.0
 10
-17.3892
 20
12.5027
 30
0.0
 10
-17.354
 20
12.4797
 30
0.0
 10
-17.3149
 20
12.4679
 30
0.0
 10
-17.2717
 20
12.4679
 30
0.0
 10
-17.2717
 20
12.4679
 30
0.0
 10
-17.2053
 20
12.4679
 30
0.0
 10
-17.1503
 20
12.4933
 30
0.0
 10
-17.1061
 20
12.5432
 30
0.0
 10
-17.1061
 20
12.5432
 30
0.0
 10
-17.0623
 20
12.593
 30
0.0
 10
-17.0402
 20
12.6664
 30
0.0
 10
-17.0402
 20
12.7628
 30
0.0
 10
-17.0402
 20
12.7628
 30
0.0
 10
-17.0402
 20
12.8583
 30
0.0
 10
-17.0609
 20
12.9435
 30
0.0
 10
-17.1028
 20
13.0178
 30
0.0
 10
-17.1028
 20
13.0178
 30
0.0
 10
-17.1447
 20
13.0921
 30
0.0
 10
-17.202
 20
13.1471
 30
0.0
 10
-17.2745
 20
13.1819
 30
0.0
 10
-17.2745
 20
13.1819
 30
0.0
 10
-17.3305
 20
13.2087
 30
0.0
 10
-17.4132
 20
13.2219
 30
0.0
 10
-17.5224
 20
13.2219
 30
0.0
 10
-17.5224
 20
13.2219
 30
0.0
 10
-17.5224
 20
13.2219
 30
0.0
 10
-17.6136
 20
13.2219
 30
0.0
 10
-17.6136
 20
13.2219
 30
0.0
  0
SPLINE
  5
74
330
1F
100
AcDbEntity
  8
DEFAULT_1
 62
   250
100
AcDbSpline
210
0.0
220
0.0
230
1.0
 70
    11
 71
     3
 72
    64
 73
    60
 74
     0
 42
0.0000000001
 43
0.0000000001
 40
0.0
 40
0.0
 40
0.0
 40
0.0
 40
0.0625
 40
0.0625
 40
0.0625
 40
0.0625
 40
0.125
 40
0.125
 40
0.125
 40
0.125
 40
0.1875
 40
0.1875
 40
0.1875
 40
0.1875
 40
0.25
 40
0.25
 40
0.25
 40
0.25
 40
0.3125
 40
0.3125
 40
0.3125
 40
0.3125
 40
0.375
 40
0.375
 40
0.375
 40
0.375
 40
0.4375
 40
0.4375
 40
0.4375
 40
0.4375
 40
0.5
 40
0.5
 40
0.5
 40
0.5
 40
0.5625
 40
0.5625
 40
0.5625
 40
0.5625
 40
0.625
 40
0.625
 40
0.625
 40
0.625
 40
0.6875
 40
0.6875
 40
0.6875
 40
0.6875
 40
0.75
 40
0.75
 40
0.75
 40
0.75
 40
0.8125
 40
0.8125
 40
0.8125
 40
0.8125
 40
0.875
 40
0.875
 40
0.875
 40
0.875
 40
1.0
 40
1.0
 40
1.0
 40
1.0
 10
-16.8789
 20
13.6918
 30
0.0
 10
-16.8789
 20
13.6918
 30
0.0
 10
-17.6395
 20
14.2266
 30
0.0
 10
-17.6395
 20
14.2266
 30
0.0
 10
-17.6395
 20
14.2266
 30
0.0
 10
-17.6395
 20
14.2266
 30
0.0
 10
-18.3422
 20
13.7318
 30
0.0
 10
-18.3422
 20
13.7318
 30
0.0
 10
-18.3422
 20
13.7318
 30
0.0
 10
-18.3422
 20
13.7318
 30
0.0
 10
-18.3422
 20
14.0417
 30
0.0
 10
-18.3422
 20
14.0417
 30
0.0
 10
-18.3422
 20
14.0417
 30
0.0
 10
-18.3422
 20
14.0417
 30
0.0
 10
-17.9993
 20
14.2666
 30
0.0
 10
-17.9993
 20
14.2666
 30
0.0
 10
-17.9993
 20
14.2666
 30
0.0
 10
-17.9339
 20
14.3084
 30
0.0
 10
-17.8794
 20
14.3428
 30
0.0
 10
-17.8352
 20
14.3682
 30
0.0
 10
-17.8352
 20
14.3682
 30
0.0
 10
-17.8958
 20
14.4086
 30
0.0
 10
-17.9495
 20
14.4458
 30
0.0
 10
-17.9965
 20
14.4801
 30
0.0
 10
-17.9965
 20
14.4801
 30
0.0
 10
-17.9965
 20
14.4801
 30
0.0
 10
-18.3422
 20
14.7266
 30
0.0
 10
-18.3422
 20
14.7266
 30
0.0
 10
-18.3422
 20
14.7266
 30
0.0
 10
-18.3422
 20
14.7266
 30
0.0
 10
-18.3422
 20
15.0229
 30
0.0
 10
-18.3422
 20
15.0229
 30
0.0
 10
-18.3422
 20
15.0229
 30
0.0
 10
-18.3422
 20
15.0229
 30
0.0
 10
-17.6531
 20
14.5173
 30
0.0
 10
-17.6531
 20
14.5173
 30
0.0
 10
-17.6531
 20
14.5173
 30
0.0
 10
-17.6531
 20
14.5173
 30
0.0
 10
-16.8789
 20
15.0615
 30
0.0
 10
-16.8789
 20
15.0615
 30
0.0
 10
-16.8789
 20
15.0615
 30
0.0
 10
-16.8789
 20
15.0615
 30
0.0
 10
-16.8789
 20
14.7572
 30
0.0
 10
-16.8789
 20
14.7572
 30
0.0
 10
-16.8789
 20
14.7572
 30
0.0
 10
-16.8789
 20
14.7572
 30
0.0
 10
-17.3337
 20
14.4566
 30
0.0
 10
-17.3337
 20
14.4566
 30
0.0
 10
-17.3337
 20
14.4566
 30
0.0
 10
-17.3337
 20
14.4566
 30
0.0
 10
-17.4565
 20
14.3767
 30
0.0
 10
-17.4565
 20
14.3767
 30
0.0
 10
-17.4565
 20
14.3767
 30
0.0
 10
-17.4565
 20
14.3767
 30
0.0
 10
-16.8789
 20
13.9924
 30
0.0
 10
-16.8789
 20
13.9924
 30
0.0
 10
-16.8789
 20
13.9924
 30
0.0
 10
-16.8789
 20
13.9924
 30
0.0
 10
-16.8789
 20
13.6918
 30
0.0
 10
-16.8789
 20
13.6918
 30
0.0
  0
SPLINE
  5
75
330
1F
100
AcDbEntity
  8
DEFAULT_1
 62
   250
100
AcDbSpline
210
0.0
220
0.0
230
1.0
 70
    11
 71
     3
 72
    92
 73
    88
 74
     0
 42
0.0000000001
 43
0.0000000001
 40
0.0
 40
0.0
 40
0.0
 40
0.0
 40
0.0434782608695652
 40
0.0434782608695652
 40
0.0434782608695652
 40
0.0434782608695652
 40
0.0869565217391304
 40
0.0869565217391304
 40
0.0869565217391304
 40
0.0869565217391304
 40
0.1304347826086956
 40
0.1304347826086956
 40
0.1304347826086956
 40
0.1304347826086956
 40
0.1739130434782609
 40
0.1739130434782609
 40
0.1739130434782609
 40
0.1739130434782609
 40
0.2173913043478261
 40
0.2173913043478261
 40
0.2173913043478261
 40
0.2173913043478261
 40
0.2608695652173913
 40
0.2608695652173913
 40
0.2608695652173913
 40
0.2608695652173913
 40
0.3043478260869565
 40
0.3043478260869565
 40
0.3043478260869565
 40
0.3043478260869565
 40
0.3478260869565217
 40
0.3478260869565217
 40
0.3478260869565217
 40
0.3478260869565217
 40
0.391304347826087
 40
0.391304347826087
 40
0.391304347826087
 40
0.391304347826087
 40
0.4347826086956522
 40
0.4347826086956522
 40
0.4347826086956522
 40
0.4347826086956522
 40
0.4782608695652174
 40
0.4782608695652174
 40
0.4782608695652174
 40
0.4782608695652174
 40
0.5217391304347826
 40
0.5217391304347826
 40
0.5217391304347826
 40
0.5217391304347826
 40
0.5652173913043478
 40
0.5652173913043478
 40
0.5652173913043478
 40
0.5652173913043478
 40
0.6086956521739131
 40
0.6086956521739131
 40
0.6086956521739131
 40
0.6086956521739131
 40
0.6521739130434783
 40
0.6521739130434783
 40
0.6521739130434783
 40
0.6521739130434783
 40
0.6956521739130435
 40
0.6956521739130435
 40
0.6956521739130435
 40
0.6956521739130435
 40
0.7391304347826086
 40
0.7391304347826086
 40
0.7391304347826086
 40
0.7391304347826086
 40
0.782608695652174
 40
0.782608695652174
 40
0.782608695652174
 40
0.782608695652174
 40
0.8260869565217391
 40
0.8260869565217391
 40
0.8260869565217391
 40
0.8260869565217391
 40
0.8695652173913043
 40
0.8695652173913043
 40
0.8695652173913043
 40
0.8695652173913043
 40
0.9130434782608695
 40
0.9130434782608695
 40
0.9130434782608695
 40
0.9130434782608695
 40
1.0
 40
1.0
 40
1.0
 40
1.0
 10
-17.4081
 20
15.9834
 30
0.0
 10
-17.4081
 20
15.9834
 30
0.0
 10
-17.4302
 20
16.244
 30
0.0
 10
-17.4302
 20
16.244
 30
0.0
 10
-17.4302
 20
16.244
 30
0.0
 10
-17.3032
 20
16.2633
 30
0.0
 10
-17.2082
 20
16.308
 30
0.0
 10
-17.1442
 20
16.3781
 30
0.0
 10
-17.1442
 20
16.3781
 30
0.0
 10
-17.0802
 20
16.4486
 30
0.0
 10
-17.0482
 20
16.5333
 30
0.0
 10
-17.0482
 20
16.6325
 30
0.0
 10
-17.0482
 20
16.6325
 30
0.0
 10
-17.0482
 20
16.752
 30
0.0
 10
-17.0934
 20
16.8531
 30
0.0
 10
-17.1832
 20
16.9354
 30
0.0
 10
-17.1832
 20
16.9354
 30
0.0
 10
-17.2735
 20
17.0182
 30
0.0
 10
-17.393
 20
17.0596
 30
0.0
 10
-17.5416
 20
17.0596
 30
0.0
 10
-17.5416
 20
17.0596
 30
0.0
 10
-17.6832
 20
17.0596
 30
0.0
 10
-17.7947
 20
17.0201
 30
0.0
 10
-17.8765
 20
16.9406
 30
0.0
 10
-17.8765
 20
16.9406
 30
0.0
 10
-17.9584
 20
16.8611
 30
0.0
 10
-17.9993
 20
16.7572
 30
0.0
 10
-17.9993
 20
16.6283
 30
0.0
 10
-17.9993
 20
16.6283
 30
0.0
 10
-17.9993
 20
16.5483
 30
0.0
 10
-17.981
 20
16.4764
 30
0.0
 10
-17.9448
 20
16.4119
 30
0.0
 10
-17.9448
 20
16.4119
 30
0.0
 10
-17.9085
 20
16.3475
 30
0.0
 10
-17.8615
 20
16.2972
 30
0.0
 10
-17.8036
 20
16.2605
 30
0.0
 10
-17.8036
 20
16.2605
 30
0.0
 10
-17.8036
 20
16.2605
 30
0.0
 10
-17.8337
 20
16.0276
 30
0.0
 10
-17.8337
 20
16.0276
 30
0.0
 10
-17.8337
 20
16.0276
 30
0.0
 10
-17.8337
 20
16.0276
 30
0.0
 10
-18.8714
 20
16.2233
 30
0.0
 10
-18.8714
 20
16.2233
 30
0.0
 10
-18.8714
 20
16.2233
 30
0.0
 10
-18.8714
 20
16.2233
 30
0.0
 10
-18.8714
 20
17.228
 30
0.0
 10
-18.8714
 20
17.228
 30
0.0
 10
-18.8714
 20
17.228
 30
0.0
 10
-18.8714
 20
17.228
 30
0.0
 10
-18.6343
 20
17.228
 30
0.0
 10
-18.6343
 20
17.228
 30
0.0
 10
-18.6343
 20
17.228
 30
0.0
 10
-18.6343
 20
17.228
 30
0.0
 10
-18.6343
 20
16.4218
 30
0.0
 10
-18.6343
 20
16.4218
 30
0.0
 10
-18.6343
 20
16.4218
 30
0.0
 10
-18.6343
 20
16.4218
 30
0.0
 10
-18.0915
 20
16.3127
 30
0.0
 10
-18.0915
 20
16.3127
 30
0.0
 10
-18.0915
 20
16.3127
 30
0.0
 10
-18.1762
 20
16.434
 30
0.0
 10
-18.2185
 20
16.5615
 30
0.0
 10
-18.2185
 20
16.6946
 30
0.0
 10
-18.2185
 20
16.6946
 30
0.0
 10
-18.2185
 20
16.871
 30
0.0
 10
-18.1574
 20
17.0196
 30
0.0
 10
-18.0351
 20
17.141
 30
0.0
 10
-18.0351
 20
17.141
 30
0.0
 10
-17.9128
 20
17.2623
 30
0.0
 10
-17.7557
 20
17.323
 30
0.0
 10
-17.5638
 20
17.323
 30
0.0
 10
-17.5638
 20
17.323
 30
0.0
 10
-17.3808
 20
17.323
 30
0.0
 10
-17.2227
 20
17.2694
 30
0.0
 10
-17.0896
 20
17.1631
 30
0.0
 10
-17.0896
 20
17.1631
 30
0.0
 10
-16.9264
 20
17.0333
 30
0.0
 10
-16.8446
 20
16.8564
 30
0.0
 10
-16.8446
 20
16.6325
 30
0.0
 10
-16.8446
 20
16.6325
 30
0.0
 10
-16.8446
 20
16.4486
 30
0.0
 10
-16.8958
 20
16.2986
 30
0.0
 10
-16.9988
 20
16.1824
 30
0.0
 10
-16.9988
 20
16.1824
 30
0.0
 10
-17.1019
 20
16.0662
 30
0.0
 10
-17.2383
 20
15.9999
 30
0.0
 10
-17.4081
 20
15.9834
 30
0.0
  0
SPLINE
  5
76
330
1F
100
AcDbEntity
  8
DEFAULT_1
 62
   250
100
AcDbSpline
210
0.0
220
0.0
230
1.0
 70
    11
 71
     3
 72
    52
 73
    48
 74
     0
 42
0.0000000001
 43
0.0000000001
 40
0.0
 40
0.0
 40
0.0
 40
0.0
 40
0.0769230769230769
 40
0.0769230769230769
 40
0.0769230769230769
 40
0.0769230769230769
 40
0.1538461538461539
 40
0.1538461538461539
 40
0.1538461538461539
 40
0.1538461538461539
 40
0.2307692307692308
 40
0.2307692307692308
 40
0.2307692307692308
 40
0.2307692307692308
 40
0.3076923076923077
 40
0.3076923076923077
 40
0.3076923076923077
 40
0.3076923076923077
 40
0.3846153846153846
 40
0.3846153846153846
 40
0.3846153846153846
 40
0.3846153846153846
 40
0.4615384615384616
 40
0.4615384615384616
 40
0.4615384615384616
 40
0.4615384615384616
 40
0.5384615384615384
 40
0.5384615384615384
 40
0.5384615384615384
 40
0.5384615384615384
 40
0.6153846153846154
 40
0.6153846153846154
 40
0.6153846153846154
 40
0.6153846153846154
 40
0.6923076923076923
 40
0.6923076923076923
 40
0.6923076923076923
 40
0.6923076923076923
 40
0.7692307692307693
 40
0.7692307692307693
 40
0.7692307692307693
 40
0.7692307692307693
 40
0.8461538461538461
 40
0.8461538461538461
 40
0.8461538461538461
 40
0.8461538461538461
 40
1.0
 40
1.0
 40
1.0
 40
1.0
 10
-17.8751
 20
17.553
 30
0.0
 10
-18.1141
 20
17.553
 30
0.0
 10
-18.3065
 20
17.5775
 30
0.0
 10
-18.4518
 20
17.6269
 30
0.0
 10
-18.4518
 20
17.6269
 30
0.0
 10
-18.5976
 20
17.6758
 30
0.0
 10
-18.71
 20
17.7492
 30
0.0
 10
-18.7891
 20
17.8461
 30
0.0
 10
-18.7891
 20
17.8461
 30
0.0
 10
-18.8681
 20
17.943
 30
0.0
 10
-18.9076
 20
18.0648
 30
0.0
 10
-18.9076
 20
18.2115
 30
0.0
 10
-18.9076
 20
18.2115
 30
0.0
 10
-18.9076
 20
18.3202
 30
0.0
 10
-18.8855
 20
18.4152
 30
0.0
 10
-18.8417
 20
18.497
 30
0.0
 10
-18.8417
 20
18.497
 30
0.0
 10
-18.7985
 20
18.5789
 30
0.0
 10
-18.7354
 20
18.6462
 30
0.0
 10
-18.6531
 20
18.6998
 30
0.0
 10
-18.6531
 20
18.6998
 30
0.0
 10
-18.5708
 20
18.7529
 30
0.0
 10
-18.4706
 20
18.7948
 30
0.0
 10
-18.3526
 20
18.8249
 30
0.0
 10
-18.3526
 20
18.8249
 30
0.0
 10
-18.2345
 20
18.8555
 30
0.0
 10
-18.0755
 20
18.8705
 30
0.0
 10
-17.8751
 20
18.8705
 30
0.0
 10
-17.8751
 20
18.8705
 30
0.0
 10
-17.6381
 20
18.8705
 30
0.0
 10
-17.4471
 20
18.8461
 30
0.0
 10
-17.3013
 20
18.7976
 30
0.0
 10
-17.3013
 20
18.7976
 30
0.0
 10
-17.1555
 20
18.7487
 30
0.0
 10
-17.0431
 20
18.6758
 30
0.0
 10
-16.9636
 20
18.5789
 30
0.0
 10
-16.9636
 20
18.5789
 30
0.0
 10
-16.8841
 20
18.482
 30
0.0
 10
-16.8446
 20
18.3597
 30
0.0
 10
-16.8446
 20
18.2115
 30
0.0
 10
-16.8446
 20
18.2115
 30
0.0
 10
-16.8446
 20
18.0168
 30
0.0
 10
-16.9142
 20
17.8639
 30
0.0
 10
-17.0539
 20
17.7529
 30
0.0
 10
-17.0539
 20
17.7529
 30
0.0
 10
-17.2218
 20
17.6198
 30
0.0
 10
-17.496
 20
17.553
 30
0.0
 10
-17.8751
 20
17.553
 30
0.0
  0
SPLINE
  5
77
330
1F
100
AcDbEntity
  8
DEFAULT_1
 62
   250
100
AcDbSpline
210
0.0
220
0.0
230
1.0
 70
    11
 71
     3
 72
    36
 73
    32
 74
     0
 42
0.0000000001
 43
0.0000000001
 40
0.0
 40
0.0
 40
0.0
 40
0.0
 40
0.1111111111111111
 40
0.1111111111111111
 40
0.1111111111111111
 40
0.1111111111111111
 40
0.2222222222222222
 40
0.2222222222222222
 40
0.2222222222222222
 40
0.2222222222222222
 40
0.3333333333333333
 40
0.3333333333333333
 40
0.3333333333333333
 40
0.3333333333333333
 40
0.4444444444444444
 40
0.4444444444444444
 40
0.4444444444444444
 40
0.4444444444444444
 40
0.5555555555555556
 40
0.5555555555555556
 40
0.5555555555555556
 40
0.5555555555555556
 40
0.6666666666666666
 40
0.6666666666666666
 40
0.6666666666666666
 40
0.6666666666666666
 40
0.7777777777777778
 40
0.7777777777777778
 40
0.7777777777777778
 40
0.7777777777777778
 40
1.0
 40
1.0
 40
1.0
 40
1.0
 10
-17.8751
 20
17.808
 30
0.0
 10
-17.5435
 20
17.808
 30
0.0
 10
-17.3229
 20
17.847
 30
0.0
 10
-17.2129
 20
17.9246
 30
0.0
 10
-17.2129
 20
17.9246
 30
0.0
 10
-17.1033
 20
18.0022
 30
0.0
 10
-17.0482
 20
18.0977
 30
0.0
 10
-17.0482
 20
18.2115
 30
0.0
 10
-17.0482
 20
18.2115
 30
0.0
 10
-17.0482
 20
18.3258
 30
0.0
 10
-17.1037
 20
18.4213
 30
0.0
 10
-17.2138
 20
18.4989
 30
0.0
 10
-17.2138
 20
18.4989
 30
0.0
 10
-17.3239
 20
18.5765
 30
0.0
 10
-17.5445
 20
18.6156
 30
0.0
 10
-17.8751
 20
18.6156
 30
0.0
 10
-17.8751
 20
18.6156
 30
0.0
 10
-18.2077
 20
18.6156
 30
0.0
 10
-18.4288
 20
18.5765
 30
0.0
 10
-18.5379
 20
18.4989
 30
0.0
 10
-18.5379
 20
18.4989
 30
0.0
 10
-18.6475
 20
18.4213
 30
0.0
 10
-18.702
 20
18.3249
 30
0.0
 10
-18.702
 20
18.2092
 30
0.0
 10
-18.702
 20
18.2092
 30
0.0
 10
-18.702
 20
18.0949
 30
0.0
 10
-18.6536
 20
18.0041
 30
0.0
 10
-18.5572
 20
17.9359
 30
0.0
 10
-18.5572
 20
17.9359
 30
0.0
 10
-18.4344
 20
17.8508
 30
0.0
 10
-18.2067
 20
17.808
 30
0.0
 10
-17.8751
 20
17.808
 30
0.0
  0
SPLINE
  5
78
330
1F
100
AcDbEntity
  8
DEFAULT_1
 62
   250
100
AcDbSpline
210
0.0
220
0.0
230
1.0
 70
    11
 71
     3
 72
    48
 73
    44
 74
     0
 42
0.0000000001
 43
0.0000000001
 40
0.0
 40
0.0
 40
0.0
 40
0.0
 40
0.0833333333333333
 40
0.0833333333333333
 40
0.0833333333333333
 40
0.0833333333333333
 40
0.1666666666666667
 40
0.1666666666666667
 40
0.1666666666666667
 40
0.1666666666666667
 40
0.25
 40
0.25
 40
0.25
 40
0.25
 40
0.3333333333333333
 40
0.3333333333333333
 40
0.3333333333333333
 40
0.3333333333333333
 40
0.4166666666666667
 40
0.4166666666666667
 40
0.4166666666666667
 40
0.4166666666666667
 40
0.5
 40
0.5
 40
0.5
 40
0.5
 40
0.5833333333333334
 40
0.5833333333333334
 40
0.5833333333333334
 40
0.5833333333333334
 40
0.6666666666666666
 40
0.6666666666666666
 40
0.6666666666666666
 40
0.6666666666666666
 40
0.75
 40
0.75
 40
0.75
 40
0.75
 40
0.8333333333333334
 40
0.8333333333333334
 40
0.8333333333333334
 40
0.8333333333333334
 40
1.0
 40
1.0
 40
1.0
 40
1.0
 10
16.2141
 20
19.0679
 30
0.0
 10
16.2141
 20
19.0679
 30
0.0
 10
15.9756
 20
19.0679
 30
0.0
 10
15.9756
 20
19.0679
 30
0.0
 10
15.9756
 20
19.0679
 30
0.0
 10
15.9756
 20
19.0679
 30
0.0
 10
15.9756
 20
20.3755
 30
0.0
 10
15.9756
 20
20.3755
 30
0.0
 10
15.9756
 20
20.3755
 30
0.0
 10
15.9756
 20
20.3755
 30
0.0
 10
16.1685
 20
20.3755
 30
0.0
 10
16.1685
 20
20.3755
 30
0.0
 10
16.1685
 20
20.3755
 30
0.0
 10
16.3053
 20
20.2471
 30
0.0
 10
16.4874
 20
20.1196
 30
0.0
 10
16.7141
 20
19.9931
 30
0.0
 10
16.7141
 20
19.9931
 30
0.0
 10
16.9408
 20
19.867
 30
0.0
 10
17.1746
 20
19.7692
 30
0.0
 10
17.414
 20
19.7005
 30
0.0
 10
17.414
 20
19.7005
 30
0.0
 10
17.5833
 20
19.6507
 30
0.0
 10
17.7682
 20
19.6192
 30
0.0
 10
17.9695
 20
19.6055
 30
0.0
 10
17.9695
 20
19.6055
 30
0.0
 10
17.9695
 20
19.6055
 30
0.0
 10
17.9695
 20
19.3506
 30
0.0
 10
17.9695
 20
19.3506
 30
0.0
 10
17.9695
 20
19.3506
 30
0.0
 10
17.8105
 20
19.3534
 30
0.0
 10
17.6186
 20
19.3844
 30
0.0
 10
17.3933
 20
19.4442
 30
0.0
 10
17.3933
 20
19.4442
 30
0.0
 10
17.1685
 20
19.5039
 30
0.0
 10
16.9512
 20
19.5895
 30
0.0
 10
16.7423
 20
19.701
 30
0.0
 10
16.7423
 20
19.701
 30
0.0
 10
16.5335
 20
19.8129
 30
0.0
 10
16.3571
 20
19.9315
 30
0.0
 10
16.2141
 20
20.0575
 30
0.0
 10
16.2141
 20
20.0575
 30
0.0
 10
16.2141
 20
20.0575
 30
0.0
 10
16.2141
 20
19.0679
 30
0.0
 10
16.2141
 20
19.0679
 30
0.0
  0
SPLINE
  5
79
330
1F
100
AcDbEntity
  8
DEFAULT_1
 62
   250
100
AcDbSpline
210
0.0
220
0.0
230
1.0
 70
    11
 71
     3
 72
    20
 73
    16
 74
     0
 42
0.0000000001
 43
0.0000000001
 40
0.0
 40
0.0
 40
0.0
 40
0.0
 40
0.2
 40
0.2
 40
0.2
 40
0.2
 40
0.4
 40
0.4
 40
0.4
 40
0.4
 40
0.6
 40
0.6
 40
0.6
 40
0.6
 40
1.0
 40
1.0
 40
1.0
 40
1.0
 10
-16.3597
 20
7.0211
 30
0.0
 10
-16.3597
 20
7.0211
 30
0.0
 10
-15.9363
 20
10.0211
 30
0.0
 10
-15.9363
 20
10.0211
 30
0.0
 10
-15.9363
 20
10.0211
 30
0.0
 10
-15.9363
 20
10.0211
 30
0.0
 10
-15.8423
 20
10.0211
 30
0.0
 10
-15.8423
 20
10.0211
 30
0.0
 10
-15.8423
 20
10.0211
 30
0.0
 10
-15.8423
 20
10.0211
 30
0.0
 10
-15.3907
 20
7.0211
 30
0.0
 10
-15.3907
 20
7.0211
 30
0.0
 10
-15.3907
 20
7.0211
 30
0.0
 10
-15.3907
 20
7.0211
 30
0.0
 10
-16.3597
 20
7.0211
 30
0.0
 10
-16.3597
 20
7.0211
 30
0.0
  0
SPLINE
  5
7A
330
1F
100
AcDbEntity
  8
DEFAULT_1
 62
   250
100
AcDbSpline
210
0.0
220
0.0
230
1.0
 70
    11
 71
     3
 72
    20
 73
    16
 74
     0
 42
0.0000000001
 43
0.0000000001
 40
0.0
 40
0.0
 40
0.0
 40
0.0
 40
0.2
 40
0.2
 40
0.2
 40
0.2
 40
0.4
 40
0.4
 40
0.4
 40
0.4
 40
0.6
 40
0.6
 40
0.6
 40
0.6
 40
1.0
 40
1.0
 40
1.0
 40
1.0
 10
17.9387
 20
15.1715
 30
0.0
 10
17.9387
 20
15.1715
 30
0.0
 10
18.3621
 20
18.1715
 30
0.0
 10
18.3621
 20
18.1715
 30
0.0
 10
18.3621
 20
18.1715
 30
0.0
 10
18.3621
 20
18.1715
 30
0.0
 10
18.4561
 20
18.1715
 30
0.0
 10
18.4561
 20
18.1715
 30
0.0
 10
18.4561
 20
18.1715
 30
0.0
 10
18.4561
 20
18.1715
 30
0.0
 10
18.9077
 20
15.1715
 30
0.0
 10
18.9077
 20
15.1715
 30
0.0
 10
18.9077
 20
15.1715
 30
0.0
 10
18.9077
 20
15.1715
 30
0.0
 10
17.9387
 20
15.1715
 30
0.0
 10
17.9387
 20
15.1715
 30
0.0
  0
SPLINE
  5
7B
330
1F
100
AcDbEntity
  8
DEFAULT_1
 62
   250
100
AcDbSpline
210
0.0
220
0.0
230
1.0
 70
    11
 71
     3
 72
    20
 73
    16
 74
     0
 42
0.0000000001
 43
0.0000000001
 40
0.0
 40
0.0
 40
0.0
 40
0.0
 40
0.2
 40
0.2
 40
0.2
 40
0.2
 40
0.4
 40
0.4
 40
0.4
 40
0.4
 40
0.6
 40
0.6
 40
0.6
 40
0.6
 40
1.0
 40
1.0
 40
1.0
 40
1.0
 10
-15.4524
 20
-14.215
 30
0.0
 10
-15.4524
 20
-14.215
 30
0.0
 10
-15.8758
 20
-17.215
 30
0.0
 10
-15.8758
 20
-17.215
 30
0.0
 10
-15.8758
 20
-17.215
 30
0.0
 10
-15.8758
 20
-17.215
 30
0.0
 10
-15.9698
 20
-17.215
 30
0.0
 10
-15.9698
 20
-17.215
 30
0.0
 10
-15.9698
 20
-17.215
 30
0.0
 10
-15.9698
 20
-17.215
 30
0.0
 10
-16.4214
 20
-14.215
 30
0.0
 10
-16.4214
 20
-14.215
 30
0.0
 10
-16.4214
 20
-14.215
 30
0.0
 10
-16.4214
 20
-14.215
 30
0.0
 10
-15.4524
 20
-14.215
 30
0.0
 10
-15.4524
 20
-14.215
 30
0.0
  0
SPLINE
  5
7C
330
1F
100
AcDbEntity
  8
DEFAULT_1
 62
   250
100
AcDbSpline
210
0.0
220
0.0
230
1.0
 70
    11
 71
     3
 72
    20
 73
    16
 74
     0
 42
0.0000000001
 43
0.0000000001
 40
0.0
 40
0.0
 40
0.0
 40
0.0
 40
0.2
 40
0.2
 40
0.2
 40
0.2
 40
0.4
 40
0.4
 40
0.4
 40
0.4
 40
0.6
 40
0.6
 40
0.6
 40
0.6
 40
1.0
 40
1.0
 40
1.0
 40
1.0
 10
-15.4168
 20
21.4214
 30
0.0
 10
-15.4168
 20
21.4214
 30
0.0
 10
-15.8402
 20
18.4213
 30
0.0
 10
-15.8402
 20
18.4213
 30
0.0
 10
-15.8402
 20
18.4213
 30
0.0
 10
-15.8402
 20
18.4213
 30
0.0
 10
-15.9342
 20
18.4213
 30
0.0
 10
-15.9342
 20
18.4213
 30
0.0
 10
-15.9342
 20
18.4213
 30
0.0
 10
-15.9342
 20
18.4213
 30
0.0
 10
-16.3858
 20
21.4214
 30
0.0
 10
-16.3858
 20
21.4214
 30
0.0
 10
-16.3858
 20
21.4214
 30
0.0
 10
-16.3858
 20
21.4214
 30
0.0
 10
-15.4168
 20
21.4214
 30
0.0
 10
-15.4168
 20
21.4214
 30
0.0
  0
SPLINE
  5
7D
330
1F
100
AcDbEntity
  8
DEFAULT_1
 62
   250
100
AcDbSpline
210
0.0
220
0.0
230
1.0
 70
    11
 71
     3
 72
    20
 73
    16
 74
     0
 42
0.0000000001
 43
0.0000000001
 40
0.0
 40
0.0
 40
0.0
 40
0.0
 40
0.2
 40
0.2
 40
0.2
 40
0.2
 40
0.4
 40
0.4
 40
0.4
 40
0.4
 40
0.6
 40
0.6
 40
0.6
 40
0.6
 40
1.0
 40
1.0
 40
1.0
 40
1.0
 10
18.8609
 20
24.1891
 30
0.0
 10
18.8609
 20
24.1891
 30
0.0
 10
18.4375
 20
21.189
 30
0.0
 10
18.4375
 20
21.189
 30
0.0
 10
18.4375
 20
21.189
 30
0.0
 10
18.4375
 20
21.189
 30
0.0
 10
18.3435
 20
21.189
 30
0.0
 10
18.3435
 20
21.189
 30
0.0
 10
18.3435
 20
21.189
 30
0.0
 10
18.3435
 20
21.189
 30
0.0
 10
17.8919
 20
24.1891
 30
0.0
 10
17.8919
 20
24.1891
 30
0.0
 10
17.8919
 20
24.1891
 30
0.0
 10
17.8919
 20
24.1891
 30
0.0
 10
18.8609
 20
24.1891
 30
0.0
 10
18.8609
 20
24.1891
 30
0.0
  0
SPLINE
  5
7E
330
1F
100
AcDbEntity
  8
DEFAULT_1
 62
   250
100
AcDbSpline
210
0.0
220
0.0
230
1.0
 70
    11
 71
     3
 72
    20
 73
    16
 74
     0
 42
0.0000000001
 43
0.0000000001
 40
0.0
 40
0.0
 40
0.0
 40
0.0
 40
0.2
 40
0.2
 40
0.2
 40
0.2
 40
0.4
 40
0.4
 40
0.4
 40
0.4
 40
0.6
 40
0.6
 40
0.6
 40
0.6
 40
1.0
 40
1.0
 40
1.0
 40
1.0
 10
-11.0844
 20
-20.5187
 30
0.0
 10
-11.0844
 20
-20.5187
 30
0.0
 10
-10.661
 20
-17.5187
 30
0.0
 10
-10.661
 20
-17.5187
 30
0.0
 10
-10.661
 20
-17.5187
 30
0.0
 10
-10.661
 20
-17.5187
 30
0.0
 10
-10.5669
 20
-17.5187
 30
0.0
 10
-10.5669
 20
-17.5187
 30
0.0
 10
-10.5669
 20
-17.5187
 30
0.0
 10
-10.5669
 20
-17.5187
 30
0.0
 10
-10.1154
 20
-20.5187
 30
0.0
 10
-10.1154
 20
-20.5187
 30
0.0
 10
-10.1154
 20
-20.5187
 30
0.0
 10
-10.1154
 20
-20.5187
 30
0.0
 10
-11.0844
 20
-20.5187
 30
0.0
 10
-11.0844
 20
-20.5187
 30
0.0
  0
SPLINE
  5
7F
330
1F
100
AcDbEntity
  8
DEFAULT_1
 62
   250
100
AcDbSpline
210
0.0
220
0.0
230
1.0
 70
    11
 71
     3
 72
    20
 73
    16
 74
     0
 42
0.0000000001
 43
0.0000000001
 40
0.0
 40
0.0
 40
0.0
 40
0.0
 40
0.2
 40
0.2
 40
0.2
 40
0.2
 40
0.4
 40
0.4
 40
0.4
 40
0.4
 40
0.6
 40
0.6
 40
0.6
 40
0.6
 40
1.0
 40
1.0
 40
1.0
 40
1.0
 10
-10.1521
 20
-9.9658
 30
0.0
 10
-10.1521
 20
-9.9658
 30
0.0
 10
-10.5754
 20
-12.9659
 30
0.0
 10
-10.5754
 20
-12.9659
 30
0.0
 10
-10.5754
 20
-12.9659
 30
0.0
 10
-10.5754
 20
-12.9659
 30
0.0
 10
-10.6695
 20
-12.9659
 30
0.0
 10
-10.6695
 20
-12.9659
 30
0.0
 10
-10.6695
 20
-12.9659
 30
0.0
 10
-10.6695
 20
-12.9659
 30
0.0
 10
-11.121
 20
-9.9658
 30
0.0
 10
-11.121
 20
-9.9658
 30
0.0
 10
-11.121
 20
-9.9658
 30
0.0
 10
-11.121
 20
-9.9658
 30
0.0
 10
-10.1521
 20
-9.9658
 30
0.0
 10
-10.1521
 20
-9.9658
 30
0.0
  0
SPLINE
  5
80
330
1F
100
AcDbEntity
  8
DEFAULT_1
 62
   250
100
AcDbSpline
210
0.0
220
0.0
230
1.0
 70
    24
 71
     3
 72
     8
 73
     4
 74
     0
 42
0.0000000001
 43
0.0000000001
 40
0.0
 40
0.0
 40
0.0
 40
0.0
 40
1.0
 40
1.0
 40
1.0
 40
1.0
 10
14.2959
 20
21.8991
 30
0.0
 10
14.2959
 20
21.8991
 30
0.0
 10
14.2959
 20
25.7768
 30
0.0
 10
14.2959
 20
25.7768
 30
0.0
  0
SPLINE
  5
81
330
1F
100
AcDbEntity
  8
DEFAULT_1
 62
   250
100
AcDbSpline
210
0.0
220
0.0
230
1.0
 70
    24
 71
     3
 72
     8
 73
     4
 74
     0
 42
0.0000000001
 43
0.0000000001
 40
0.0
 40
0.0
 40
0.0
 40
0.0
 40
1.0
 40
1.0
 40
1.0
 40
1.0
 10
-10.6971
 20
21.8586
 30
0.0
 10
-10.6971
 20
21.8586
 30
0.0
 10
-10.6971
 20
25.8346
 30
0.0
 10
-10.6971
 20
25.8346
 30
0.0
  0
SPLINE
  5
82
330
1F
100
AcDbEntity
  8
DEFAULT_1
 62
   250
100
AcDbSpline
210
0.0
220
0.0
230
1.0
 70
    24
 71
     3
 72
     8
 73
     4
 74
     0
 42
0.0000000001
 43
0.0000000001
 40
0.0
 40
0.0
 40
0.0
 40
0.0
 40
1.0
 40
1.0
 40
1.0
 40
1.0
 10
-10.5776
 20
25.1661
 30
0.0
 10
-10.5776
 20
25.1661
 30
0.0
 10
13.763
 20
25.1661
 30
0.0
 10
13.763
 20
25.1661
 30
0.0
  0
SPLINE
  5
83
330
1F
100
AcDbEntity
  8
DEFAULT_1
 62
   250
100
AcDbSpline
210
0.0
220
0.0
230
1.0
 70
    11
 71
     3
 72
    20
 73
    16
 74
     0
 42
0.0000000001
 43
0.0000000001
 40
0.0
 40
0.0
 40
0.0
 40
0.0
 40
0.2
 40
0.2
 40
0.2
 40
0.2
 40
0.4
 40
0.4
 40
0.4
 40
0.4
 40
0.6
 40
0.6
 40
0.6
 40
0.6
 40
1.0
 40
1.0
 40
1.0
 40
1.0
 10
11.2176
 20
25.6422
 30
0.0
 10
11.2176
 20
25.6422
 30
0.0
 10
14.2177
 20
25.2188
 30
0.0
 10
14.2177
 20
25.2188
 30
0.0
 10
14.2177
 20
25.2188
 30
0.0
 10
14.2177
 20
25.2188
 30
0.0
 10
14.2177
 20
25.1248
 30
0.0
 10
14.2177
 20
25.1248
 30
0.0
 10
14.2177
 20
25.1248
 30
0.0
 10
14.2177
 20
25.1248
 30
0.0
 10
11.2176
 20
24.6732
 30
0.0
 10
11.2176
 20
24.6732
 30
0.0
 10
11.2176
 20
24.6732
 30
0.0
 10
11.2176
 20
24.6732
 30
0.0
 10
11.2176
 20
25.6422
 30
0.0
 10
11.2176
 20
25.6422
 30
0.0
  0
SPLINE
  5
84
330
1F
100
AcDbEntity
  8
DEFAULT_1
 62
   250
100
AcDbSpline
210
0.0
220
0.0
230
1.0
 70
    11
 71
     3
 72
    20
 73
    16
 74
     0
 42
0.0000000001
 43
0.0000000001
 40
0.0
 40
0.0
 40
0.0
 40
0.0
 40
0.2
 40
0.2
 40
0.2
 40
0.2
 40
0.4
 40
0.4
 40
0.4
 40
0.4
 40
0.6
 40
0.6
 40
0.6
 40
0.6
 40
1.0
 40
1.0
 40
1.0
 40
1.0
 10
-7.6281
 20
24.7068
 30
0.0
 10
-7.6281
 20
24.7068
 30
0.0
 10
-10.6281
 20
25.1302
 30
0.0
 10
-10.6281
 20
25.1302
 30
0.0
 10
-10.6281
 20
25.1302
 30
0.0
 10
-10.6281
 20
25.1302
 30
0.0
 10
-10.6281
 20
25.2242
 30
0.0
 10
-10.6281
 20
25.2242
 30
0.0
 10
-10.6281
 20
25.2242
 30
0.0
 10
-10.6281
 20
25.2242
 30
0.0
 10
-7.6281
 20
25.6758
 30
0.0
 10
-7.6281
 20
25.6758
 30
0.0
 10
-7.6281
 20
25.6758
 30
0.0
 10
-7.6281
 20
25.6758
 30
0.0
 10
-7.6281
 20
24.7068
 30
0.0
 10
-7.6281
 20
24.7068
 30
0.0
  0
SPLINE
  5
85
330
1F
100
AcDbEntity
  8
DEFAULT_1
  6
NEW_LINE1
 62
   250
100
AcDbSpline
210
0.0
220
0.0
230
1.0
 70
    24
 71
     3
 72
     8
 73
     4
 74
     0
 42
0.0000000001
 43
0.0000000001
 40
0.0
 40
0.0
 40
0.0
 40
0.0
 40
1.0
 40
1.0
 40
1.0
 40
1.0
 10
1.7777
 20
-18.1407
 30
0.0
 10
1.7777
 20
-18.1407
 30
0.0
 10
1.7777
 20
24.2833
 30
0.0
 10
1.7777
 20
24.2833
 30
0.0
  0
SPLINE
  5
87
330
1F
100
AcDbEntity
  8
DEFAULT_1
 62
   250
100
AcDbSpline
210
0.0
220
0.0
230
1.0
 70
    24
 71
     3
 72
     8
 73
     4
 74
     0
 42
0.0000000001
 43
0.0000000001
 40
0.0
 40
0.0
 40
0.0
 40
0.0
 40
1.0
 40
1.0
 40
1.0
 40
1.0
 10
-6.1411
 20
14.8823
 30
0.0
 10
-6.1411
 20
14.8823
 30
0.0
 10
9.7846
 20
15.5579
 30
0.0
 10
9.7846
 20
15.5579
 30
0.0
  0
SPLINE
  5
88
330
1F
100
AcDbEntity
  8
DEFAULT_1
 62
   250
100
AcDbSpline
210
0.0
220
0.0
230
1.0
 70
    24
 71
     3
 72
     8
 73
     4
 74
     0
 42
0.0000000001
 43
0.0000000001
 40
0.0
 40
0.0
 40
0.0
 40
0.0
 40
1.0
 40
1.0
 40
1.0
 40
1.0
 10
-6.1179
 20
13.7286
 30
0.0
 10
-6.1179
 20
13.7286
 30
0.0
 10
9.7361
 20
14.4019
 30
0.0
 10
9.7361
 20
14.4019
 30
0.0
  0
SPLINE
  5
89
330
1F
100
AcDbEntity
  8
DEFAULT_1
 62
   250
100
AcDbSpline
210
0.0
220
0.0
230
1.0
 70
    24
 71
     3
 72
     8
 73
     4
 74
     0
 42
0.0000000001
 43
0.0000000001
 40
0.0
 40
0.0
 40
0.0
 40
0.0
 40
1.0
 40
1.0
 40
1.0
 40
1.0
 10
-6.0746
 20
12.5651
 30
0.0
 10
-6.0746
 20
12.5651
 30
0.0
 10
9.6651
 20
13.2313
 30
0.0
 10
9.6651
 20
13.2313
 30
0.0
  0
SPLINE
  5
8A
330
1F
100
AcDbEntity
  8
DEFAULT_1
 62
   250
100
AcDbSpline
210
0.0
220
0.0
230
1.0
 70
    24
 71
     3
 72
     8
 73
     4
 74
     0
 42
0.0000000001
 43
0.0000000001
 40
0.0
 40
0.0
 40
0.0
 40
0.0
 40
1.0
 40
1.0
 40
1.0
 40
1.0
 10
-6.107
 20
-14.5524
 30
0.0
 10
-6.107
 20
-14.5524
 30
0.0
 10
9.8093
 20
-14.157
 30
0.0
 10
9.8093
 20
-14.157
 30
0.0
  0
SPLINE
  5
8B
330
1F
100
AcDbEntity
  8
DEFAULT_1
 62
   250
100
AcDbSpline
210
0.0
220
0.0
230
1.0
 70
    24
 71
     3
 72
     8
 73
     4
 74
     0
 42
0.0000000001
 43
0.0000000001
 40
0.0
 40
0.0
 40
0.0
 40
0.0
 40
1.0
 40
1.0
 40
1.0
 40
1.0
 10
-6.065
 20
-15.5986
 30
0.0
 10
-6.065
 20
-15.5986
 30
0.0
 10
9.8513
 20
-15.2031
 30
0.0
 10
9.8513
 20
-15.2031
 30
0.0
  0
SPLINE
  5
8C
330
1F
100
AcDbEntity
  8
DEFAULT_1
 62
   250
100
AcDbSpline
210
0.0
220
0.0
230
1.0
 70
    24
 71
     3
 72
     8
 73
     4
 74
     0
 42
0.0000000001
 43
0.0000000001
 40
0.0
 40
0.0
 40
0.0
 40
0.0
 40
1.0
 40
1.0
 40
1.0
 40
1.0
 10
-6.065
 20
-16.78
 30
0.0
 10
-6.065
 20
-16.78
 30
0.0
 10
9.8513
 20
-16.3845
 30
0.0
 10
9.8513
 20
-16.3845
 30
0.0
  0
SPLINE
  5
8D
330
1F
100
AcDbEntity
  8
DEFAULT_1
 62
   250
100
AcDbSpline
210
0.0
220
0.0
230
1.0
 70
    24
 71
     3
 72
     8
 73
     4
 74
     0
 42
0.0000000001
 43
0.0000000001
 40
0.0
 40
0.0
 40
0.0
 40
0.0
 40
1.0
 40
1.0
 40
1.0
 40
1.0
 10
-6.065
 20
-13.4642
 30
0.0
 10
-6.065
 20
-13.4642
 30
0.0
 10
9.8513
 20
-13.0687
 30
0.0
 10
9.8513
 20
-13.0687
 30
0.0
  0
SPLINE
  5
8E
330
1F
100
AcDbEntity
  8
DEFAULT_1
 62
   250
100
AcDbSpline
210
0.0
220
0.0
230
1.0
 70
    24
 71
     3
 72
     8
 73
     4
 74
     0
 42
0.0000000001
 43
0.0000000001
 40
0.0
 40
0.0
 40
0.0
 40
0.0
 40
1.0
 40
1.0
 40
1.0
 40
1.0
 10
-10.6852
 20
21.3432
 30
0.0
 10
-10.6852
 20
21.3432
 30
0.0
 10
14.3516
 20
21.3432
 30
0.0
 10
14.3516
 20
21.3432
 30
0.0
  0
SPLINE
  5
8F
330
1F
100
AcDbEntity
  8
DEFAULT_1
 62
   250
100
AcDbSpline
210
0.0
220
0.0
230
1.0
 70
    24
 71
     3
 72
     8
 73
     4
 74
     0
 42
0.0000000001
 43
0.0000000001
 40
0.0
 40
0.0
 40
0.0
 40
0.0
 40
1.0
 40
1.0
 40
1.0
 40
1.0
 10
14.3516
 20
12.0359
 30
0.0
 10
14.3516
 20
12.0359
 30
0.0
 10
-10.6852
 20
12.0359
 30
0.0
 10
-10.6852
 20
12.0359
 30
0.0
  0
SPLINE
  5
90
330
1F
100
AcDbEntity
  8
DEFAULT_1
 62
   250
100
AcDbSpline
210
0.0
220
0.0
230
1.0
 70
    24
 71
     3
 72
     8
 73
     4
 74
     0
 42
0.0000000001
 43
0.0000000001
 40
0.0
 40
0.0
 40
0.0
 40
0.0
 40
1.0
 40
1.0
 40
1.0
 40
1.0
 10
7.4896
 20
8.6513
 30
0.0
 10
7.4896
 20
8.6513
 30
0.0
 10
7.4896
 20
6.1637
 30
0.0
 10
7.4896
 20
6.1637
 30
0.0
  0
SPLINE
  5
91
330
1F
100
AcDbEntity
  8
DEFAULT_1
 62
   250
100
AcDbSpline
210
0.0
220
0.0
230
1.0
 70
    24
 71
     3
 72
     8
 73
     4
 74
     0
 42
0.0000000001
 43
0.0000000001
 40
0.0
 40
0.0
 40
0.0
 40
0.0
 40
1.0
 40
1.0
 40
1.0
 40
1.0
 10
5.7889
 20
8.6513
 30
0.0
 10
5.7889
 20
8.6513
 30
0.0
 10
5.7889
 20
6.1637
 30
0.0
 10
5.7889
 20
6.1637
 30
0.0
  0
SPLINE
  5
92
330
1F
100
AcDbEntity
  8
DEFAULT_1
 62
   250
100
AcDbSpline
210
0.0
220
0.0
230
1.0
 70
    24
 71
     3
 72
     8
 73
     4
 74
     0
 42
0.0000000001
 43
0.0000000001
 40
0.0
 40
0.0
 40
0.0
 40
0.0
 40
1.0
 40
1.0
 40
1.0
 40
1.0
 10
-2.1309
 20
8.6513
 30
0.0
 10
-2.1309
 20
8.6513
 30
0.0
 10
-2.1309
 20
6.1637
 30
0.0
 10
-2.1309
 20
6.1637
 30
0.0
  0
SPLINE
  5
93
330
1F
100
AcDbEntity
  8
DEFAULT_1
 62
   250
100
AcDbSpline
210
0.0
220
0.0
230
1.0
 70
    24
 71
     3
 72
     8
 73
     4
 74
     0
 42
0.0000000001
 43
0.0000000001
 40
0.0
 40
0.0
 40
0.0
 40
0.0
 40
1.0
 40
1.0
 40
1.0
 40
1.0
 10
-3.8232
 20
8.6513
 30
0.0
 10
-3.8232
 20
8.6513
 30
0.0
 10
-3.8232
 20
6.1637
 30
0.0
 10
-3.8232
 20
6.1637
 30
0.0
  0
SPLINE
  5
94
330
1F
100
AcDbEntity
  8
DEFAULT_1
 62
   250
100
AcDbSpline
210
0.0
220
0.0
230
1.0
 70
    27
 71
     3
 72
     8
 73
     4
 74
     0
 42
0.0000000001
 43
0.0000000001
 40
0.0
 40
0.0
 40
0.0
 40
0.0
 40
1.0
 40
1.0
 40
1.0
 40
1.0
 10
12.3971
 20
10.0728
 30
0.0
 10
12.3971
 20
10.0728
 30
0.0
 10
12.3971
 20
10.0728
 30
0.0
 10
12.3971
 20
10.0728
 30
0.0
  0
SPLINE
  5
95
330
1F
100
AcDbEntity
  8
DEFAULT_1
 62
   250
100
AcDbSpline
210
0.0
220
0.0
230
1.0
 70
     8
 71
     3
 72
    20
 73
    16
 74
     0
 42
0.0000000001
 43
0.0000000001
 40
0.0
 40
0.0
 40
0.0
 40
0.0
 40
0.2
 40
0.2
 40
0.2
 40
0.2
 40
0.4
 40
0.4
 40
0.4
 40
0.4
 40
0.6
 40
0.6
 40
0.6
 40
0.6
 40
1.0
 40
1.0
 40
1.0
 40
1.0
 10
14.2501
 20
21.5209
 30
0.0
 10
14.2501
 20
21.5209
 30
0.0
 10
8.0649
 20
22.3332
 30
0.0
 10
8.0649
 20
22.3332
 30
0.0
 10
8.0649
 20
22.3332
 30
0.0
 10
8.0649
 20
22.3332
 30
0.0
 10
1.829
 20
22.5955
 30
0.0
 10
1.829
 20
22.5955
 30
0.0
 10
1.829
 20
22.5955
 30
0.0
 10
1.829
 20
22.5955
 30
0.0
 10
-4.407
 20
22.3332
 30
0.0
 10
-4.407
 20
22.3332
 30
0.0
 10
-4.407
 20
22.3332
 30
0.0
 10
-4.407
 20
22.3332
 30
0.0
 10
-10.5921
 20
21.5209
 30
0.0
 10
-10.5921
 20
21.5209
 30
0.0
  0
SPLINE
  5
96
330
1F
100
AcDbEntity
  8
DEFAULT_1
 62
   250
100
AcDbSpline
210
0.0
220
0.0
230
1.0
 70
    24
 71
     3
 72
     8
 73
     4
 74
     0
 42
0.0000000001
 43
0.0000000001
 40
0.0
 40
0.0
 40
0.0
 40
0.0
 40
1.0
 40
1.0
 40
1.0
 40
1.0
 10
9.4864
 20
-17.3162
 30
0.0
 10
9.4864
 20
-17.3162
 30
0.0
 10
9.8841
 20
-16.927
 30
0.0
 10
9.8841
 20
-16.927
 30
0.0
  0
SPLINE
  5
97
330
1F
100
AcDbEntity
  8
DEFAULT_1
 62
   250
100
AcDbSpline
210
0.0
220
0.0
230
1.0
 70
    24
 71
     3
 72
     8
 73
     4
 74
     0
 42
0.0000000001
 43
0.0000000001
 40
0.0
 40
0.0
 40
0.0
 40
0.0
 40
1.0
 40
1.0
 40
1.0
 40
1.0
 10
14.0386
 20
21.0301
 30
0.0
 10
14.0386
 20
21.0301
 30
0.0
 10
-10.3722
 20
21.0301
 30
0.0
 10
-10.3722
 20
21.0301
 30
0.0
  0
SPLINE
  5
98
330
1F
100
AcDbEntity
  8
DEFAULT_1
 62
   250
100
AcDbSpline
210
0.0
220
0.0
230
1.0
 70
    24
 71
     3
 72
     8
 73
     4
 74
     0
 42
0.0000000001
 43
0.0000000001
 40
0.0
 40
0.0
 40
0.0
 40
0.0
 40
1.0
 40
1.0
 40
1.0
 40
1.0
 10
10.3748
 20
-12.7472
 30
0.0
 10
10.3748
 20
-12.7472
 30
0.0
 10
9.8841
 20
-13.0095
 30
0.0
 10
9.8841
 20
-13.0095
 30
0.0
  0
SPLINE
  5
99
330
1F
100
AcDbEntity
  8
DEFAULT_1
 62
   250
100
AcDbSpline
210
0.0
220
0.0
230
1.0
 70
    24
 71
     3
 72
     8
 73
     4
 74
     0
 42
0.0000000001
 43
0.0000000001
 40
0.0
 40
0.0
 40
0.0
 40
0.0
 40
1.0
 40
1.0
 40
1.0
 40
1.0
 10
13.9539
 20
18.2972
 30
0.0
 10
13.9539
 20
18.2972
 30
0.0
 10
-10.296
 20
18.2972
 30
0.0
 10
-10.296
 20
18.2972
 30
0.0
  0
SPLINE
  5
9A
330
1F
100
AcDbEntity
  8
DEFAULT_1
 62
   250
100
AcDbSpline
210
0.0
220
0.0
230
1.0
 70
    24
 71
     3
 72
     8
 73
     4
 74
     0
 42
0.0000000001
 43
0.0000000001
 40
0.0
 40
0.0
 40
0.0
 40
0.0
 40
1.0
 40
1.0
 40
1.0
 40
1.0
 10
-10.296
 20
17.9841
 30
0.0
 10
-10.296
 20
17.9841
 30
0.0
 10
13.9539
 20
17.9841
 30
0.0
 10
13.9539
 20
17.9841
 30
0.0
  0
SPLINE
  5
9B
330
1F
100
AcDbEntity
  8
DEFAULT_1
 62
   250
100
AcDbSpline
210
0.0
220
0.0
230
1.0
 70
    24
 71
     3
 72
     8
 73
     4
 74
     0
 42
0.0000000001
 43
0.0000000001
 40
0.0
 40
0.0
 40
0.0
 40
0.0
 40
1.0
 40
1.0
 40
1.0
 40
1.0
 10
-9.9068
 20
17.3918
 30
0.0
 10
-9.9068
 20
17.3918
 30
0.0
 10
13.5647
 20
17.3918
 30
0.0
 10
13.5647
 20
17.3918
 30
0.0
  0
SPLINE
  5
9C
330
1F
100
AcDbEntity
  8
DEFAULT_1
 62
   250
100
AcDbSpline
210
0.0
220
0.0
230
1.0
 70
    24
 71
     3
 72
     8
 73
     4
 74
     0
 42
0.0000000001
 43
0.0000000001
 40
0.0
 40
0.0
 40
0.0
 40
0.0
 40
1.0
 40
1.0
 40
1.0
 40
1.0
 10
-9.9068
 20
17.0026
 30
0.0
 10
-9.9068
 20
17.0026
 30
0.0
 10
13.5647
 20
17.0026
 30
0.0
 10
13.5647
 20
17.0026
 30
0.0
  0
SPLINE
  5
9D
330
1F
100
AcDbEntity
  8
DEFAULT_1
 62
   250
100
AcDbSpline
210
0.0
220
0.0
230
1.0
 70
    24
 71
     3
 72
     8
 73
     4
 74
     0
 42
0.0000000001
 43
0.0000000001
 40
0.0
 40
0.0
 40
0.0
 40
0.0
 40
1.0
 40
1.0
 40
1.0
 40
1.0
 10
-7.5546
 20
15.8265
 30
0.0
 10
-7.5546
 20
15.8265
 30
0.0
 10
11.221
 20
15.8265
 30
0.0
 10
11.221
 20
15.8265
 30
0.0
  0
SPLINE
  5
9E
330
1F
100
AcDbEntity
  8
DEFAULT_1
 62
   250
100
AcDbSpline
210
0.0
220
0.0
230
1.0
 70
    24
 71
     3
 72
     8
 73
     4
 74
     0
 42
0.0000000001
 43
0.0000000001
 40
0.0
 40
0.0
 40
0.0
 40
0.0
 40
1.0
 40
1.0
 40
1.0
 40
1.0
 10
14.3516
 20
12.425
 30
0.0
 10
14.3516
 20
12.425
 30
0.0
 10
14.3516
 20
12.0359
 30
0.0
 10
14.3516
 20
12.0359
 30
0.0
  0
SPLINE
  5
9F
330
1F
100
AcDbEntity
  8
DEFAULT_1
 62
   250
100
AcDbSpline
210
0.0
220
0.0
230
1.0
 70
    24
 71
     3
 72
     8
 73
     4
 74
     0
 42
0.0000000001
 43
0.0000000001
 40
0.0
 40
0.0
 40
0.0
 40
0.0
 40
1.0
 40
1.0
 40
1.0
 40
1.0
 10
14.3516
 20
21.4025
 30
0.0
 10
14.3516
 20
21.4025
 30
0.0
 10
14.3516
 20
21.3432
 30
0.0
 10
14.3516
 20
21.3432
 30
0.0
  0
SPLINE
  5
A0
330
1F
100
AcDbEntity
  8
DEFAULT_1
 62
   250
100
AcDbSpline
210
0.0
220
0.0
230
1.0
 70
    24
 71
     3
 72
     8
 73
     4
 74
     0
 42
0.0000000001
 43
0.0000000001
 40
0.0
 40
0.0
 40
0.0
 40
0.0
 40
1.0
 40
1.0
 40
1.0
 40
1.0
 10
13.9539
 20
18.2972
 30
0.0
 10
13.9539
 20
18.2972
 30
0.0
 10
13.9539
 20
17.9841
 30
0.0
 10
13.9539
 20
17.9841
 30
0.0
  0
SPLINE
  5
A1
330
1F
100
AcDbEntity
  8
DEFAULT_1
 62
   250
100
AcDbSpline
210
0.0
220
0.0
230
1.0
 70
    24
 71
     3
 72
     8
 73
     4
 74
     0
 42
0.0000000001
 43
0.0000000001
 40
0.0
 40
0.0
 40
0.0
 40
0.0
 40
1.0
 40
1.0
 40
1.0
 40
1.0
 10
13.7594
 20
10.0728
 30
0.0
 10
13.7594
 20
10.0728
 30
0.0
 10
13.7594
 20
9.2521
 30
0.0
 10
13.7594
 20
9.2521
 30
0.0
  0
SPLINE
  5
A2
330
1F
100
AcDbEntity
  8
DEFAULT_1
 62
   250
100
AcDbSpline
210
0.0
220
0.0
230
1.0
 70
    24
 71
     3
 72
     8
 73
     4
 74
     0
 42
0.0000000001
 43
0.0000000001
 40
0.0
 40
0.0
 40
0.0
 40
0.0
 40
1.0
 40
1.0
 40
1.0
 40
1.0
 10
13.5647
 20
17.3918
 30
0.0
 10
13.5647
 20
17.3918
 30
0.0
 10
13.5647
 20
17.0026
 30
0.0
 10
13.5647
 20
17.0026
 30
0.0
  0
SPLINE
  5
A3
330
1F
100
AcDbEntity
  8
DEFAULT_1
 62
   250
100
AcDbSpline
210
0.0
220
0.0
230
1.0
 70
    24
 71
     3
 72
     8
 73
     4
 74
     0
 42
0.0000000001
 43
0.0000000001
 40
0.0
 40
0.0
 40
0.0
 40
0.0
 40
1.0
 40
1.0
 40
1.0
 40
1.0
 10
-10.6852
 20
12.425
 30
0.0
 10
-10.6852
 20
12.425
 30
0.0
 10
14.3516
 20
12.425
 30
0.0
 10
14.3516
 20
12.425
 30
0.0
  0
SPLINE
  5
A4
330
1F
100
AcDbEntity
  8
DEFAULT_1
 62
   250
100
AcDbSpline
210
0.0
220
0.0
230
1.0
 70
    24
 71
     3
 72
     8
 73
     4
 74
     0
 42
0.0000000001
 43
0.0000000001
 40
0.0
 40
0.0
 40
0.0
 40
0.0
 40
1.0
 40
1.0
 40
1.0
 40
1.0
 10
11.7202
 20
8.6683
 30
0.0
 10
11.7202
 20
8.6683
 30
0.0
 10
11.7202
 20
6.1637
 30
0.0
 10
11.7202
 20
6.1637
 30
0.0
  0
SPLINE
  5
A5
330
1F
100
AcDbEntity
  8
DEFAULT_1
 62
   250
100
AcDbSpline
210
0.0
220
0.0
230
1.0
 70
    24
 71
     3
 72
     8
 73
     4
 74
     0
 42
0.0000000001
 43
0.0000000001
 40
0.0
 40
0.0
 40
0.0
 40
0.0
 40
1.0
 40
1.0
 40
1.0
 40
1.0
 10
10.3748
 20
6.1637
 30
0.0
 10
10.3748
 20
6.1637
 30
0.0
 10
10.3748
 20
-12.7472
 30
0.0
 10
10.3748
 20
-12.7472
 30
0.0
  0
SPLINE
  5
A6
330
1F
100
AcDbEntity
  8
DEFAULT_1
 62
   250
100
AcDbSpline
210
0.0
220
0.0
230
1.0
 70
    24
 71
     3
 72
     8
 73
     4
 74
     0
 42
0.0000000001
 43
0.0000000001
 40
0.0
 40
0.0
 40
0.0
 40
0.0
 40
1.0
 40
1.0
 40
1.0
 40
1.0
 10
-7.5546
 20
15.8265
 30
0.0
 10
-7.5546
 20
15.8265
 30
0.0
 10
-9.9068
 20
17.0026
 30
0.0
 10
-9.9068
 20
17.0026
 30
0.0
  0
SPLINE
  5
A7
330
1F
100
AcDbEntity
  8
DEFAULT_1
 62
   250
100
AcDbSpline
210
0.0
220
0.0
230
1.0
 70
    24
 71
     3
 72
     8
 73
     4
 74
     0
 42
0.0000000001
 43
0.0000000001
 40
0.0
 40
0.0
 40
0.0
 40
0.0
 40
1.0
 40
1.0
 40
1.0
 40
1.0
 10
13.7594
 20
10.0728
 30
0.0
 10
13.7594
 20
10.0728
 30
0.0
 10
-10.1014
 20
10.0728
 30
0.0
 10
-10.1014
 20
10.0728
 30
0.0
  0
SPLINE
  5
A8
330
1F
100
AcDbEntity
  8
DEFAULT_1
 62
   250
100
AcDbSpline
210
0.0
220
0.0
230
1.0
 70
    24
 71
     3
 72
     8
 73
     4
 74
     0
 42
0.0000000001
 43
0.0000000001
 40
0.0
 40
0.0
 40
0.0
 40
0.0
 40
1.0
 40
1.0
 40
1.0
 40
1.0
 10
9.8841
 20
-13.0095
 30
0.0
 10
9.8841
 20
-13.0095
 30
0.0
 10
9.8841
 20
-16.927
 30
0.0
 10
9.8841
 20
-16.927
 30
0.0
  0
SPLINE
  5
A9
330
1F
100
AcDbEntity
  8
DEFAULT_1
 62
   250
100
AcDbSpline
210
0.0
220
0.0
230
1.0
 70
    24
 71
     3
 72
     8
 73
     4
 74
     0
 42
0.0000000001
 43
0.0000000001
 40
0.0
 40
0.0
 40
0.0
 40
0.0
 40
1.0
 40
1.0
 40
1.0
 40
1.0
 10
9.8503
 20
15.8265
 30
0.0
 10
9.8503
 20
15.8265
 30
0.0
 10
9.8503
 20
12.425
 30
0.0
 10
9.8503
 20
12.425
 30
0.0
  0
SPLINE
  5
AA
330
1F
100
AcDbEntity
  8
DEFAULT_1
 62
   250
100
AcDbSpline
210
0.0
220
0.0
230
1.0
 70
    24
 71
     3
 72
     8
 73
     4
 74
     0
 42
0.0000000001
 43
0.0000000001
 40
0.0
 40
0.0
 40
0.0
 40
0.0
 40
1.0
 40
1.0
 40
1.0
 40
1.0
 10
-9.7545
 20
8.8629
 30
0.0
 10
-9.7545
 20
8.8629
 30
0.0
 10
-8.0538
 20
8.6683
 30
0.0
 10
-8.0538
 20
8.6683
 30
0.0
  0
SPLINE
  5
AB
330
1F
100
AcDbEntity
  8
DEFAULT_1
 62
   250
100
AcDbSpline
210
0.0
220
0.0
230
1.0
 70
    24
 71
     3
 72
     8
 73
     4
 74
     0
 42
0.0000000001
 43
0.0000000001
 40
0.0
 40
0.0
 40
0.0
 40
0.0
 40
1.0
 40
1.0
 40
1.0
 40
1.0
 10
-8.0538
 20
6.1637
 30
0.0
 10
-8.0538
 20
6.1637
 30
0.0
 10
11.7202
 20
6.1637
 30
0.0
 10
11.7202
 20
6.1637
 30
0.0
  0
SPLINE
  5
AC
330
1F
100
AcDbEntity
  8
DEFAULT_1
 62
   250
100
AcDbSpline
210
0.0
220
0.0
230
1.0
 70
    24
 71
     3
 72
     8
 73
     4
 74
     0
 42
0.0000000001
 43
0.0000000001
 40
0.0
 40
0.0
 40
0.0
 40
0.0
 40
1.0
 40
1.0
 40
1.0
 40
1.0
 10
13.4209
 20
8.8629
 30
0.0
 10
13.4209
 20
8.8629
 30
0.0
 10
11.7202
 20
8.6683
 30
0.0
 10
11.7202
 20
8.6683
 30
0.0
  0
SPLINE
  5
AD
330
1F
100
AcDbEntity
  8
DEFAULT_1
 62
   250
100
AcDbSpline
210
0.0
220
0.0
230
1.0
 70
    24
 71
     3
 72
     8
 73
     4
 74
     0
 42
0.0000000001
 43
0.0000000001
 40
0.0
 40
0.0
 40
0.0
 40
0.0
 40
1.0
 40
1.0
 40
1.0
 40
1.0
 10
6.5588
 20
18.2972
 30
0.0
 10
6.5588
 20
18.2972
 30
0.0
 10
6.5588
 20
21.0301
 30
0.0
 10
6.5588
 20
21.0301
 30
0.0
  0
SPLINE
  5
AE
330
1F
100
AcDbEntity
  8
DEFAULT_1
 62
   250
100
AcDbSpline
210
0.0
220
0.0
230
1.0
 70
    24
 71
     3
 72
     8
 73
     4
 74
     0
 42
0.0000000001
 43
0.0000000001
 40
0.0
 40
0.0
 40
0.0
 40
0.0
 40
1.0
 40
1.0
 40
1.0
 40
1.0
 10
5.2896
 20
18.2972
 30
0.0
 10
5.2896
 20
18.2972
 30
0.0
 10
5.2896
 20
21.0301
 30
0.0
 10
5.2896
 20
21.0301
 30
0.0
  0
SPLINE
  5
AF
330
1F
100
AcDbEntity
  8
DEFAULT_1
 62
   250
100
AcDbSpline
210
0.0
220
0.0
230
1.0
 70
    24
 71
     3
 72
     8
 73
     4
 74
     0
 42
0.0000000001
 43
0.0000000001
 40
0.0
 40
0.0
 40
0.0
 40
0.0
 40
1.0
 40
1.0
 40
1.0
 40
1.0
 10
-9.7122
 20
17.3918
 30
0.0
 10
-9.7122
 20
17.3918
 30
0.0
 10
-10.296
 20
17.9841
 30
0.0
 10
-10.296
 20
17.9841
 30
0.0
  0
SPLINE
  5
B0
330
1F
100
AcDbEntity
  8
DEFAULT_1
 62
   250
100
AcDbSpline
210
0.0
220
0.0
230
1.0
 70
    24
 71
     3
 72
     8
 73
     4
 74
     0
 42
0.0000000001
 43
0.0000000001
 40
0.0
 40
0.0
 40
0.0
 40
0.0
 40
1.0
 40
1.0
 40
1.0
 40
1.0
 10
2.252
 20
18.2972
 30
0.0
 10
2.252
 20
18.2972
 30
0.0
 10
2.252
 20
21.0301
 30
0.0
 10
2.252
 20
21.0301
 30
0.0
  0
SPLINE
  5
B1
330
1F
100
AcDbEntity
  8
DEFAULT_1
 62
   250
100
AcDbSpline
210
0.0
220
0.0
230
1.0
 70
    24
 71
     3
 72
     8
 73
     4
 74
     0
 42
0.0000000001
 43
0.0000000001
 40
0.0
 40
0.0
 40
0.0
 40
0.0
 40
1.0
 40
1.0
 40
1.0
 40
1.0
 10
13.3701
 20
17.3918
 30
0.0
 10
13.3701
 20
17.3918
 30
0.0
 10
13.9539
 20
17.9841
 30
0.0
 10
13.9539
 20
17.9841
 30
0.0
  0
SPLINE
  5
B2
330
1F
100
AcDbEntity
  8
DEFAULT_1
 62
   250
100
AcDbSpline
210
0.0
220
0.0
230
1.0
 70
    24
 71
     3
 72
     8
 73
     4
 74
     0
 42
0.0000000001
 43
0.0000000001
 40
0.0
 40
0.0
 40
0.0
 40
0.0
 40
1.0
 40
1.0
 40
1.0
 40
1.0
 10
-0.2525
 20
18.2972
 30
0.0
 10
-0.2525
 20
18.2972
 30
0.0
 10
-0.2525
 20
21.0301
 30
0.0
 10
-0.2525
 20
21.0301
 30
0.0
  0
SPLINE
  5
B3
330
1F
100
AcDbEntity
  8
DEFAULT_1
 62
   250
100
AcDbSpline
210
0.0
220
0.0
230
1.0
 70
    24
 71
     3
 72
     8
 73
     4
 74
     0
 42
0.0000000001
 43
0.0000000001
 40
0.0
 40
0.0
 40
0.0
 40
0.0
 40
1.0
 40
1.0
 40
1.0
 40
1.0
 10
13.5647
 20
17.0026
 30
0.0
 10
13.5647
 20
17.0026
 30
0.0
 10
11.221
 20
15.8265
 30
0.0
 10
11.221
 20
15.8265
 30
0.0
  0
SPLINE
  5
B4
330
1F
100
AcDbEntity
  8
DEFAULT_1
 62
   250
100
AcDbSpline
210
0.0
220
0.0
230
1.0
 70
    24
 71
     3
 72
     8
 73
     4
 74
     0
 42
0.0000000001
 43
0.0000000001
 40
0.0
 40
0.0
 40
0.0
 40
0.0
 40
1.0
 40
1.0
 40
1.0
 40
1.0
 10
-6.1923
 20
15.8265
 30
0.0
 10
-6.1923
 20
15.8265
 30
0.0
 10
-6.1923
 20
12.425
 30
0.0
 10
-6.1923
 20
12.425
 30
0.0
  0
SPLINE
  5
B5
330
1F
100
AcDbEntity
  8
DEFAULT_1
 62
   250
100
AcDbSpline
210
0.0
220
0.0
230
1.0
 70
    24
 71
     3
 72
     8
 73
     4
 74
     0
 42
0.0000000001
 43
0.0000000001
 40
0.0
 40
0.0
 40
0.0
 40
0.0
 40
1.0
 40
1.0
 40
1.0
 40
1.0
 10
-6.2177
 20
-13.0095
 30
0.0
 10
-6.2177
 20
-13.0095
 30
0.0
 10
-6.2177
 20
-16.927
 30
0.0
 10
-6.2177
 20
-16.927
 30
0.0
  0
SPLINE
  5
B6
330
1F
100
AcDbEntity
  8
DEFAULT_1
 62
   250
100
AcDbSpline
210
0.0
220
0.0
230
1.0
 70
    24
 71
     3
 72
     8
 73
     4
 74
     0
 42
0.0000000001
 43
0.0000000001
 40
0.0
 40
0.0
 40
0.0
 40
0.0
 40
1.0
 40
1.0
 40
1.0
 40
1.0
 10
-6.3531
 20
18.2972
 30
0.0
 10
-6.3531
 20
18.2972
 30
0.0
 10
-6.3531
 20
21.0301
 30
0.0
 10
-6.3531
 20
21.0301
 30
0.0
  0
SPLINE
  5
B7
330
1F
100
AcDbEntity
  8
DEFAULT_1
 62
   250
100
AcDbSpline
210
0.0
220
0.0
230
1.0
 70
    24
 71
     3
 72
     8
 73
     4
 74
     0
 42
0.0000000001
 43
0.0000000001
 40
0.0
 40
0.0
 40
0.0
 40
0.0
 40
1.0
 40
1.0
 40
1.0
 40
1.0
 10
-6.3869
 20
18.2972
 30
0.0
 10
-6.3869
 20
18.2972
 30
0.0
 10
-6.3869
 20
21.0301
 30
0.0
 10
-6.3869
 20
21.0301
 30
0.0
  0
SPLINE
  5
B8
330
1F
100
AcDbEntity
  8
DEFAULT_1
 62
   250
100
AcDbSpline
210
0.0
220
0.0
230
1.0
 70
    24
 71
     3
 72
     8
 73
     4
 74
     0
 42
0.0000000001
 43
0.0000000001
 40
0.0
 40
0.0
 40
0.0
 40
0.0
 40
1.0
 40
1.0
 40
1.0
 40
1.0
 10
-6.7169
 20
6.1637
 30
0.0
 10
-6.7169
 20
6.1637
 30
0.0
 10
-6.7169
 20
-12.7472
 30
0.0
 10
-6.7169
 20
-12.7472
 30
0.0
  0
SPLINE
  5
B9
330
1F
100
AcDbEntity
  8
DEFAULT_1
 62
   250
100
AcDbSpline
210
0.0
220
0.0
230
1.0
 70
    24
 71
     3
 72
     8
 73
     4
 74
     0
 42
0.0000000001
 43
0.0000000001
 40
0.0
 40
0.0
 40
0.0
 40
0.0
 40
1.0
 40
1.0
 40
1.0
 40
1.0
 10
-8.0538
 20
8.6683
 30
0.0
 10
-8.0538
 20
8.6683
 30
0.0
 10
-8.0538
 20
6.1637
 30
0.0
 10
-8.0538
 20
6.1637
 30
0.0
  0
SPLINE
  5
BA
330
1F
100
AcDbEntity
  8
DEFAULT_1
 62
   250
100
AcDbSpline
210
0.0
220
0.0
230
1.0
 70
    24
 71
     3
 72
     8
 73
     4
 74
     0
 42
0.0000000001
 43
0.0000000001
 40
0.0
 40
0.0
 40
0.0
 40
0.0
 40
1.0
 40
1.0
 40
1.0
 40
1.0
 10
-9.9068
 20
17.3918
 30
0.0
 10
-9.9068
 20
17.3918
 30
0.0
 10
-9.9068
 20
17.0026
 30
0.0
 10
-9.9068
 20
17.0026
 30
0.0
  0
SPLINE
  5
BB
330
1F
100
AcDbEntity
  8
DEFAULT_1
 62
   250
100
AcDbSpline
210
0.0
220
0.0
230
1.0
 70
    24
 71
     3
 72
     8
 73
     4
 74
     0
 42
0.0000000001
 43
0.0000000001
 40
0.0
 40
0.0
 40
0.0
 40
0.0
 40
1.0
 40
1.0
 40
1.0
 40
1.0
 10
-10.1014
 20
10.0728
 30
0.0
 10
-10.1014
 20
10.0728
 30
0.0
 10
-10.1014
 20
9.2521
 30
0.0
 10
-10.1014
 20
9.2521
 30
0.0
  0
SPLINE
  5
BC
330
1F
100
AcDbEntity
  8
DEFAULT_1
 62
   250
100
AcDbSpline
210
0.0
220
0.0
230
1.0
 70
    24
 71
     3
 72
     8
 73
     4
 74
     0
 42
0.0000000001
 43
0.0000000001
 40
0.0
 40
0.0
 40
0.0
 40
0.0
 40
1.0
 40
1.0
 40
1.0
 40
1.0
 10
-10.296
 20
18.2972
 30
0.0
 10
-10.296
 20
18.2972
 30
0.0
 10
-10.296
 20
17.9841
 30
0.0
 10
-10.296
 20
17.9841
 30
0.0
  0
SPLINE
  5
BD
330
1F
100
AcDbEntity
  8
DEFAULT_1
 62
   250
100
AcDbSpline
210
0.0
220
0.0
230
1.0
 70
    24
 71
     3
 72
     8
 73
     4
 74
     0
 42
0.0000000001
 43
0.0000000001
 40
0.0
 40
0.0
 40
0.0
 40
0.0
 40
1.0
 40
1.0
 40
1.0
 40
1.0
 10
-10.6852
 20
12.425
 30
0.0
 10
-10.6852
 20
12.425
 30
0.0
 10
-10.6852
 20
12.0359
 30
0.0
 10
-10.6852
 20
12.0359
 30
0.0
  0
SPLINE
  5
BE
330
1F
100
AcDbEntity
  8
DEFAULT_1
 62
   250
100
AcDbSpline
210
0.0
220
0.0
230
1.0
 70
    24
 71
     3
 72
     8
 73
     4
 74
     0
 42
0.0000000001
 43
0.0000000001
 40
0.0
 40
0.0
 40
0.0
 40
0.0
 40
1.0
 40
1.0
 40
1.0
 40
1.0
 10
-10.6852
 20
21.4025
 30
0.0
 10
-10.6852
 20
21.4025
 30
0.0
 10
-10.6852
 20
21.3432
 30
0.0
 10
-10.6852
 20
21.3432
 30
0.0
  0
SPLINE
  5
BF
330
1F
100
AcDbEntity
  8
DEFAULT_1
 62
   250
100
AcDbSpline
210
0.0
220
0.0
230
1.0
 70
    24
 71
     3
 72
     8
 73
     4
 74
     0
 42
0.0000000001
 43
0.0000000001
 40
0.0
 40
0.0
 40
0.0
 40
0.0
 40
1.0
 40
1.0
 40
1.0
 40
1.0
 10
10.3748
 20
-12.7472
 30
0.0
 10
10.3748
 20
-12.7472
 30
0.0
 10
-6.7169
 20
-12.7472
 30
0.0
 10
-6.7169
 20
-12.7472
 30
0.0
  0
SPLINE
  5
C0
330
1F
100
AcDbEntity
  8
DEFAULT_1
 62
   250
100
AcDbSpline
210
0.0
220
0.0
230
1.0
 70
    24
 71
     3
 72
     8
 73
     4
 74
     0
 42
0.0000000001
 43
0.0000000001
 40
0.0
 40
0.0
 40
0.0
 40
0.0
 40
1.0
 40
1.0
 40
1.0
 40
1.0
 10
9.8841
 20
-13.0095
 30
0.0
 10
9.8841
 20
-13.0095
 30
0.0
 10
-6.2177
 20
-13.0095
 30
0.0
 10
-6.2177
 20
-13.0095
 30
0.0
  0
SPLINE
  5
C1
330
1F
100
AcDbEntity
  8
DEFAULT_1
 62
   250
100
AcDbSpline
210
0.0
220
0.0
230
1.0
 70
    24
 71
     3
 72
     8
 73
     4
 74
     0
 42
0.0000000001
 43
0.0000000001
 40
0.0
 40
0.0
 40
0.0
 40
0.0
 40
1.0
 40
1.0
 40
1.0
 40
1.0
 10
-6.2177
 20
-13.0095
 30
0.0
 10
-6.2177
 20
-13.0095
 30
0.0
 10
-6.7169
 20
-12.7472
 30
0.0
 10
-6.7169
 20
-12.7472
 30
0.0
  0
SPLINE
  5
C2
330
1F
100
AcDbEntity
  8
DEFAULT_1
 62
   250
100
AcDbSpline
210
0.0
220
0.0
230
1.0
 70
    24
 71
     3
 72
     8
 73
     4
 74
     0
 42
0.0000000001
 43
0.0000000001
 40
0.0
 40
0.0
 40
0.0
 40
0.0
 40
1.0
 40
1.0
 40
1.0
 40
1.0
 10
-5.8285
 20
-17.3162
 30
0.0
 10
-5.8285
 20
-17.3162
 30
0.0
 10
-6.2177
 20
-16.927
 30
0.0
 10
-6.2177
 20
-16.927
 30
0.0
  0
SPLINE
  5
C3
330
1F
100
AcDbEntity
  8
DEFAULT_1
 62
   250
100
AcDbSpline
210
0.0
220
0.0
230
1.0
 70
    24
 71
     3
 72
     8
 73
     4
 74
     0
 42
0.0000000001
 43
0.0000000001
 40
0.0
 40
0.0
 40
0.0
 40
0.0
 40
1.0
 40
1.0
 40
1.0
 40
1.0
 10
-6.2177
 20
-16.927
 30
0.0
 10
-6.2177
 20
-16.927
 30
0.0
 10
9.8841
 20
-16.927
 30
0.0
 10
9.8841
 20
-16.927
 30
0.0
  0
SPLINE
  5
C4
330
1F
100
AcDbEntity
  8
DEFAULT_1
 62
   250
100
AcDbSpline
210
0.0
220
0.0
230
1.0
 70
    24
 71
     3
 72
     8
 73
     4
 74
     0
 42
0.0000000001
 43
0.0000000001
 40
0.0
 40
0.0
 40
0.0
 40
0.0
 40
1.0
 40
1.0
 40
1.0
 40
1.0
 10
-5.8285
 20
-17.3162
 30
0.0
 10
-5.8285
 20
-17.3162
 30
0.0
 10
9.4864
 20
-17.3162
 30
0.0
 10
9.4864
 20
-17.3162
 30
0.0
  0
SPLINE
  5
C5
330
1F
100
AcDbEntity
  8
DEFAULT_1
 62
   250
100
AcDbSpline
210
0.0
220
0.0
230
1.0
 70
     8
 71
     3
 72
    76
 73
    72
 74
     0
 42
0.0000000001
 43
0.0000000001
 40
0.0
 40
0.0
 40
0.0
 40
0.0
 40
0.0526315789473684
 40
0.0526315789473684
 40
0.0526315789473684
 40
0.0526315789473684
 40
0.1052631578947368
 40
0.1052631578947368
 40
0.1052631578947368
 40
0.1052631578947368
 40
0.1578947368421053
 40
0.1578947368421053
 40
0.1578947368421053
 40
0.1578947368421053
 40
0.2105263157894737
 40
0.2105263157894737
 40
0.2105263157894737
 40
0.2105263157894737
 40
0.2631578947368421
 40
0.2631578947368421
 40
0.2631578947368421
 40
0.2631578947368421
 40
0.3157894736842105
 40
0.3157894736842105
 40
0.3157894736842105
 40
0.3157894736842105
 40
0.3684210526315789
 40
0.3684210526315789
 40
0.3684210526315789
 40
0.3684210526315789
 40
0.4210526315789473
 40
0.4210526315789473
 40
0.4210526315789473
 40
0.4210526315789473
 40
0.4736842105263158
 40
0.4736842105263158
 40
0.4736842105263158
 40
0.4736842105263158
 40
0.5263157894736842
 40
0.5263157894736842
 40
0.5263157894736842
 40
0.5263157894736842
 40
0.5789473684210527
 40
0.5789473684210527
 40
0.5789473684210527
 40
0.5789473684210527
 40
0.631578947368421
 40
0.631578947368421
 40
0.631578947368421
 40
0.631578947368421
 40
0.6842105263157895
 40
0.6842105263157895
 40
0.6842105263157895
 40
0.6842105263157895
 40
0.7368421052631579
 40
0.7368421052631579
 40
0.7368421052631579
 40
0.7368421052631579
 40
0.7894736842105263
 40
0.7894736842105263
 40
0.7894736842105263
 40
0.7894736842105263
 40
0.8421052631578947
 40
0.8421052631578947
 40
0.8421052631578947
 40
0.8421052631578947
 40
0.8947368421052632
 40
0.8947368421052632
 40
0.8947368421052632
 40
0.8947368421052632
 40
1.0
 40
1.0
 40
1.0
 40
1.0
 10
12.3971
 20
10.0728
 30
0.0
 10
12.3971
 20
10.0728
 30
0.0
 10
12.5578
 20
10.0813
 30
0.0
 10
12.5578
 20
10.0813
 30
0.0
 10
12.5578
 20
10.0813
 30
0.0
 10
12.5578
 20
10.0813
 30
0.0
 10
12.7355
 20
10.1067
 30
0.0
 10
12.7355
 20
10.1067
 30
0.0
 10
12.7355
 20
10.1067
 30
0.0
 10
12.7355
 20
10.1067
 30
0.0
 10
12.9047
 20
10.1405
 30
0.0
 10
12.9047
 20
10.1405
 30
0.0
 10
12.9047
 20
10.1405
 30
0.0
 10
12.9047
 20
10.1405
 30
0.0
 10
13.057
 20
10.1913
 30
0.0
 10
13.057
 20
10.1913
 30
0.0
 10
13.057
 20
10.1913
 30
0.0
 10
13.057
 20
10.1913
 30
0.0
 10
13.2263
 20
10.259
 30
0.0
 10
13.2263
 20
10.259
 30
0.0
 10
13.2263
 20
10.259
 30
0.0
 10
13.2263
 20
10.259
 30
0.0
 10
13.3701
 20
10.3436
 30
0.0
 10
13.3701
 20
10.3436
 30
0.0
 10
13.3701
 20
10.3436
 30
0.0
 10
13.3701
 20
10.3436
 30
0.0
 10
13.514
 20
10.4282
 30
0.0
 10
13.514
 20
10.4282
 30
0.0
 10
13.514
 20
10.4282
 30
0.0
 10
13.514
 20
10.4282
 30
0.0
 10
13.6578
 20
10.5382
 30
0.0
 10
13.6578
 20
10.5382
 30
0.0
 10
13.6578
 20
10.5382
 30
0.0
 10
13.6578
 20
10.5382
 30
0.0
 10
13.7763
 20
10.6567
 30
0.0
 10
13.7763
 20
10.6567
 30
0.0
 10
13.7763
 20
10.6567
 30
0.0
 10
13.7763
 20
10.6567
 30
0.0
 10
13.8863
 20
10.7667
 30
0.0
 10
13.8863
 20
10.7667
 30
0.0
 10
13.8863
 20
10.7667
 30
0.0
 10
13.8863
 20
10.7667
 30
0.0
 10
13.9962
 20
10.9105
 30
0.0
 10
13.9962
 20
10.9105
 30
0.0
 10
13.9962
 20
10.9105
 30
0.0
 10
13.9962
 20
10.9105
 30
0.0
 10
14.0893
 20
11.0543
 30
0.0
 10
14.0893
 20
11.0543
 30
0.0
 10
14.0893
 20
11.0543
 30
0.0
 10
14.0893
 20
11.0543
 30
0.0
 10
14.1655
 20
11.1982
 30
0.0
 10
14.1655
 20
11.1982
 30
0.0
 10
14.1655
 20
11.1982
 30
0.0
 10
14.1655
 20
11.1982
 30
0.0
 10
14.2332
 20
11.3674
 30
0.0
 10
14.2332
 20
11.3674
 30
0.0
 10
14.2332
 20
11.3674
 30
0.0
 10
14.2332
 20
11.3674
 30
0.0
 10
14.2839
 20
11.5197
 30
0.0
 10
14.2839
 20
11.5197
 30
0.0
 10
14.2839
 20
11.5197
 30
0.0
 10
14.2839
 20
11.5197
 30
0.0
 10
14.3178
 20
11.6889
 30
0.0
 10
14.3178
 20
11.6889
 30
0.0
 10
14.3178
 20
11.6889
 30
0.0
 10
14.3178
 20
11.6889
 30
0.0
 10
14.3432
 20
11.8666
 30
0.0
 10
14.3432
 20
11.8666
 30
0.0
 10
14.3432
 20
11.8666
 30
0.0
 10
14.3432
 20
11.8666
 30
0.0
 10
14.3516
 20
12.0359
 30
0.0
 10
14.3516
 20
12.0359
 30
0.0
  0
SPLINE
  5
C6
330
1F
100
AcDbEntity
  8
DEFAULT_1
 62
   250
100
AcDbSpline
210
0.0
220
0.0
230
1.0
 70
     8
 71
     3
 72
    76
 73
    72
 74
     0
 42
0.0000000001
 43
0.0000000001
 40
0.0
 40
0.0
 40
0.0
 40
0.0
 40
0.0526315789473684
 40
0.0526315789473684
 40
0.0526315789473684
 40
0.0526315789473684
 40
0.1052631578947368
 40
0.1052631578947368
 40
0.1052631578947368
 40
0.1052631578947368
 40
0.1578947368421053
 40
0.1578947368421053
 40
0.1578947368421053
 40
0.1578947368421053
 40
0.2105263157894737
 40
0.2105263157894737
 40
0.2105263157894737
 40
0.2105263157894737
 40
0.2631578947368421
 40
0.2631578947368421
 40
0.2631578947368421
 40
0.2631578947368421
 40
0.3157894736842105
 40
0.3157894736842105
 40
0.3157894736842105
 40
0.3157894736842105
 40
0.3684210526315789
 40
0.3684210526315789
 40
0.3684210526315789
 40
0.3684210526315789
 40
0.4210526315789473
 40
0.4210526315789473
 40
0.4210526315789473
 40
0.4210526315789473
 40
0.4736842105263158
 40
0.4736842105263158
 40
0.4736842105263158
 40
0.4736842105263158
 40
0.5263157894736842
 40
0.5263157894736842
 40
0.5263157894736842
 40
0.5263157894736842
 40
0.5789473684210527
 40
0.5789473684210527
 40
0.5789473684210527
 40
0.5789473684210527
 40
0.631578947368421
 40
0.631578947368421
 40
0.631578947368421
 40
0.631578947368421
 40
0.6842105263157895
 40
0.6842105263157895
 40
0.6842105263157895
 40
0.6842105263157895
 40
0.7368421052631579
 40
0.7368421052631579
 40
0.7368421052631579
 40
0.7368421052631579
 40
0.7894736842105263
 40
0.7894736842105263
 40
0.7894736842105263
 40
0.7894736842105263
 40
0.8421052631578947
 40
0.8421052631578947
 40
0.8421052631578947
 40
0.8421052631578947
 40
0.8947368421052632
 40
0.8947368421052632
 40
0.8947368421052632
 40
0.8947368421052632
 40
1.0
 40
1.0
 40
1.0
 40
1.0
 10
-10.6852
 20
12.0359
 30
0.0
 10
-10.6852
 20
12.0359
 30
0.0
 10
-10.6768
 20
11.8666
 30
0.0
 10
-10.6768
 20
11.8666
 30
0.0
 10
-10.6768
 20
11.8666
 30
0.0
 10
-10.6768
 20
11.8666
 30
0.0
 10
-10.6598
 20
11.6889
 30
0.0
 10
-10.6598
 20
11.6889
 30
0.0
 10
-10.6598
 20
11.6889
 30
0.0
 10
-10.6598
 20
11.6889
 30
0.0
 10
-10.6175
 20
11.5197
 30
0.0
 10
-10.6175
 20
11.5197
 30
0.0
 10
-10.6175
 20
11.5197
 30
0.0
 10
-10.6175
 20
11.5197
 30
0.0
 10
-10.5668
 20
11.3674
 30
0.0
 10
-10.5668
 20
11.3674
 30
0.0
 10
-10.5668
 20
11.3674
 30
0.0
 10
-10.5668
 20
11.3674
 30
0.0
 10
-10.4991
 20
11.1982
 30
0.0
 10
-10.4991
 20
11.1982
 30
0.0
 10
-10.4991
 20
11.1982
 30
0.0
 10
-10.4991
 20
11.1982
 30
0.0
 10
-10.4229
 20
11.0543
 30
0.0
 10
-10.4229
 20
11.0543
 30
0.0
 10
-10.4229
 20
11.0543
 30
0.0
 10
-10.4229
 20
11.0543
 30
0.0
 10
-10.3383
 20
10.9105
 30
0.0
 10
-10.3383
 20
10.9105
 30
0.0
 10
-10.3383
 20
10.9105
 30
0.0
 10
-10.3383
 20
10.9105
 30
0.0
 10
-10.2283
 20
10.7667
 30
0.0
 10
-10.2283
 20
10.7667
 30
0.0
 10
-10.2283
 20
10.7667
 30
0.0
 10
-10.2283
 20
10.7667
 30
0.0
 10
-10.1098
 20
10.6567
 30
0.0
 10
-10.1098
 20
10.6567
 30
0.0
 10
-10.1098
 20
10.6567
 30
0.0
 10
-10.1098
 20
10.6567
 30
0.0
 10
-9.9914
 20
10.5382
 30
0.0
 10
-9.9914
 20
10.5382
 30
0.0
 10
-9.9914
 20
10.5382
 30
0.0
 10
-9.9914
 20
10.5382
 30
0.0
 10
-9.856
 20
10.4282
 30
0.0
 10
-9.856
 20
10.4282
 30
0.0
 10
-9.856
 20
10.4282
 30
0.0
 10
-9.856
 20
10.4282
 30
0.0
 10
-9.7122
 20
10.3436
 30
0.0
 10
-9.7122
 20
10.3436
 30
0.0
 10
-9.7122
 20
10.3436
 30
0.0
 10
-9.7122
 20
10.3436
 30
0.0
 10
-9.5599
 20
10.259
 30
0.0
 10
-9.5599
 20
10.259
 30
0.0
 10
-9.5599
 20
10.259
 30
0.0
 10
-9.5599
 20
10.259
 30
0.0
 10
-9.3991
 20
10.1913
 30
0.0
 10
-9.3991
 20
10.1913
 30
0.0
 10
-9.3991
 20
10.1913
 30
0.0
 10
-9.3991
 20
10.1913
 30
0.0
 10
-9.2383
 20
10.1405
 30
0.0
 10
-9.2383
 20
10.1405
 30
0.0
 10
-9.2383
 20
10.1405
 30
0.0
 10
-9.2383
 20
10.1405
 30
0.0
 10
-9.0776
 20
10.1067
 30
0.0
 10
-9.0776
 20
10.1067
 30
0.0
 10
-9.0776
 20
10.1067
 30
0.0
 10
-9.0776
 20
10.1067
 30
0.0
 10
-8.8999
 20
10.0813
 30
0.0
 10
-8.8999
 20
10.0813
 30
0.0
 10
-8.8999
 20
10.0813
 30
0.0
 10
-8.8999
 20
10.0813
 30
0.0
 10
-8.7307
 20
10.0728
 30
0.0
 10
-8.7307
 20
10.0728
 30
0.0
  0
SPLINE
  5
C7
330
1F
100
AcDbEntity
  8
DEFAULT_1
 62
   250
100
AcDbSpline
210
0.0
220
0.0
230
1.0
 70
     8
 71
     3
 72
    68
 73
    64
 74
     0
 42
0.0000000001
 43
0.0000000001
 40
0.0
 40
0.0
 40
0.0
 40
0.0
 40
0.0588235294117647
 40
0.0588235294117647
 40
0.0588235294117647
 40
0.0588235294117647
 40
0.1176470588235294
 40
0.1176470588235294
 40
0.1176470588235294
 40
0.1176470588235294
 40
0.1764705882352941
 40
0.1764705882352941
 40
0.1764705882352941
 40
0.1764705882352941
 40
0.2352941176470588
 40
0.2352941176470588
 40
0.2352941176470588
 40
0.2352941176470588
 40
0.2941176470588235
 40
0.2941176470588235
 40
0.2941176470588235
 40
0.2941176470588235
 40
0.3529411764705883
 40
0.3529411764705883
 40
0.3529411764705883
 40
0.3529411764705883
 40
0.4117647058823529
 40
0.4117647058823529
 40
0.4117647058823529
 40
0.4117647058823529
 40
0.4705882352941176
 40
0.4705882352941176
 40
0.4705882352941176
 40
0.4705882352941176
 40
0.5294117647058824
 40
0.5294117647058824
 40
0.5294117647058824
 40
0.5294117647058824
 40
0.5882352941176471
 40
0.5882352941176471
 40
0.5882352941176471
 40
0.5882352941176471
 40
0.6470588235294118
 40
0.6470588235294118
 40
0.6470588235294118
 40
0.6470588235294118
 40
0.7058823529411765
 40
0.7058823529411765
 40
0.7058823529411765
 40
0.7058823529411765
 40
0.7647058823529411
 40
0.7647058823529411
 40
0.7647058823529411
 40
0.7647058823529411
 40
0.8235294117647058
 40
0.8235294117647058
 40
0.8235294117647058
 40
0.8235294117647058
 40
0.8823529411764706
 40
0.8823529411764706
 40
0.8823529411764706
 40
0.8823529411764706
 40
1.0
 40
1.0
 40
1.0
 40
1.0
 10
13.4209
 20
8.8629
 30
0.0
 10
13.4209
 20
8.8629
 30
0.0
 10
13.4463
 20
8.8713
 30
0.0
 10
13.4463
 20
8.8713
 30
0.0
 10
13.4463
 20
8.8713
 30
0.0
 10
13.4463
 20
8.8713
 30
0.0
 10
13.4886
 20
8.8713
 30
0.0
 10
13.4886
 20
8.8713
 30
0.0
 10
13.4886
 20
8.8713
 30
0.0
 10
13.4886
 20
8.8713
 30
0.0
 10
13.514
 20
8.8883
 30
0.0
 10
13.514
 20
8.8883
 30
0.0
 10
13.514
 20
8.8883
 30
0.0
 10
13.514
 20
8.8883
 30
0.0
 10
13.5478
 20
8.9052
 30
0.0
 10
13.5478
 20
8.9052
 30
0.0
 10
13.5478
 20
8.9052
 30
0.0
 10
13.5478
 20
8.9052
 30
0.0
 10
13.5732
 20
8.9221
 30
0.0
 10
13.5732
 20
8.9221
 30
0.0
 10
13.5732
 20
8.9221
 30
0.0
 10
13.5732
 20
8.9221
 30
0.0
 10
13.6071
 20
8.939
 30
0.0
 10
13.6071
 20
8.939
 30
0.0
 10
13.6071
 20
8.939
 30
0.0
 10
13.6071
 20
8.939
 30
0.0
 10
13.6324
 20
8.9644
 30
0.0
 10
13.6324
 20
8.9644
 30
0.0
 10
13.6324
 20
8.9644
 30
0.0
 10
13.6324
 20
8.9644
 30
0.0
 10
13.6578
 20
8.9813
 30
0.0
 10
13.6578
 20
8.9813
 30
0.0
 10
13.6578
 20
8.9813
 30
0.0
 10
13.6578
 20
8.9813
 30
0.0
 10
13.6747
 20
9.0067
 30
0.0
 10
13.6747
 20
9.0067
 30
0.0
 10
13.6747
 20
9.0067
 30
0.0
 10
13.6747
 20
9.0067
 30
0.0
 10
13.6916
 20
9.0406
 30
0.0
 10
13.6916
 20
9.0406
 30
0.0
 10
13.6916
 20
9.0406
 30
0.0
 10
13.6916
 20
9.0406
 30
0.0
 10
13.717
 20
9.066
 30
0.0
 10
13.717
 20
9.066
 30
0.0
 10
13.717
 20
9.066
 30
0.0
 10
13.717
 20
9.066
 30
0.0
 10
13.734
 20
9.0998
 30
0.0
 10
13.734
 20
9.0998
 30
0.0
 10
13.734
 20
9.0998
 30
0.0
 10
13.734
 20
9.0998
 30
0.0
 10
13.7424
 20
9.1252
 30
0.0
 10
13.7424
 20
9.1252
 30
0.0
 10
13.7424
 20
9.1252
 30
0.0
 10
13.7424
 20
9.1252
 30
0.0
 10
13.7509
 20
9.159
 30
0.0
 10
13.7509
 20
9.159
 30
0.0
 10
13.7509
 20
9.159
 30
0.0
 10
13.7509
 20
9.159
 30
0.0
 10
13.7594
 20
9.1844
 30
0.0
 10
13.7594
 20
9.1844
 30
0.0
 10
13.7594
 20
9.1844
 30
0.0
 10
13.7594
 20
9.1844
 30
0.0
 10
13.7594
 20
9.2521
 30
0.0
 10
13.7594
 20
9.2521
 30
0.0
  0
SPLINE
  5
C8
330
1F
100
AcDbEntity
  8
DEFAULT_1
 62
   250
100
AcDbSpline
210
0.0
220
0.0
230
1.0
 70
     8
 71
     3
 72
    72
 73
    68
 74
     0
 42
0.0000000001
 43
0.0000000001
 40
0.0
 40
0.0
 40
0.0
 40
0.0
 40
0.0555555555555556
 40
0.0555555555555556
 40
0.0555555555555556
 40
0.0555555555555556
 40
0.1111111111111111
 40
0.1111111111111111
 40
0.1111111111111111
 40
0.1111111111111111
 40
0.1666666666666667
 40
0.1666666666666667
 40
0.1666666666666667
 40
0.1666666666666667
 40
0.2222222222222222
 40
0.2222222222222222
 40
0.2222222222222222
 40
0.2222222222222222
 40
0.2777777777777778
 40
0.2777777777777778
 40
0.2777777777777778
 40
0.2777777777777778
 40
0.3333333333333333
 40
0.3333333333333333
 40
0.3333333333333333
 40
0.3333333333333333
 40
0.3888888888888889
 40
0.3888888888888889
 40
0.3888888888888889
 40
0.3888888888888889
 40
0.4444444444444444
 40
0.4444444444444444
 40
0.4444444444444444
 40
0.4444444444444444
 40
0.5
 40
0.5
 40
0.5
 40
0.5
 40
0.5555555555555556
 40
0.5555555555555556
 40
0.5555555555555556
 40
0.5555555555555556
 40
0.6111111111111112
 40
0.6111111111111112
 40
0.6111111111111112
 40
0.6111111111111112
 40
0.6666666666666666
 40
0.6666666666666666
 40
0.6666666666666666
 40
0.6666666666666666
 40
0.7222222222222222
 40
0.7222222222222222
 40
0.7222222222222222
 40
0.7222222222222222
 40
0.7777777777777778
 40
0.7777777777777778
 40
0.7777777777777778
 40
0.7777777777777778
 40
0.8333333333333334
 40
0.8333333333333334
 40
0.8333333333333334
 40
0.8333333333333334
 40
0.8888888888888888
 40
0.8888888888888888
 40
0.8888888888888888
 40
0.8888888888888888
 40
1.0
 40
1.0
 40
1.0
 40
1.0
 10
-10.1014
 20
9.2521
 30
0.0
 10
-10.1014
 20
9.2521
 30
0.0
 10
-10.1014
 20
9.2267
 30
0.0
 10
-10.1014
 20
9.2267
 30
0.0
 10
-10.1014
 20
9.2267
 30
0.0
 10
-10.1014
 20
9.2267
 30
0.0
 10
-10.0929
 20
9.1844
 30
0.0
 10
-10.0929
 20
9.1844
 30
0.0
 10
-10.0929
 20
9.1844
 30
0.0
 10
-10.0929
 20
9.1844
 30
0.0
 10
-10.0929
 20
9.159
 30
0.0
 10
-10.0929
 20
9.159
 30
0.0
 10
-10.0929
 20
9.159
 30
0.0
 10
-10.0929
 20
9.159
 30
0.0
 10
-10.0845
 20
9.1252
 30
0.0
 10
-10.0845
 20
9.1252
 30
0.0
 10
-10.0845
 20
9.1252
 30
0.0
 10
-10.0845
 20
9.1252
 30
0.0
 10
-10.0591
 20
9.0913
 30
0.0
 10
-10.0591
 20
9.0913
 30
0.0
 10
-10.0591
 20
9.0913
 30
0.0
 10
-10.0591
 20
9.0913
 30
0.0
 10
-10.0506
 20
9.0575
 30
0.0
 10
-10.0506
 20
9.0575
 30
0.0
 10
-10.0506
 20
9.0575
 30
0.0
 10
-10.0506
 20
9.0575
 30
0.0
 10
-10.0337
 20
9.0321
 30
0.0
 10
-10.0337
 20
9.0321
 30
0.0
 10
-10.0337
 20
9.0321
 30
0.0
 10
-10.0337
 20
9.0321
 30
0.0
 10
-10.0083
 20
9.0067
 30
0.0
 10
-10.0083
 20
9.0067
 30
0.0
 10
-10.0083
 20
9.0067
 30
0.0
 10
-10.0083
 20
9.0067
 30
0.0
 10
-9.9914
 20
8.9813
 30
0.0
 10
-9.9914
 20
8.9813
 30
0.0
 10
-9.9914
 20
8.9813
 30
0.0
 10
-9.9914
 20
8.9813
 30
0.0
 10
-9.966
 20
8.9644
 30
0.0
 10
-9.966
 20
8.9644
 30
0.0
 10
-9.966
 20
8.9644
 30
0.0
 10
-9.966
 20
8.9644
 30
0.0
 10
-9.9406
 20
8.939
 30
0.0
 10
-9.9406
 20
8.939
 30
0.0
 10
-9.9406
 20
8.939
 30
0.0
 10
-9.9406
 20
8.939
 30
0.0
 10
-9.9153
 20
8.9221
 30
0.0
 10
-9.9153
 20
8.9221
 30
0.0
 10
-9.9153
 20
8.9221
 30
0.0
 10
-9.9153
 20
8.9221
 30
0.0
 10
-9.8814
 20
8.9052
 30
0.0
 10
-9.8814
 20
8.9052
 30
0.0
 10
-9.8814
 20
8.9052
 30
0.0
 10
-9.8814
 20
8.9052
 30
0.0
 10
-9.856
 20
8.8883
 30
0.0
 10
-9.856
 20
8.8883
 30
0.0
 10
-9.856
 20
8.8883
 30
0.0
 10
-9.856
 20
8.8883
 30
0.0
 10
-9.8137
 20
8.8798
 30
0.0
 10
-9.8137
 20
8.8798
 30
0.0
 10
-9.8137
 20
8.8798
 30
0.0
 10
-9.8137
 20
8.8798
 30
0.0
 10
-9.7883
 20
8.8713
 30
0.0
 10
-9.7883
 20
8.8713
 30
0.0
 10
-9.7883
 20
8.8713
 30
0.0
 10
-9.7883
 20
8.8713
 30
0.0
 10
-9.7545
 20
8.8629
 30
0.0
 10
-9.7545
 20
8.8629
 30
0.0
  0
SPLINE
  5
C9
330
1F
100
AcDbEntity
  8
DEFAULT_1
 62
   250
100
AcDbSpline
210
0.0
220
0.0
230
1.0
 70
     8
 71
     3
 72
    68
 73
    64
 74
     0
 42
0.0000000001
 43
0.0000000001
 40
0.0
 40
0.0
 40
0.0
 40
0.0
 40
0.0588235294117647
 40
0.0588235294117647
 40
0.0588235294117647
 40
0.0588235294117647
 40
0.1176470588235294
 40
0.1176470588235294
 40
0.1176470588235294
 40
0.1176470588235294
 40
0.1764705882352941
 40
0.1764705882352941
 40
0.1764705882352941
 40
0.1764705882352941
 40
0.2352941176470588
 40
0.2352941176470588
 40
0.2352941176470588
 40
0.2352941176470588
 40
0.2941176470588235
 40
0.2941176470588235
 40
0.2941176470588235
 40
0.2941176470588235
 40
0.3529411764705883
 40
0.3529411764705883
 40
0.3529411764705883
 40
0.3529411764705883
 40
0.4117647058823529
 40
0.4117647058823529
 40
0.4117647058823529
 40
0.4117647058823529
 40
0.4705882352941176
 40
0.4705882352941176
 40
0.4705882352941176
 40
0.4705882352941176
 40
0.5294117647058824
 40
0.5294117647058824
 40
0.5294117647058824
 40
0.5294117647058824
 40
0.5882352941176471
 40
0.5882352941176471
 40
0.5882352941176471
 40
0.5882352941176471
 40
0.6470588235294118
 40
0.6470588235294118
 40
0.6470588235294118
 40
0.6470588235294118
 40
0.7058823529411765
 40
0.7058823529411765
 40
0.7058823529411765
 40
0.7058823529411765
 40
0.7647058823529411
 40
0.7647058823529411
 40
0.7647058823529411
 40
0.7647058823529411
 40
0.8235294117647058
 40
0.8235294117647058
 40
0.8235294117647058
 40
0.8235294117647058
 40
0.8823529411764706
 40
0.8823529411764706
 40
0.8823529411764706
 40
0.8823529411764706
 40
1.0
 40
1.0
 40
1.0
 40
1.0
 10
14.0386
 20
21.0301
 30
0.0
 10
14.0386
 20
21.0301
 30
0.0
 10
14.0978
 20
21.0301
 30
0.0
 10
14.0978
 20
21.0301
 30
0.0
 10
14.0978
 20
21.0301
 30
0.0
 10
14.0978
 20
21.0301
 30
0.0
 10
14.1147
 20
21.0471
 30
0.0
 10
14.1147
 20
21.0471
 30
0.0
 10
14.1147
 20
21.0471
 30
0.0
 10
14.1147
 20
21.0471
 30
0.0
 10
14.1401
 20
21.0555
 30
0.0
 10
14.1401
 20
21.0555
 30
0.0
 10
14.1401
 20
21.0555
 30
0.0
 10
14.1401
 20
21.0555
 30
0.0
 10
14.1739
 20
21.064
 30
0.0
 10
14.1739
 20
21.064
 30
0.0
 10
14.1739
 20
21.064
 30
0.0
 10
14.1739
 20
21.064
 30
0.0
 10
14.1909
 20
21.0725
 30
0.0
 10
14.1909
 20
21.0725
 30
0.0
 10
14.1909
 20
21.0725
 30
0.0
 10
14.1909
 20
21.0725
 30
0.0
 10
14.2163
 20
21.0894
 30
0.0
 10
14.2163
 20
21.0894
 30
0.0
 10
14.2163
 20
21.0894
 30
0.0
 10
14.2163
 20
21.0894
 30
0.0
 10
14.2416
 20
21.0979
 30
0.0
 10
14.2416
 20
21.0979
 30
0.0
 10
14.2416
 20
21.0979
 30
0.0
 10
14.2416
 20
21.0979
 30
0.0
 10
14.2586
 20
21.1232
 30
0.0
 10
14.2586
 20
21.1232
 30
0.0
 10
14.2586
 20
21.1232
 30
0.0
 10
14.2586
 20
21.1232
 30
0.0
 10
14.2839
 20
21.1402
 30
0.0
 10
14.2839
 20
21.1402
 30
0.0
 10
14.2839
 20
21.1402
 30
0.0
 10
14.2839
 20
21.1402
 30
0.0
 10
14.2924
 20
21.174
 30
0.0
 10
14.2924
 20
21.174
 30
0.0
 10
14.2924
 20
21.174
 30
0.0
 10
14.2924
 20
21.174
 30
0.0
 10
14.3093
 20
21.1909
 30
0.0
 10
14.3093
 20
21.1909
 30
0.0
 10
14.3093
 20
21.1909
 30
0.0
 10
14.3093
 20
21.1909
 30
0.0
 10
14.3178
 20
21.2078
 30
0.0
 10
14.3178
 20
21.2078
 30
0.0
 10
14.3178
 20
21.2078
 30
0.0
 10
14.3178
 20
21.2078
 30
0.0
 10
14.3262
 20
21.2417
 30
0.0
 10
14.3262
 20
21.2417
 30
0.0
 10
14.3262
 20
21.2417
 30
0.0
 10
14.3262
 20
21.2417
 30
0.0
 10
14.3432
 20
21.2671
 30
0.0
 10
14.3432
 20
21.2671
 30
0.0
 10
14.3432
 20
21.2671
 30
0.0
 10
14.3432
 20
21.2671
 30
0.0
 10
14.3516
 20
21.284
 30
0.0
 10
14.3516
 20
21.284
 30
0.0
 10
14.3516
 20
21.284
 30
0.0
 10
14.3516
 20
21.284
 30
0.0
 10
14.3516
 20
21.3432
 30
0.0
 10
14.3516
 20
21.3432
 30
0.0
  0
SPLINE
  5
CA
330
1F
100
AcDbEntity
  8
DEFAULT_1
 62
   250
100
AcDbSpline
210
0.0
220
0.0
230
1.0
 70
     8
 71
     3
 72
    24
 73
    20
 74
     0
 42
0.0000000001
 43
0.0000000001
 40
0.0
 40
0.0
 40
0.0
 40
0.0
 40
0.1666666666666667
 40
0.1666666666666667
 40
0.1666666666666667
 40
0.1666666666666667
 40
0.3333333333333333
 40
0.3333333333333333
 40
0.3333333333333333
 40
0.3333333333333333
 40
0.5
 40
0.5
 40
0.5
 40
0.5
 40
0.6666666666666666
 40
0.6666666666666666
 40
0.6666666666666666
 40
0.6666666666666666
 40
1.0
 40
1.0
 40
1.0
 40
1.0
 10
-10.6852
 20
21.3432
 30
0.0
 10
-10.6852
 20
21.3432
 30
0.0
 10
-10.6852
 20
21.284
 30
0.0
 10
-10.6852
 20
21.284
 30
0.0
 10
-10.6852
 20
21.284
 30
0.0
 10
-10.6852
 20
21.284
 30
0.0
 10
-10.6768
 20
21.2671
 30
0.0
 10
-10.6768
 20
21.2671
 30
0.0
 10
-10.6768
 20
21.2671
 30
0.0
 10
-10.6768
 20
21.2671
 30
0.0
 10
-10.6683
 20
21.2417
 30
0.0
 10
-10.6683
 20
21.2417
 30
0.0
 10
-10.6683
 20
21.2417
 30
0.0
 10
-10.6683
 20
21.2417
 30
0.0
 10
-10.6598
 20
21.2078
 30
0.0
 10
-10.6598
 20
21.2078
 30
0.0
 10
-10.6598
 20
21.2078
 30
0.0
 10
-10.6598
 20
21.2078
 30
0.0
 10
-10.6514
 20
21.1909
 30
0.0
 10
-10.6514
 20
21.1909
 30
0.0
  0
SPLINE
  5
CB
330
1F
100
AcDbEntity
  8
DEFAULT_1
 62
   250
100
AcDbSpline
210
0.0
220
0.0
230
1.0
 70
     8
 71
     3
 72
    48
 73
    44
 74
     0
 42
0.0000000001
 43
0.0000000001
 40
0.0
 40
0.0
 40
0.0
 40
0.0
 40
0.0833333333333333
 40
0.0833333333333333
 40
0.0833333333333333
 40
0.0833333333333333
 40
0.1666666666666667
 40
0.1666666666666667
 40
0.1666666666666667
 40
0.1666666666666667
 40
0.25
 40
0.25
 40
0.25
 40
0.25
 40
0.3333333333333333
 40
0.3333333333333333
 40
0.3333333333333333
 40
0.3333333333333333
 40
0.4166666666666667
 40
0.4166666666666667
 40
0.4166666666666667
 40
0.4166666666666667
 40
0.5
 40
0.5
 40
0.5
 40
0.5
 40
0.5833333333333334
 40
0.5833333333333334
 40
0.5833333333333334
 40
0.5833333333333334
 40
0.6666666666666666
 40
0.6666666666666666
 40
0.6666666666666666
 40
0.6666666666666666
 40
0.75
 40
0.75
 40
0.75
 40
0.75
 40
0.8333333333333334
 40
0.8333333333333334
 40
0.8333333333333334
 40
0.8333333333333334
 40
1.0
 40
1.0
 40
1.0
 40
1.0
 10
-10.6514
 20
21.1909
 30
0.0
 10
-10.6514
 20
21.1909
 30
0.0
 10
-10.626
 20
21.174
 30
0.0
 10
-10.626
 20
21.174
 30
0.0
 10
-10.626
 20
21.174
 30
0.0
 10
-10.626
 20
21.174
 30
0.0
 10
-10.6175
 20
21.1402
 30
0.0
 10
-10.6175
 20
21.1402
 30
0.0
 10
-10.6175
 20
21.1402
 30
0.0
 10
-10.6175
 20
21.1402
 30
0.0
 10
-10.6006
 20
21.1232
 30
0.0
 10
-10.6006
 20
21.1232
 30
0.0
 10
-10.6006
 20
21.1232
 30
0.0
 10
-10.6006
 20
21.1232
 30
0.0
 10
-10.5837
 20
21.0979
 30
0.0
 10
-10.5837
 20
21.0979
 30
0.0
 10
-10.5837
 20
21.0979
 30
0.0
 10
-10.5837
 20
21.0979
 30
0.0
 10
-10.5498
 20
21.0894
 30
0.0
 10
-10.5498
 20
21.0894
 30
0.0
 10
-10.5498
 20
21.0894
 30
0.0
 10
-10.5498
 20
21.0894
 30
0.0
 10
-10.5329
 20
21.0725
 30
0.0
 10
-10.5329
 20
21.0725
 30
0.0
 10
-10.5329
 20
21.0725
 30
0.0
 10
-10.5329
 20
21.0725
 30
0.0
 10
-10.5075
 20
21.064
 30
0.0
 10
-10.5075
 20
21.064
 30
0.0
 10
-10.5075
 20
21.064
 30
0.0
 10
-10.5075
 20
21.064
 30
0.0
 10
-10.4821
 20
21.0555
 30
0.0
 10
-10.4821
 20
21.0555
 30
0.0
 10
-10.4821
 20
21.0555
 30
0.0
 10
-10.4821
 20
21.0555
 30
0.0
 10
-10.4483
 20
21.0471
 30
0.0
 10
-10.4483
 20
21.0471
 30
0.0
 10
-10.4483
 20
21.0471
 30
0.0
 10
-10.4483
 20
21.0471
 30
0.0
 10
-10.4314
 20
21.0301
 30
0.0
 10
-10.4314
 20
21.0301
 30
0.0
 10
-10.4314
 20
21.0301
 30
0.0
 10
-10.4314
 20
21.0301
 30
0.0
 10
-10.3722
 20
21.0301
 30
0.0
 10
-10.3722
 20
21.0301
 30
0.0
  0
SPLINE
  5
CC
330
1F
100
AcDbEntity
  8
DEFAULT_1
 62
   250
100
AcDbSpline
210
0.0
220
0.0
230
1.0
 70
     8
 71
     3
 72
    56
 73
    52
 74
     0
 42
0.0000000001
 43
0.0000000001
 40
0.0
 40
0.0
 40
0.0
 40
0.0
 40
0.0714285714285714
 40
0.0714285714285714
 40
0.0714285714285714
 40
0.0714285714285714
 40
0.1428571428571428
 40
0.1428571428571428
 40
0.1428571428571428
 40
0.1428571428571428
 40
0.2142857142857143
 40
0.2142857142857143
 40
0.2142857142857143
 40
0.2142857142857143
 40
0.2857142857142857
 40
0.2857142857142857
 40
0.2857142857142857
 40
0.2857142857142857
 40
0.3571428571428572
 40
0.3571428571428572
 40
0.3571428571428572
 40
0.3571428571428572
 40
0.4285714285714285
 40
0.4285714285714285
 40
0.4285714285714285
 40
0.4285714285714285
 40
0.5
 40
0.5
 40
0.5
 40
0.5
 40
0.5714285714285714
 40
0.5714285714285714
 40
0.5714285714285714
 40
0.5714285714285714
 40
0.6428571428571429
 40
0.6428571428571429
 40
0.6428571428571429
 40
0.6428571428571429
 40
0.7142857142857143
 40
0.7142857142857143
 40
0.7142857142857143
 40
0.7142857142857143
 40
0.7857142857142857
 40
0.7857142857142857
 40
0.7857142857142857
 40
0.7857142857142857
 40
0.8571428571428571
 40
0.8571428571428571
 40
0.8571428571428571
 40
0.8571428571428571
 40
1.0
 40
1.0
 40
1.0
 40
1.0
 10
14.3516
 20
21.4025
 30
0.0
 10
14.3516
 20
21.4025
 30
0.0
 10
14.3516
 20
21.4363
 30
0.0
 10
14.3516
 20
21.4363
 30
0.0
 10
14.3516
 20
21.4363
 30
0.0
 10
14.3516
 20
21.4363
 30
0.0
 10
14.3432
 20
21.4448
 30
0.0
 10
14.3432
 20
21.4448
 30
0.0
 10
14.3432
 20
21.4448
 30
0.0
 10
14.3432
 20
21.4448
 30
0.0
 10
14.3432
 20
21.4617
 30
0.0
 10
14.3432
 20
21.4617
 30
0.0
 10
14.3432
 20
21.4617
 30
0.0
 10
14.3432
 20
21.4617
 30
0.0
 10
14.3262
 20
21.4701
 30
0.0
 10
14.3262
 20
21.4701
 30
0.0
 10
14.3262
 20
21.4701
 30
0.0
 10
14.3262
 20
21.4701
 30
0.0
 10
14.3178
 20
21.4701
 30
0.0
 10
14.3178
 20
21.4701
 30
0.0
 10
14.3178
 20
21.4701
 30
0.0
 10
14.3178
 20
21.4701
 30
0.0
 10
14.3178
 20
21.487
 30
0.0
 10
14.3178
 20
21.487
 30
0.0
 10
14.3178
 20
21.487
 30
0.0
 10
14.3178
 20
21.487
 30
0.0
 10
14.3093
 20
21.4955
 30
0.0
 10
14.3093
 20
21.4955
 30
0.0
 10
14.3093
 20
21.4955
 30
0.0
 10
14.3093
 20
21.4955
 30
0.0
 10
14.3008
 20
21.4955
 30
0.0
 10
14.3008
 20
21.4955
 30
0.0
 10
14.3008
 20
21.4955
 30
0.0
 10
14.3008
 20
21.4955
 30
0.0
 10
14.3008
 20
21.504
 30
0.0
 10
14.3008
 20
21.504
 30
0.0
 10
14.3008
 20
21.504
 30
0.0
 10
14.3008
 20
21.504
 30
0.0
 10
14.2924
 20
21.5124
 30
0.0
 10
14.2924
 20
21.5124
 30
0.0
 10
14.2924
 20
21.5124
 30
0.0
 10
14.2924
 20
21.5124
 30
0.0
 10
14.267
 20
21.5124
 30
0.0
 10
14.267
 20
21.5124
 30
0.0
 10
14.267
 20
21.5124
 30
0.0
 10
14.267
 20
21.5124
 30
0.0
 10
14.2586
 20
21.5209
 30
0.0
 10
14.2586
 20
21.5209
 30
0.0
 10
14.2586
 20
21.5209
 30
0.0
 10
14.2586
 20
21.5209
 30
0.0
 10
14.2501
 20
21.5209
 30
0.0
 10
14.2501
 20
21.5209
 30
0.0
  0
SPLINE
  5
CD
330
1F
100
AcDbEntity
  8
DEFAULT_1
 62
   250
100
AcDbSpline
210
0.0
220
0.0
230
1.0
 70
     8
 71
     3
 72
    52
 73
    48
 74
     0
 42
0.0000000001
 43
0.0000000001
 40
0.0
 40
0.0
 40
0.0
 40
0.0
 40
0.0769230769230769
 40
0.0769230769230769
 40
0.0769230769230769
 40
0.0769230769230769
 40
0.1538461538461539
 40
0.1538461538461539
 40
0.1538461538461539
 40
0.1538461538461539
 40
0.2307692307692308
 40
0.2307692307692308
 40
0.2307692307692308
 40
0.2307692307692308
 40
0.3076923076923077
 40
0.3076923076923077
 40
0.3076923076923077
 40
0.3076923076923077
 40
0.3846153846153846
 40
0.3846153846153846
 40
0.3846153846153846
 40
0.3846153846153846
 40
0.4615384615384616
 40
0.4615384615384616
 40
0.4615384615384616
 40
0.4615384615384616
 40
0.5384615384615384
 40
0.5384615384615384
 40
0.5384615384615384
 40
0.5384615384615384
 40
0.6153846153846154
 40
0.6153846153846154
 40
0.6153846153846154
 40
0.6153846153846154
 40
0.6923076923076923
 40
0.6923076923076923
 40
0.6923076923076923
 40
0.6923076923076923
 40
0.7692307692307693
 40
0.7692307692307693
 40
0.7692307692307693
 40
0.7692307692307693
 40
0.8461538461538461
 40
0.8461538461538461
 40
0.8461538461538461
 40
0.8461538461538461
 40
1.0
 40
1.0
 40
1.0
 40
1.0
 10
-10.5921
 20
21.5209
 30
0.0
 10
-10.5921
 20
21.5209
 30
0.0
 10
-10.609
 20
21.5209
 30
0.0
 10
-10.609
 20
21.5209
 30
0.0
 10
-10.609
 20
21.5209
 30
0.0
 10
-10.609
 20
21.5209
 30
0.0
 10
-10.6175
 20
21.5124
 30
0.0
 10
-10.6175
 20
21.5124
 30
0.0
 10
-10.6175
 20
21.5124
 30
0.0
 10
-10.6175
 20
21.5124
 30
0.0
 10
-10.626
 20
21.5124
 30
0.0
 10
-10.626
 20
21.5124
 30
0.0
 10
-10.626
 20
21.5124
 30
0.0
 10
-10.626
 20
21.5124
 30
0.0
 10
-10.6344
 20
21.504
 30
0.0
 10
-10.6344
 20
21.504
 30
0.0
 10
-10.6344
 20
21.504
 30
0.0
 10
-10.6344
 20
21.504
 30
0.0
 10
-10.6514
 20
21.4955
 30
0.0
 10
-10.6514
 20
21.4955
 30
0.0
 10
-10.6514
 20
21.4955
 30
0.0
 10
-10.6514
 20
21.4955
 30
0.0
 10
-10.6598
 20
21.487
 30
0.0
 10
-10.6598
 20
21.487
 30
0.0
 10
-10.6598
 20
21.487
 30
0.0
 10
-10.6598
 20
21.487
 30
0.0
 10
-10.6683
 20
21.487
 30
0.0
 10
-10.6683
 20
21.487
 30
0.0
 10
-10.6683
 20
21.487
 30
0.0
 10
-10.6683
 20
21.487
 30
0.0
 10
-10.6683
 20
21.4701
 30
0.0
 10
-10.6683
 20
21.4701
 30
0.0
 10
-10.6683
 20
21.4701
 30
0.0
 10
-10.6683
 20
21.4701
 30
0.0
 10
-10.6768
 20
21.4617
 30
0.0
 10
-10.6768
 20
21.4617
 30
0.0
 10
-10.6768
 20
21.4617
 30
0.0
 10
-10.6768
 20
21.4617
 30
0.0
 10
-10.6768
 20
21.4448
 30
0.0
 10
-10.6768
 20
21.4448
 30
0.0
 10
-10.6768
 20
21.4448
 30
0.0
 10
-10.6768
 20
21.4448
 30
0.0
 10
-10.6852
 20
21.4363
 30
0.0
 10
-10.6852
 20
21.4363
 30
0.0
 10
-10.6852
 20
21.4363
 30
0.0
 10
-10.6852
 20
21.4363
 30
0.0
 10
-10.6852
 20
21.4025
 30
0.0
 10
-10.6852
 20
21.4025
 30
0.0
  0
SPLINE
  5
CE
330
1F
100
AcDbEntity
  8
DEFAULT_1
 62
   250
100
AcDbSpline
210
0.0
220
0.0
230
1.0
 70
     8
 71
     3
 72
    24
 73
    20
 74
     0
 42
0.0000000001
 43
0.0000000001
 40
0.0
 40
0.0
 40
0.0
 40
0.0
 40
0.1666666666666667
 40
0.1666666666666667
 40
0.1666666666666667
 40
0.1666666666666667
 40
0.3333333333333333
 40
0.3333333333333333
 40
0.3333333333333333
 40
0.3333333333333333
 40
0.5
 40
0.5
 40
0.5
 40
0.5
 40
0.6666666666666666
 40
0.6666666666666666
 40
0.6666666666666666
 40
0.6666666666666666
 40
1.0
 40
1.0
 40
1.0
 40
1.0
 10
-8.0538
 20
8.6683
 30
0.0
 10
-8.0538
 20
8.6683
 30
0.0
 10
-7.9861
 20
8.6683
 30
0.0
 10
-7.9861
 20
8.6683
 30
0.0
 10
-7.9861
 20
8.6683
 30
0.0
 10
-7.9861
 20
8.6683
 30
0.0
 10
-7.9691
 20
8.6598
 30
0.0
 10
-7.9691
 20
8.6598
 30
0.0
 10
-7.9691
 20
8.6598
 30
0.0
 10
-7.9691
 20
8.6598
 30
0.0
 10
-7.893
 20
8.6598
 30
0.0
 10
-7.893
 20
8.6598
 30
0.0
 10
-7.893
 20
8.6598
 30
0.0
 10
-7.893
 20
8.6598
 30
0.0
 10
-7.8592
 20
8.6513
 30
0.0
 10
-7.8592
 20
8.6513
 30
0.0
 10
-7.8592
 20
8.6513
 30
0.0
 10
-7.8592
 20
8.6513
 30
0.0
 10
-7.7915
 20
8.6513
 30
0.0
 10
-7.7915
 20
8.6513
 30
0.0
  0
SPLINE
  5
CF
330
1F
100
AcDbEntity
  8
DEFAULT_1
 62
   250
100
AcDbSpline
210
0.0
220
0.0
230
1.0
 70
     8
 71
     3
 72
    48
 73
    44
 74
     0
 42
0.0000000001
 43
0.0000000001
 40
0.0
 40
0.0
 40
0.0
 40
0.0
 40
0.0833333333333333
 40
0.0833333333333333
 40
0.0833333333333333
 40
0.0833333333333333
 40
0.1666666666666667
 40
0.1666666666666667
 40
0.1666666666666667
 40
0.1666666666666667
 40
0.25
 40
0.25
 40
0.25
 40
0.25
 40
0.3333333333333333
 40
0.3333333333333333
 40
0.3333333333333333
 40
0.3333333333333333
 40
0.4166666666666667
 40
0.4166666666666667
 40
0.4166666666666667
 40
0.4166666666666667
 40
0.5
 40
0.5
 40
0.5
 40
0.5
 40
0.5833333333333334
 40
0.5833333333333334
 40
0.5833333333333334
 40
0.5833333333333334
 40
0.6666666666666666
 40
0.6666666666666666
 40
0.6666666666666666
 40
0.6666666666666666
 40
0.75
 40
0.75
 40
0.75
 40
0.75
 40
0.8333333333333334
 40
0.8333333333333334
 40
0.8333333333333334
 40
0.8333333333333334
 40
1.0
 40
1.0
 40
1.0
 40
1.0
 10
5.7889
 20
8.6513
 30
0.0
 10
5.7889
 20
8.6513
 30
0.0
 10
5.2727
 20
8.6175
 30
0.0
 10
5.2727
 20
8.6175
 30
0.0
 10
5.2727
 20
8.6175
 30
0.0
 10
5.2727
 20
8.6175
 30
0.0
 10
4.5281
 20
8.5921
 30
0.0
 10
4.5281
 20
8.5921
 30
0.0
 10
4.5281
 20
8.5921
 30
0.0
 10
4.5281
 20
8.5921
 30
0.0
 10
3.8174
 20
8.5667
 30
0.0
 10
3.8174
 20
8.5667
 30
0.0
 10
3.8174
 20
8.5667
 30
0.0
 10
3.8174
 20
8.5667
 30
0.0
 10
3.2166
 20
8.5583
 30
0.0
 10
3.2166
 20
8.5583
 30
0.0
 10
3.2166
 20
8.5583
 30
0.0
 10
3.2166
 20
8.5583
 30
0.0
 10
2.5228
 20
8.5498
 30
0.0
 10
2.5228
 20
8.5498
 30
0.0
 10
2.5228
 20
8.5498
 30
0.0
 10
2.5228
 20
8.5498
 30
0.0
 10
1.1352
 20
8.5498
 30
0.0
 10
1.1352
 20
8.5498
 30
0.0
 10
1.1352
 20
8.5498
 30
0.0
 10
1.1352
 20
8.5498
 30
0.0
 10
0.4413
 20
8.5583
 30
0.0
 10
0.4413
 20
8.5583
 30
0.0
 10
0.4413
 20
8.5583
 30
0.0
 10
0.4413
 20
8.5583
 30
0.0
 10
-0.1509
 20
8.5667
 30
0.0
 10
-0.1509
 20
8.5667
 30
0.0
 10
-0.1509
 20
8.5667
 30
0.0
 10
-0.1509
 20
8.5667
 30
0.0
 10
-0.8702
 20
8.5921
 30
0.0
 10
-0.8702
 20
8.5921
 30
0.0
 10
-0.8702
 20
8.5921
 30
0.0
 10
-0.8702
 20
8.5921
 30
0.0
 10
-1.6148
 20
8.6175
 30
0.0
 10
-1.6148
 20
8.6175
 30
0.0
 10
-1.6148
 20
8.6175
 30
0.0
 10
-1.6148
 20
8.6175
 30
0.0
 10
-2.1309
 20
8.6513
 30
0.0
 10
-2.1309
 20
8.6513
 30
0.0
  0
SPLINE
  5
D0
330
1F
100
AcDbEntity
  8
DEFAULT_1
 62
   250
100
AcDbSpline
210
0.0
220
0.0
230
1.0
 70
     8
 71
     3
 72
    56
 73
    52
 74
     0
 42
0.0000000001
 43
0.0000000001
 40
0.0
 40
0.0
 40
0.0
 40
0.0
 40
0.0714285714285714
 40
0.0714285714285714
 40
0.0714285714285714
 40
0.0714285714285714
 40
0.1428571428571428
 40
0.1428571428571428
 40
0.1428571428571428
 40
0.1428571428571428
 40
0.2142857142857143
 40
0.2142857142857143
 40
0.2142857142857143
 40
0.2142857142857143
 40
0.2857142857142857
 40
0.2857142857142857
 40
0.2857142857142857
 40
0.2857142857142857
 40
0.3571428571428572
 40
0.3571428571428572
 40
0.3571428571428572
 40
0.3571428571428572
 40
0.4285714285714285
 40
0.4285714285714285
 40
0.4285714285714285
 40
0.4285714285714285
 40
0.5
 40
0.5
 40
0.5
 40
0.5
 40
0.5714285714285714
 40
0.5714285714285714
 40
0.5714285714285714
 40
0.5714285714285714
 40
0.6428571428571429
 40
0.6428571428571429
 40
0.6428571428571429
 40
0.6428571428571429
 40
0.7142857142857143
 40
0.7142857142857143
 40
0.7142857142857143
 40
0.7142857142857143
 40
0.7857142857142857
 40
0.7857142857142857
 40
0.7857142857142857
 40
0.7857142857142857
 40
0.8571428571428571
 40
0.8571428571428571
 40
0.8571428571428571
 40
0.8571428571428571
 40
1.0
 40
1.0
 40
1.0
 40
1.0
 10
-3.8232
 20
8.6513
 30
0.0
 10
-3.8232
 20
8.6513
 30
0.0
 10
-4.0347
 20
8.626
 30
0.0
 10
-4.0347
 20
8.626
 30
0.0
 10
-4.0347
 20
8.626
 30
0.0
 10
-4.0347
 20
8.626
 30
0.0
 10
-4.297
 20
8.6006
 30
0.0
 10
-4.297
 20
8.6006
 30
0.0
 10
-4.297
 20
8.6006
 30
0.0
 10
-4.297
 20
8.6006
 30
0.0
 10
-4.5677
 20
8.5921
 30
0.0
 10
-4.5677
 20
8.5921
 30
0.0
 10
-4.5677
 20
8.5921
 30
0.0
 10
-4.5677
 20
8.5921
 30
0.0
 10
-4.8216
 20
8.5667
 30
0.0
 10
-4.8216
 20
8.5667
 30
0.0
 10
-4.8216
 20
8.5667
 30
0.0
 10
-4.8216
 20
8.5667
 30
0.0
 10
-5.067
 20
8.5583
 30
0.0
 10
-5.067
 20
8.5583
 30
0.0
 10
-5.067
 20
8.5583
 30
0.0
 10
-5.067
 20
8.5583
 30
0.0
 10
-5.3208
 20
8.5498
 30
0.0
 10
-5.3208
 20
8.5498
 30
0.0
 10
-5.3208
 20
8.5498
 30
0.0
 10
-5.3208
 20
8.5498
 30
0.0
 10
-6.2938
 20
8.5498
 30
0.0
 10
-6.2938
 20
8.5498
 30
0.0
 10
-6.2938
 20
8.5498
 30
0.0
 10
-6.2938
 20
8.5498
 30
0.0
 10
-6.5476
 20
8.5583
 30
0.0
 10
-6.5476
 20
8.5583
 30
0.0
 10
-6.5476
 20
8.5583
 30
0.0
 10
-6.5476
 20
8.5583
 30
0.0
 10
-6.7931
 20
8.5667
 30
0.0
 10
-6.7931
 20
8.5667
 30
0.0
 10
-6.7931
 20
8.5667
 30
0.0
 10
-6.7931
 20
8.5667
 30
0.0
 10
-7.0469
 20
8.5921
 30
0.0
 10
-7.0469
 20
8.5921
 30
0.0
 10
-7.0469
 20
8.5921
 30
0.0
 10
-7.0469
 20
8.5921
 30
0.0
 10
-7.3092
 20
8.6006
 30
0.0
 10
-7.3092
 20
8.6006
 30
0.0
 10
-7.3092
 20
8.6006
 30
0.0
 10
-7.3092
 20
8.6006
 30
0.0
 10
-7.5799
 20
8.626
 30
0.0
 10
-7.5799
 20
8.626
 30
0.0
 10
-7.5799
 20
8.626
 30
0.0
 10
-7.5799
 20
8.626
 30
0.0
 10
-7.7915
 20
8.6513
 30
0.0
 10
-7.7915
 20
8.6513
 30
0.0
  0
SPLINE
  5
D1
330
1F
100
AcDbEntity
  8
DEFAULT_1
 62
   250
100
AcDbSpline
210
0.0
220
0.0
230
1.0
 70
     8
 71
     3
 72
    32
 73
    28
 74
     0
 42
0.0000000001
 43
0.0000000001
 40
0.0
 40
0.0
 40
0.0
 40
0.0
 40
0.125
 40
0.125
 40
0.125
 40
0.125
 40
0.25
 40
0.25
 40
0.25
 40
0.25
 40
0.375
 40
0.375
 40
0.375
 40
0.375
 40
0.5
 40
0.5
 40
0.5
 40
0.5
 40
0.625
 40
0.625
 40
0.625
 40
0.625
 40
0.75
 40
0.75
 40
0.75
 40
0.75
 40
1.0
 40
1.0
 40
1.0
 40
1.0
 10
11.4579
 20
8.6513
 30
0.0
 10
11.4579
 20
8.6513
 30
0.0
 10
11.2464
 20
8.626
 30
0.0
 10
11.2464
 20
8.626
 30
0.0
 10
11.2464
 20
8.626
 30
0.0
 10
11.2464
 20
8.626
 30
0.0
 10
10.9756
 20
8.6006
 30
0.0
 10
10.9756
 20
8.6006
 30
0.0
 10
10.9756
 20
8.6006
 30
0.0
 10
10.9756
 20
8.6006
 30
0.0
 10
10.7217
 20
8.5921
 30
0.0
 10
10.7217
 20
8.5921
 30
0.0
 10
10.7217
 20
8.5921
 30
0.0
 10
10.7217
 20
8.5921
 30
0.0
 10
10.4679
 20
8.5667
 30
0.0
 10
10.4679
 20
8.5667
 30
0.0
 10
10.4679
 20
8.5667
 30
0.0
 10
10.4679
 20
8.5667
 30
0.0
 10
10.2141
 20
8.5583
 30
0.0
 10
10.2141
 20
8.5583
 30
0.0
 10
10.2141
 20
8.5583
 30
0.0
 10
10.2141
 20
8.5583
 30
0.0
 10
9.9602
 20
8.5498
 30
0.0
 10
9.9602
 20
8.5498
 30
0.0
 10
9.9602
 20
8.5498
 30
0.0
 10
9.9602
 20
8.5498
 30
0.0
 10
9.4695
 20
8.5498
 30
0.0
 10
9.4695
 20
8.5498
 30
0.0
  0
SPLINE
  5
D2
330
1F
100
AcDbEntity
  8
DEFAULT_1
 62
   250
100
AcDbSpline
210
0.0
220
0.0
230
1.0
 70
     8
 71
     3
 72
    32
 73
    28
 74
     0
 42
0.0000000001
 43
0.0000000001
 40
0.0
 40
0.0
 40
0.0
 40
0.0
 40
0.125
 40
0.125
 40
0.125
 40
0.125
 40
0.25
 40
0.25
 40
0.25
 40
0.25
 40
0.375
 40
0.375
 40
0.375
 40
0.375
 40
0.5
 40
0.5
 40
0.5
 40
0.5
 40
0.625
 40
0.625
 40
0.625
 40
0.625
 40
0.75
 40
0.75
 40
0.75
 40
0.75
 40
1.0
 40
1.0
 40
1.0
 40
1.0
 10
9.4695
 20
8.5498
 30
0.0
 10
9.4695
 20
8.5498
 30
0.0
 10
8.9787
 20
8.5498
 30
0.0
 10
8.9787
 20
8.5498
 30
0.0
 10
8.9787
 20
8.5498
 30
0.0
 10
8.9787
 20
8.5498
 30
0.0
 10
8.7334
 20
8.5583
 30
0.0
 10
8.7334
 20
8.5583
 30
0.0
 10
8.7334
 20
8.5583
 30
0.0
 10
8.7334
 20
8.5583
 30
0.0
 10
8.4795
 20
8.5667
 30
0.0
 10
8.4795
 20
8.5667
 30
0.0
 10
8.4795
 20
8.5667
 30
0.0
 10
8.4795
 20
8.5667
 30
0.0
 10
8.2257
 20
8.5921
 30
0.0
 10
8.2257
 20
8.5921
 30
0.0
 10
8.2257
 20
8.5921
 30
0.0
 10
8.2257
 20
8.5921
 30
0.0
 10
7.9634
 20
8.6006
 30
0.0
 10
7.9634
 20
8.6006
 30
0.0
 10
7.9634
 20
8.6006
 30
0.0
 10
7.9634
 20
8.6006
 30
0.0
 10
7.7011
 20
8.626
 30
0.0
 10
7.7011
 20
8.626
 30
0.0
 10
7.7011
 20
8.626
 30
0.0
 10
7.7011
 20
8.626
 30
0.0
 10
7.4896
 20
8.6513
 30
0.0
 10
7.4896
 20
8.6513
 30
0.0
  0
SPLINE
  5
D3
330
1F
100
AcDbEntity
  8
DEFAULT_1
 62
   250
100
AcDbSpline
210
0.0
220
0.0
230
1.0
 70
     8
 71
     3
 72
    24
 73
    20
 74
     0
 42
0.0000000001
 43
0.0000000001
 40
0.0
 40
0.0
 40
0.0
 40
0.0
 40
0.1666666666666667
 40
0.1666666666666667
 40
0.1666666666666667
 40
0.1666666666666667
 40
0.3333333333333333
 40
0.3333333333333333
 40
0.3333333333333333
 40
0.3333333333333333
 40
0.5
 40
0.5
 40
0.5
 40
0.5
 40
0.6666666666666666
 40
0.6666666666666666
 40
0.6666666666666666
 40
0.6666666666666666
 40
1.0
 40
1.0
 40
1.0
 40
1.0
 10
11.4579
 20
8.6513
 30
0.0
 10
11.4579
 20
8.6513
 30
0.0
 10
11.534
 20
8.6513
 30
0.0
 10
11.534
 20
8.6513
 30
0.0
 10
11.534
 20
8.6513
 30
0.0
 10
11.534
 20
8.6513
 30
0.0
 10
11.5594
 20
8.6598
 30
0.0
 10
11.5594
 20
8.6598
 30
0.0
 10
11.5594
 20
8.6598
 30
0.0
 10
11.5594
 20
8.6598
 30
0.0
 10
11.644
 20
8.6598
 30
0.0
 10
11.644
 20
8.6598
 30
0.0
 10
11.644
 20
8.6598
 30
0.0
 10
11.644
 20
8.6598
 30
0.0
 10
11.6609
 20
8.6683
 30
0.0
 10
11.6609
 20
8.6683
 30
0.0
 10
11.6609
 20
8.6683
 30
0.0
 10
11.6609
 20
8.6683
 30
0.0
 10
11.7202
 20
8.6683
 30
0.0
 10
11.7202
 20
8.6683
 30
0.0
  0
SPLINE
  5
D4
330
1F
100
AcDbEntity
  8
DEFAULT_1
 62
   250
100
AcDbSpline
210
0.0
220
0.0
230
1.0
 70
     8
 71
     3
 72
    40
 73
    36
 74
     0
 42
0.0000000001
 43
0.0000000001
 40
0.0
 40
0.0
 40
0.0
 40
0.0
 40
0.1
 40
0.1
 40
0.1
 40
0.1
 40
0.2
 40
0.2
 40
0.2
 40
0.2
 40
0.3
 40
0.3
 40
0.3
 40
0.3
 40
0.4
 40
0.4
 40
0.4
 40
0.4
 40
0.5
 40
0.5
 40
0.5
 40
0.5
 40
0.6
 40
0.6
 40
0.6
 40
0.6
 40
0.7
 40
0.7
 40
0.7
 40
0.7
 40
0.8
 40
0.8
 40
0.8
 40
0.8
 40
1.0
 40
1.0
 40
1.0
 40
1.0
 10
5.7889
 20
8.6513
 30
0.0
 10
5.7889
 20
8.6513
 30
0.0
 10
5.9581
 20
8.6513
 30
0.0
 10
5.9581
 20
8.6513
 30
0.0
 10
5.9581
 20
8.6513
 30
0.0
 10
5.9581
 20
8.6513
 30
0.0
 10
6.1358
 20
8.6598
 30
0.0
 10
6.1358
 20
8.6598
 30
0.0
 10
6.1358
 20
8.6598
 30
0.0
 10
6.1358
 20
8.6598
 30
0.0
 10
6.2965
 20
8.6598
 30
0.0
 10
6.2965
 20
8.6598
 30
0.0
 10
6.2965
 20
8.6598
 30
0.0
 10
6.2965
 20
8.6598
 30
0.0
 10
6.4404
 20
8.6683
 30
0.0
 10
6.4404
 20
8.6683
 30
0.0
 10
6.4404
 20
8.6683
 30
0.0
 10
6.4404
 20
8.6683
 30
0.0
 10
7.0327
 20
8.6683
 30
0.0
 10
7.0327
 20
8.6683
 30
0.0
 10
7.0327
 20
8.6683
 30
0.0
 10
7.0327
 20
8.6683
 30
0.0
 10
7.1765
 20
8.6598
 30
0.0
 10
7.1765
 20
8.6598
 30
0.0
 10
7.1765
 20
8.6598
 30
0.0
 10
7.1765
 20
8.6598
 30
0.0
 10
7.3119
 20
8.6598
 30
0.0
 10
7.3119
 20
8.6598
 30
0.0
 10
7.3119
 20
8.6598
 30
0.0
 10
7.3119
 20
8.6598
 30
0.0
 10
7.4049
 20
8.6513
 30
0.0
 10
7.4049
 20
8.6513
 30
0.0
 10
7.4049
 20
8.6513
 30
0.0
 10
7.4049
 20
8.6513
 30
0.0
 10
7.4896
 20
8.6513
 30
0.0
 10
7.4896
 20
8.6513
 30
0.0
  0
SPLINE
  5
D5
330
1F
100
AcDbEntity
  8
DEFAULT_1
 62
   250
100
AcDbSpline
210
0.0
220
0.0
230
1.0
 70
     8
 71
     3
 72
    40
 73
    36
 74
     0
 42
0.0000000001
 43
0.0000000001
 40
0.0
 40
0.0
 40
0.0
 40
0.0
 40
0.1
 40
0.1
 40
0.1
 40
0.1
 40
0.2
 40
0.2
 40
0.2
 40
0.2
 40
0.3
 40
0.3
 40
0.3
 40
0.3
 40
0.4
 40
0.4
 40
0.4
 40
0.4
 40
0.5
 40
0.5
 40
0.5
 40
0.5
 40
0.6
 40
0.6
 40
0.6
 40
0.6
 40
0.7
 40
0.7
 40
0.7
 40
0.7
 40
0.8
 40
0.8
 40
0.8
 40
0.8
 40
1.0
 40
1.0
 40
1.0
 40
1.0
 10
-3.8232
 20
8.6513
 30
0.0
 10
-3.8232
 20
8.6513
 30
0.0
 10
-3.747
 20
8.6513
 30
0.0
 10
-3.747
 20
8.6513
 30
0.0
 10
-3.747
 20
8.6513
 30
0.0
 10
-3.747
 20
8.6513
 30
0.0
 10
-3.6455
 20
8.6598
 30
0.0
 10
-3.6455
 20
8.6598
 30
0.0
 10
-3.6455
 20
8.6598
 30
0.0
 10
-3.6455
 20
8.6598
 30
0.0
 10
-3.5185
 20
8.6598
 30
0.0
 10
-3.5185
 20
8.6598
 30
0.0
 10
-3.5185
 20
8.6598
 30
0.0
 10
-3.5185
 20
8.6598
 30
0.0
 10
-3.3747
 20
8.6683
 30
0.0
 10
-3.3747
 20
8.6683
 30
0.0
 10
-3.3747
 20
8.6683
 30
0.0
 10
-3.3747
 20
8.6683
 30
0.0
 10
-2.8078
 20
8.6683
 30
0.0
 10
-2.8078
 20
8.6683
 30
0.0
 10
-2.8078
 20
8.6683
 30
0.0
 10
-2.8078
 20
8.6683
 30
0.0
 10
-2.6386
 20
8.6598
 30
0.0
 10
-2.6386
 20
8.6598
 30
0.0
 10
-2.6386
 20
8.6598
 30
0.0
 10
-2.6386
 20
8.6598
 30
0.0
 10
-2.4693
 20
8.6598
 30
0.0
 10
-2.4693
 20
8.6598
 30
0.0
 10
-2.4693
 20
8.6598
 30
0.0
 10
-2.4693
 20
8.6598
 30
0.0
 10
-2.3086
 20
8.6513
 30
0.0
 10
-2.3086
 20
8.6513
 30
0.0
 10
-2.3086
 20
8.6513
 30
0.0
 10
-2.3086
 20
8.6513
 30
0.0
 10
-2.1309
 20
8.6513
 30
0.0
 10
-2.1309
 20
8.6513
 30
0.0
  0
ENDSEC
  0
SECTION
  2
OBJECTS
  0
DICTIONARY
  5
C
330
0
100
AcDbDictionary
  3
ACAD_GROUP
350
D
  3
ACAD_LAYOUT
350
1A
  3
ACAD_MATERIAL
350
3B
  3
ACAD_MLEADERSTYLE
350
F8
  3
ACAD_MLINESTYLE
350
17
  3
ACAD_PLOTSETTINGS
350
19
  3
ACAD_VISUALSTYLE
350
2A
  3
ACDBHEADERROUNDTRIPXREC
350
D6
  3
ACDBVARIABLEDICTIONARY
350
F6
  0
DICTIONARY
  5
D
102
{ACAD_REACTORS
330
C
102
}
330
C
100
AcDbDictionary
  0
DICTIONARY
  5
1A
102
{ACAD_REACTORS
330
C
102
}
330
C
100
AcDbDictionary
  0
DICTIONARY
  5
3B
102
{ACAD_REACTORS
330
C
102
}
330
C
100
AcDbDictionary
  3
BYBLOCK
350
3D
  3
BYLAYER
350
3C
  3
GLOBAL
350
3E
  0
DICTIONARY
  5
F8
102
{ACAD_REACTORS
330
C
102
}
330
C
100
AcDbDictionary
  0
DICTIONARY
  5
17
102
{ACAD_REACTORS
330
C
102
}
330
C
100
AcDbDictionary
  3
STANDARD
350
18
  0
DICTIONARY
  5
19
102
{ACAD_REACTORS
330
C
102
}
330
C
100
AcDbDictionary
  0
DICTIONARY
  5
2A
102
{ACAD_REACTORS
330
C
102
}
330
C
100
AcDbDictionary
  3
2DWIREFRAME
350
2F
  3
3D_HIDDEN
350
31
  3
3DWIREFRAME
350
30
  3
BASIC
350
32
  3
BRIGHTEN
350
36
  3
COLORCHANGE
350
3A
  3
CONCEPTUAL
350
34
  3
DIM
350
35
  3
FACEPATTERN
350
39
  3
FLAT
350
2B
  3
FLATWITHEDGES
350
2C
  3
GOURAUD
350
2D
  3
GOURAUDWITHEDGES
350
2E
  3
LINEPATTERN
350
38
  3
REALISTIC
350
33
  3
THICKEN
350
37
  0
DICTIONARY
  5
D6
102
{ACAD_REACTORS
330
C
102
}
330
C
100
AcDbDictionary
  3
CEPSNTYPE
350
DF
  3
DIMSTYLEDATA
350
F5
  3
FINGERPRINTGUID
350
E0
  3
HYPERLINKBASE
350
D9
  3
INSUNITS
350
DE
  3
LAYOUTDICT
350
DB
  3
LWETCUNION
350
DD
  3
PLOTSETDICT
350
DC
  3
PSVPSCALE
350
E2
  3
PUCSBASE
350
E5
  3
PUCSORGBACK
350
EB
  3
PUCSORGBOTTOM
350
E7
  3
PUCSORGFRONT
350
EA
  3
PUCSORGLEFT
350
E8
  3
PUCSORGRIGHT
350
E9
  3
PUCSORGTOP
350
E6
  3
PUCSORTHOREF
350
E3
  3
PUCSORTHOVIEW
350
E4
  3
STYLESHEET
350
DA
  3
TSTACKALIGN
350
D7
  3
TSTACKSIZE
350
D8
  3
UCSBASE
350
EE
  3
UCSORGBACK
350
F4
  3
UCSORGBOTTOM
350
F0
  3
UCSORGFRONT
350
F3
  3
UCSORGLEFT
350
F1
  3
UCSORGRIGHT
350
F2
  3
UCSORGTOP
350
EF
  3
UCSORTHOREF
350
EC
  3
UCSORTHOVIEW
350
ED
  3
VERSIONGUID
350
E1
  0
DICTIONARY
  5
F6
102
{ACAD_REACTORS
330
C
102
}
330
C
100
AcDbDictionary
  3
DIMASSOC
350
F9
  3
HIDETEXT
350
FA
  0
MATERIAL
  5
3D
102
{ACAD_REACTORS
330
3B
102
}
102
{ACAD_XDICTIONARY
360
FD
102
}
330
3B
100
AcDbMaterial
  1
ByBlock
  0
MATERIAL
  5
3C
102
{ACAD_REACTORS
330
3B
102
}
102
{ACAD_XDICTIONARY
360
FB
102
}
330
3B
100
AcDbMaterial
  1
ByLayer
  0
MATERIAL
  5
3E
102
{ACAD_REACTORS
330
3B
102
}
102
{ACAD_XDICTIONARY
360
FF
102
}
330
3B
100
AcDbMaterial
  1
Global
  0
MLINESTYLE
  5
18
102
{ACAD_REACTORS
330
17
102
}
330
17
100
AcDbMlineStyle
  2
Standard
 70
     0
  3

 62
   256
 51
90.0
 52
90.0
 71
     2
 49
0.5
 62
   256
  6
BYLAYER
 49
-0.5
 62
   256
  6
BYLAYER
  0
ACAD_PROXY_OBJECT
  5
2F
102
{ACAD_REACTORS
330
2A
102
}
330
2A
100
AcDbProxyObject
 90
      499
 91
      501
 93
      436
310
42CC9915DA5C99599C985B595049028333333333333E3BF0000000000000FB0107901411070040501600405405064090741402480A0340
1001
ACAD
1000
AcDbSavedByObjectVersion
1070
     0
  0
ACAD_PROXY_OBJECT
  5
31
102
{ACAD_REACTORS
330
2A
102
}
330
2A
100
AcDbProxyObject
 90
      499
 91
      501
 93
      500
310
424CD108121A5919195B90640502408333333333333E3BF0000000000000FB01079024090700405020000000000001110200405405064090740C02480A0340
1001
ACAD
1000
AcDbSavedByObjectVersion
1070
     0
  0
ACAD_PROXY_OBJECT
  5
30
102
{ACAD_REACTORS
330
2A
102
}
330
2A
100
AcDbProxyObject
 90
      499
 91
      501
 93
      436
310
42CCD915DA5C99599C985B595059028333333333333E3BF0000000000000FB0107901411070040501600405405064090741402480A0340
1001
ACAD
1000
AcDbSavedByObjectVersion
1070
     0
  0
ACAD_PROXY_OBJECT
  5
32
102
{ACAD_REACTORS
330
2A
102
}
330
2A
100
AcDbProxyObject
 90
      499
 91
      501
 93
      388
310
4150985CDA58D07406404333333333333E3BF0000000000000FB0107A41107004050150841D405064090741402480A0350
1001
ACAD
1000
AcDbSavedByObjectVersion
1070
     0
  0
ACAD_PROXY_OBJECT
  5
36
102
{ACAD_REACTORS
330
2A
102
}
330
2A
100
AcDbProxyObject
 90
      499
 91
      501
 93
      428
310
42109C9A59DA1D195B90C409028333333333333E3BF0000000000000FB010790141107004050150841D405064090741402480A029950
1001
ACAD
1000
AcDbSavedByObjectVersion
1070
     0
  0
ACAD_PROXY_OBJECT
  5
3A
102
{ACAD_REACTORS
330
2A
102
}
330
2A
100
AcDbProxyObject
 90
      499
 91
      501
 93
      452
310
42D0DBDB1BDC90DA185B99D95104090240C333333333333E3BF0000000000000FB0108901411070040501508421405064090741402480A0350
1001
ACAD
1000
AcDbSavedByObjectVersion
1070
     0
  0
ACAD_PROXY_OBJECT
  5
34
102
{ACAD_REACTORS
330
2A
102
}
330
2A
100
AcDbProxyObject
 90
      499
 91
      501
 93
      500
310
4290DBDB98D95C1D1D585B10940D028333333333333E3BF0000000000000FB0107902409070040501000000000000111010841D405064090740C02480A0340
1001
ACAD
1000
AcDbSavedByObjectVersion
1070
     0
  0
ACAD_PROXY_OBJECT
  5
35
102
{ACAD_REACTORS
330
2A
102
}
330
2A
100
AcDbProxyObject
 90
      499
 91
      501
 93
      412
310
40D11A5B50B409028333333333333E3BF0000000000000FB010790141107004050150841D405064090741402480A02677FFFFFD0
1001
ACAD
1000
AcDbSavedByObjectVersion
1070
     0
  0
ACAD_PROXY_OBJECT
  5
39
102
{ACAD_REACTORS
330
2A
102
}
330
2A
100
AcDbProxyObject
 90
      499
 91
      501
 93
      444
310
42D19858D95C185D1D195C9B90F409028333333333333E3BF0000000000000FB010790141107004050150841D405064090741402480A0350
1001
ACAD
1000
AcDbSavedByObjectVersion
1070
     0
  0
ACAD_PROXY_OBJECT
  5
2B
102
{ACAD_REACTORS
330
2A
102
}
330
2A
100
AcDbProxyObject
 90
      499
 91
      501
 93
      388
310
41119B185D240901404333333333333E3BF0000000000000F9010740A41107004050150841D405064090741402480A1B50
1001
ACAD
1000
AcDbSavedByObjectVersion
1070
     0
  0
ACAD_PROXY_OBJECT
  5
2C
102
{ACAD_REACTORS
330
2A
102
}
330
2A
100
AcDbProxyObject
 90
      499
 91
      501
 93
      476
310
43519B185D15DA5D1A115919D95CD0140901404333333333333E3BF0000000000000F9010740901411070040501600405405064090741402480A1B50
1001
ACAD
1000
AcDbSavedByObjectVersion
1070
     0
  0
ACAD_PROXY_OBJECT
  5
2D
102
{ACAD_REACTORS
330
2A
102
}
330
2A
100
AcDbProxyObject
 90
      499
 91
      501
 93
      412
310
41D1DBDD5C985D5910240902404333333333333E3BF0000000000000F9010740A411070040501641D405064090741402480A1B50
1001
ACAD
1000
AcDbSavedByObjectVersion
1070
     0
  0
ACAD_PROXY_OBJECT
  5
2E
102
{ACAD_REACTORS
330
2A
102
}
330
2A
100
AcDbProxyObject
 90
      499
 91
      501
 93
      500
310
4411DBDD5C985D5915DA5D1A115919D95CD0340902404333333333333E3BF0000000000000F9010740901411070040501600405405064090741402480A1B50
1001
ACAD
1000
AcDbSavedByObjectVersion
1070
     0
  0
ACAD_PROXY_OBJECT
  5
38
102
{ACAD_REACTORS
330
2A
102
}
330
2A
100
AcDbProxyObject
 90
      499
 91
      501
 93
      444
310
42D31A5B995C185D1D195C9B90E409028333333333333E3BF0000000000000FB010790141107004050750841D405064090741402483A0350
1001
ACAD
1000
AcDbSavedByObjectVersion
1070
     0
  0
ACAD_PROXY_OBJECT
  5
33
102
{ACAD_REACTORS
330
2A
102
}
330
2A
100
AcDbProxyObject
 90
      499
 91
      501
 93
      420
310
425499585B1A5CDD1A58D08409028333333333333E3BF0000000000000FB01079019070040501508421405064090741402480A1B40
1001
ACAD
1000
AcDbSavedByObjectVersion
1070
     0
  0
ACAD_PROXY_OBJECT
  5
37
102
{ACAD_REACTORS
330
2A
102
}
330
2A
100
AcDbProxyObject
 90
      499
 91
      501
 93
      412
310
41D51A1A58DAD95B90D409028333333333333E3BF0000000000000FB010790141107004050150C41D405064090741402480A0350
1001
ACAD
1000
AcDbSavedByObjectVersion
1070
     0
  0
XRECORD
  5
DF
102
{ACAD_REACTORS
330
D6
102
}
330
D6
100
AcDbXrecord
 90
        0
  0
XRECORD
  5
F5
102
{ACAD_REACTORS
330
D6
102
}
330
D6
100
AcDbXrecord
1000
DSTYLE
1002
{
1070
   340
340
11
1002
}
  0
XRECORD
  5
E0
102
{ACAD_REACTORS
330
D6
102
}
330
D6
100
AcDbXrecord
  1
{84418B2F-F9B0-46A5-A287-E27C62DA095E}
  0
XRECORD
  5
D9
102
{ACAD_REACTORS
330
D6
102
}
330
D6
100
AcDbXrecord
  1

  0
XRECORD
  5
DE
102
{ACAD_REACTORS
330
D6
102
}
330
D6
100
AcDbXrecord
 90
        4
  0
XRECORD
  5
DB
102
{ACAD_REACTORS
330
D6
102
}
330
D6
100
AcDbXrecord
340
1A
  0
XRECORD
  5
DD
102
{ACAD_REACTORS
330
D6
102
}
330
D6
100
AcDbXrecord
 90
    10781
  0
XRECORD
  5
DC
102
{ACAD_REACTORS
330
D6
102
}
330
D6
100
AcDbXrecord
340
19
  0
XRECORD
  5
E2
102
{ACAD_REACTORS
330
D6
102
}
330
D6
100
AcDbXrecord
 40
0.0
  0
XRECORD
  5
E5
102
{ACAD_REACTORS
330
D6
102
}
330
D6
100
AcDbXrecord
340
0
  0
XRECORD
  5
EB
102
{ACAD_REACTORS
330
D6
102
}
330
D6
100
AcDbXrecord
 10
0.0
 20
0.0
 30
0.0
  0
XRECORD
  5
E7
102
{ACAD_REACTORS
330
D6
102
}
330
D6
100
AcDbXrecord
 10
0.0
 20
0.0
 30
0.0
  0
XRECORD
  5
EA
102
{ACAD_REACTORS
330
D6
102
}
330
D6
100
AcDbXrecord
 10
0.0
 20
0.0
 30
0.0
  0
XRECORD
  5
E8
102
{ACAD_REACTORS
330
D6
102
}
330
D6
100
AcDbXrecord
 10
0.0
 20
0.0
 30
0.0
  0
XRECORD
  5
E9
102
{ACAD_REACTORS
330
D6
102
}
330
D6
100
AcDbXrecord
 10
0.0
 20
0.0
 30
0.0
  0
XRECORD
  5
E6
102
{ACAD_REACTORS
330
D6
102
}
330
D6
100
AcDbXrecord
 10
0.0
 20
0.0
 30
0.0
  0
XRECORD
  5
E3
102
{ACAD_REACTORS
330
D6
102
}
330
D6
100
AcDbXrecord
340
0
  0
XRECORD
  5
E4
102
{ACAD_REACTORS
330
D6
102
}
330
D6
100
AcDbXrecord
 70
     0
  0
XRECORD
  5
DA
102
{ACAD_REACTORS
330
D6
102
}
330
D6
100
AcDbXrecord
  1

  0
XRECORD
  5
D7
102
{ACAD_REACTORS
330
D6
102
}
330
D6
100
AcDbXrecord
 90
        1
  0
XRECORD
  5
D8
102
{ACAD_REACTORS
330
D6
102
}
330
D6
100
AcDbXrecord
 90
       70
  0
XRECORD
  5
EE
102
{ACAD_REACTORS
330
D6
102
}
330
D6
100
AcDbXrecord
340
0
  0
XRECORD
  5
F4
102
{ACAD_REACTORS
330
D6
102
}
330
D6
100
AcDbXrecord
 10
0.0
 20
0.0
 30
0.0
  0
XRECORD
  5
F0
102
{ACAD_REACTORS
330
D6
102
}
330
D6
100
AcDbXrecord
 10
0.0
 20
0.0
 30
0.0
  0
XRECORD
  5
F3
102
{ACAD_REACTORS
330
D6
102
}
330
D6
100
AcDbXrecord
 10
0.0
 20
0.0
 30
0.0
  0
XRECORD
  5
F1
102
{ACAD_REACTORS
330
D6
102
}
330
D6
100
AcDbXrecord
 10
0.0
 20
0.0
 30
0.0
  0
XRECORD
  5
F2
102
{ACAD_REACTORS
330
D6
102
}
330
D6
100
AcDbXrecord
 10
0.0
 20
0.0
 30
0.0
  0
XRECORD
  5
EF
102
{ACAD_REACTORS
330
D6
102
}
330
D6
100
AcDbXrecord
 10
0.0
 20
0.0
 30
0.0
  0
XRECORD
  5
EC
102
{ACAD_REACTORS
330
D6
102
}
330
D6
100
AcDbXrecord
340
0
  0
XRECORD
  5
ED
102
{ACAD_REACTORS
330
D6
102
}
330
D6
100
AcDbXrecord
 70
     0
  0
XRECORD
  5
E1
102
{ACAD_REACTORS
330
D6
102
}
330
D6
100
AcDbXrecord
  1
{FAEB1C32-E019-11D5-929B-00C0DF256EC4}
  0
DICTIONARYVAR
  5
F9
102
{ACAD_REACTORS
330
F6
102
}
330
F6
100
DictionaryVariables
280
     0
  1
2
  0
DICTIONARYVAR
  5
FA
102
{ACAD_REACTORS
330
F6
102
}
330
F6
100
DictionaryVariables
280
     0
  1
1
  0
DICTIONARY
  5
FD
330
3D
100
AcDbDictionary
280
     1
  3
ACAD_XREC_ROUNDTRIP
360
FE
  0
DICTIONARY
  5
FB
330
3C
100
AcDbDictionary
280
     1
  3
ACAD_XREC_ROUNDTRIP
360
FC
  0
DICTIONARY
  5
FF
330
3E
100
AcDbDictionary
280
     1
  3
ACAD_XREC_ROUNDTRIP
360
100
  0
XRECORD
  5
FE
102
{ACAD_REACTORS
330
FD
102
}
330
FD
100
AcDbXrecord
102
MATERIAL
148
0.0
149
0.0
149
0.0
 93
        0
 94
      127
282
     0
 72
     1
 77
     1
171
     1
175
     1
179
     1
273
     0
  0
XRECORD
  5
FC
102
{ACAD_REACTORS
330
FB
102
}
330
FB
100
AcDbXrecord
102
MATERIAL
148
0.0
149
0.0
149
0.0
 93
        0
 94
      127
282
     0
 72
     1
 77
     1
171
     1
175
     1
179
     1
273
     0
  0
XRECORD
  5
100
102
{ACAD_REACTORS
330
FF
102
}
330
FF
100
AcDbXrecord
102
MATERIAL
148
0.0
149
0.0
149
0.0
 93
        0
 94
      127
282
     0
 72
     1
 77
     1
171
     1
175
     1
179
     1
273
     0
  0
ENDSEC
  0
EOF
