  0
SECTION
  2
HEADER
  9
$ACADVER
  1
AC1014
  9
$ACADMAINTVER
 70
     9
  9
$DWGCODEPAGE
  3
ANSI_1250
  9
$INSBASE
 10
0.0
 20
0.0
 30
0.0
  9
$EXTMIN
 10
-39.9049
 20
-29.2602
 30
0.0
  9
$EXTMAX
 10
29.9049
 20
29.1897
 30
0.0
  9
$LIMMIN
 10
0.0
 20
0.0
  9
$LIMMAX
 10
12.0
 20
9.0
  9
$ORTHOMODE
 70
     0
  9
$REGENMODE
 70
     1
  9
$FILLMODE
 70
     1
  9
$QTEXTMODE
 70
     0
  9
$MIRRTEXT
 70
     1
  9
$DRAGMODE
 70
     2
  9
$LTSCALE
 40
1.0
  9
$OSMODE
 70
    37
  9
$ATTMODE
 70
     1
  9
$TEXTSIZE
 40
0.2
  9
$TRACEWID
 40
0.05
  9
$TEXTSTYLE
  7
STANDARD
  9
$CLAYER
  8
0
  9
$CELTYPE
  6
BYLAYER
  9
$CECOLOR
 62
   256
  9
$CELTSCALE
 40
1.0
  9
$DELOBJ
 70
     1
  9
$DISPSILH
 70
     0
  9
$DIMSCALE
 40
1.0
  9
$DIMASZ
 40
0.18
  9
$DIMEXO
 40
0.0625
  9
$DIMDLI
 40
0.38
  9
$DIMRND
 40
0.0
  9
$DIMDLE
 40
0.0
  9
$DIMEXE
 40
0.18
  9
$DIMTP
 40
0.0
  9
$DIMTM
 40
0.0
  9
$DIMTXT
 40
0.18
  9
$DIMCEN
 40
0.09
  9
$DIMTSZ
 40
0.0
  9
$DIMTOL
 70
     0
  9
$DIMLIM
 70
     0
  9
$DIMTIH
 70
     1
  9
$DIMTOH
 70
     1
  9
$DIMSE1
 70
     0
  9
$DIMSE2
 70
     0
  9
$DIMTAD
 70
     0
  9
$DIMZIN
 70
     0
  9
$DIMBLK
  1

  9
$DIMASO
 70
     1
  9
$DIMSHO
 70
     1
  9
$DIMPOST
  1

  9
$DIMAPOST
  1

  9
$DIMALT
 70
     0
  9
$DIMALTD
 70
     2
  9
$DIMALTF
 40
25.4
  9
$DIMLFAC
 40
1.0
  9
$DIMTOFL
 70
     0
  9
$DIMTVP
 40
0.0
  9
$DIMTIX
 70
     0
  9
$DIMSOXD
 70
     0
  9
$DIMSAH
 70
     0
  9
$DIMBLK1
  1

  9
$DIMBLK2
  1

  9
$DIMSTYLE
  2
STANDARD
  9
$DIMCLRD
 70
     0
  9
$DIMCLRE
 70
     0
  9
$DIMCLRT
 70
     0
  9
$DIMTFAC
 40
1.0
  9
$DIMGAP
 40
0.09
  9
$DIMJUST
 70
     0
  9
$DIMSD1
 70
     0
  9
$DIMSD2
 70
     0
  9
$DIMTOLJ
 70
     1
  9
$DIMTZIN
 70
     0
  9
$DIMALTZ
 70
     0
  9
$DIMALTTZ
 70
     0
  9
$DIMFIT
 70
     3
  9
$DIMUPT
 70
     0
  9
$DIMUNIT
 70
     2
  9
$DIMDEC
 70
     4
  9
$DIMTDEC
 70
     4
  9
$DIMALTU
 70
     2
  9
$DIMALTTD
 70
     2
  9
$DIMTXSTY
  7
STANDARD
  9
$DIMAUNIT
 70
     0
  9
$LUNITS
 70
     2
  9
$LUPREC
 70
     4
  9
$SKETCHINC
 40
0.1
  9
$FILLETRAD
 40
0.5
  9
$AUNITS
 70
     0
  9
$AUPREC
 70
     0
  9
$MENU
  1
.
  9
$ELEVATION
 40
0.0
  9
$PELEVATION
 40
0.0
  9
$THICKNESS
 40
0.0
  9
$LIMCHECK
 70
     0
  9
$CHAMFERA
 40
0.5
  9
$CHAMFERB
 40
0.5
  9
$CHAMFERC
 40
1.0
  9
$CHAMFERD
 40
0.0
  9
$SKPOLY
 70
     0
  9
$TDCREATE
 40
2456240.623129167
  9
$TDUPDATE
 40
2456240.623129178
  9
$TDINDWG
 40
0.0000000116
  9
$TDUSRTIMER
 40
0.0000000116
  9
$USRTIMER
 70
     1
  9
$ANGBASE
 50
0.0
  9
$ANGDIR
 70
     0
  9
$PDMODE
 70
     0
  9
$PDSIZE
 40
0.0
  9
$PLINEWID
 40
0.0
  9
$COORDS
 70
     1
  9
$SPLFRAME
 70
     0
  9
$SPLINETYPE
 70
     6
  9
$SPLINESEGS
 70
     8
  9
$ATTDIA
 70
     0
  9
$ATTREQ
 70
     1
  9
$HANDLING
 70
     1
  9
$HANDSEED
  5
12A
  9
$SURFTAB1
 70
     6
  9
$SURFTAB2
 70
     6
  9
$SURFTYPE
 70
     6
  9
$SURFU
 70
     6
  9
$SURFV
 70
     6
  9
$UCSNAME
  2

  9
$UCSORG
 10
0.0
 20
0.0
 30
0.0
  9
$UCSXDIR
 10
1.0
 20
0.0
 30
0.0
  9
$UCSYDIR
 10
0.0
 20
1.0
 30
0.0
  9
$PUCSNAME
  2

  9
$PUCSORG
 10
0.0
 20
0.0
 30
0.0
  9
$PUCSXDIR
 10
1.0
 20
0.0
 30
0.0
  9
$PUCSYDIR
 10
0.0
 20
1.0
 30
0.0
  9
$USERI1
 70
     0
  9
$USERI2
 70
     0
  9
$USERI3
 70
     0
  9
$USERI4
 70
     0
  9
$USERI5
 70
     0
  9
$USERR1
 40
0.0
  9
$USERR2
 40
0.0
  9
$USERR3
 40
0.0
  9
$USERR4
 40
0.0
  9
$USERR5
 40
0.0
  9
$WORLDVIEW
 70
     1
  9
$SHADEDGE
 70
     3
  9
$SHADEDIF
 70
    70
  9
$TILEMODE
 70
     1
  9
$MAXACTVP
 70
    64
  9
$PINSBASE
 10
0.0
 20
0.0
 30
0.0
  9
$PLIMCHECK
 70
     0
  9
$PEXTMIN
 10
1.000000000000000E+20
 20
1.000000000000000E+20
 30
1.000000000000000E+20
  9
$PEXTMAX
 10
-1.000000000000000E+20
 20
-1.000000000000000E+20
 30
-1.000000000000000E+20
  9
$PLIMMIN
 10
0.0
 20
0.0
  9
$PLIMMAX
 10
12.0
 20
9.0
  9
$UNITMODE
 70
     0
  9
$VISRETAIN
 70
     1
  9
$PLINEGEN
 70
     0
  9
$PSLTSCALE
 70
     1
  9
$TREEDEPTH
 70
  3020
  9
$PICKSTYLE
 70
     1
  9
$CMLSTYLE
  2
STANDARD
  9
$CMLJUST
 70
     0
  9
$CMLSCALE
 40
1.0
  9
$PROXYGRAPHICS
 70
     1
  9
$MEASUREMENT
 70
     0
  0
ENDSEC
  0
SECTION
  2
CLASSES
  0
CLASS
  1
ACDBDICTIONARYWDFLT
  2
AcDbDictionaryWithDefault
  3
ObjectDBX Classes
 90
        0
280
     0
281
     0
  0
CLASS
  1
VISUALSTYLE
  2
AcDbVisualStyle
  3
ObjectDBX Classes
 90
     4095
280
     0
281
     0
  0
CLASS
  1
MATERIAL
  2
AcDbMaterial
  3
ObjectDBX Classes
 90
     1153
280
     0
281
     0
  0
CLASS
  1
DICTIONARYVAR
  2
AcDbDictionaryVar
  3
ObjectDBX Classes
 90
        0
280
     0
281
     0
  0
CLASS
  1
XRECORD
  2
AcDbXrecord
  3
AutoCAD 2000
 90
        0
280
     0
281
     0
  0
CLASS
  1
LWPOLYLINE
  2
AcDbPolyline
  3
AutoCAD 2000
 90
        0
280
     0
281
     1
  0
CLASS
  1
HATCH
  2
AcDbHatch
  3
AutoCAD 2000
 90
        0
280
     0
281
     1
  0
CLASS
  1
ACDBPLACEHOLDER
  2
AcDbPlaceHolder
  3
ObjectDBX Classes
 90
        0
280
     0
281
     0
  0
CLASS
  1
LAYOUT
  2
AcDbLayout
  3
ObjectDBX Classes
 90
        0
280
     0
281
     0
  0
ENDSEC
  0
SECTION
  2
TABLES
  0
TABLE
  2
VPORT
  5
8
330
0
100
AcDbSymbolTable
 70
     1
  0
VPORT
  5
29
330
8
100
AcDbSymbolTableRecord
100
AcDbViewportTableRecord
  2
*ACTIVE
 70
     0
 10
0.0
 20
0.0
 11
1.0
 21
1.0
 12
10.42990654205607
 22
4.5
 13
0.0
 23
0.0
 14
0.5
 24
0.5
 15
0.5
 25
0.5
 16
0.0
 26
0.0
 36
1.0
 17
0.0
 27
0.0
 37
0.0
 40
9.0
 41
1.972972972850329
 42
50.0
 43
0.0
 44
0.0
 50
0.0
 51
0.0
 71
     0
 72
   100
 73
     1
 74
     3
 75
     0
 76
     0
 77
     0
 78
     0
  0
ENDTAB
  0
TABLE
  2
LTYPE
  5
5
330
0
100
AcDbSymbolTable
 70
     3
  0
LTYPE
  5
14
330
5
100
AcDbSymbolTableRecord
100
AcDbLinetypeTableRecord
  2
BYBLOCK
 70
     0
  3

 72
    65
 73
     0
 40
0.0
  0
LTYPE
  5
15
330
5
100
AcDbSymbolTableRecord
100
AcDbLinetypeTableRecord
  2
BYLAYER
 70
     0
  3

 72
    65
 73
     0
 40
0.0
  0
LTYPE
  5
16
330
5
100
AcDbSymbolTableRecord
100
AcDbLinetypeTableRecord
  2
CONTINUOUS
 70
     0
  3
Solid line
 72
    65
 73
     0
 40
0.0
  0
LTYPE
  5
77
330
5
100
AcDbSymbolTableRecord
100
AcDbLinetypeTableRecord
  2
NEW_LINE1
 70
     0
  3

 72
    65
 73
     4
 40
1.2
 49
0.5
 74
     4
 75
     0
340
0
 46
1.0
 50
0.0
 44
0.0
 45
0.0
 49
-0.3
 74
     4
 75
     0
340
0
 46
1.0
 50
0.0
 44
0.0
 45
0.0
 49
0.1
 74
     4
 75
     0
340
0
 46
1.0
 50
0.0
 44
0.0
 45
0.0
 49
-0.3
 74
     4
 75
     0
340
0
 46
1.0
 50
0.0
 44
0.0
 45
0.0
  0
LTYPE
  5
79
330
5
100
AcDbSymbolTableRecord
100
AcDbLinetypeTableRecord
  2
NEW_LINE2
 70
     0
  3

 72
    65
 73
     4
 40
1.2
 49
0.5
 74
     4
 75
     0
340
0
 46
1.0
 50
0.0
 44
0.0
 45
0.0
 49
-0.3
 74
     4
 75
     0
340
0
 46
1.0
 50
0.0
 44
0.0
 45
0.0
 49
0.1
 74
     4
 75
     0
340
0
 46
1.0
 50
0.0
 44
0.0
 45
0.0
 49
-0.3
 74
     4
 75
     0
340
0
 46
1.0
 50
0.0
 44
0.0
 45
0.0
  0
ENDTAB
  0
TABLE
  2
LAYER
  5
2
330
0
100
AcDbSymbolTable
 70
     2
  0
LAYER
  5
10
330
2
100
AcDbSymbolTableRecord
100
AcDbLayerTableRecord
  2
0
 70
     0
 62
     7
  6
CONTINUOUS
  0
LAYER
  5
40
330
2
100
AcDbSymbolTableRecord
100
AcDbLayerTableRecord
  2
VRSTVA_1
 70
     0
 62
     7
  6
CONTINUOUS
  0
ENDTAB
  0
TABLE
  2
STYLE
  5
3
330
0
100
AcDbSymbolTable
 70
     1
  0
STYLE
  5
11
330
3
100
AcDbSymbolTableRecord
100
AcDbTextStyleTableRecord
  2
STANDARD
 70
     0
 40
0.0
 41
1.0
 50
0.0
 71
     0
 42
0.2
  3
txt
  4

  0
ENDTAB
  0
TABLE
  2
VIEW
  5
6
330
0
100
AcDbSymbolTable
 70
     0
  0
ENDTAB
  0
TABLE
  2
UCS
  5
7
330
0
100
AcDbSymbolTable
 70
     0
  0
ENDTAB
  0
TABLE
  2
APPID
  5
9
330
0
100
AcDbSymbolTable
 70
     2
  0
APPID
  5
12
330
9
100
AcDbSymbolTableRecord
100
AcDbRegAppTableRecord
  2
ACAD
 70
     0
  0
APPID
  5
3F
330
9
100
AcDbSymbolTableRecord
100
AcDbRegAppTableRecord
  2
ODA
 70
     0
  0
ENDTAB
  0
TABLE
  2
DIMSTYLE
  5
A
330
0
100
AcDbSymbolTable
 70
     1
  0
DIMSTYLE
105
27
330
A
100
AcDbSymbolTableRecord
100
AcDbDimStyleTableRecord
  2
STANDARD
 70
     0
  3

  4

  5

  6

  7

 40
1.0
 41
0.18
 42
0.0625
 43
0.38
 44
0.18
 45
0.0
 46
0.0
 47
0.0
 48
0.0
140
0.18
141
0.09
142
0.0
143
25.4
144
1.0
145
0.0
146
1.0
147
0.09
 71
     0
 72
     0
 73
     1
 74
     1
 75
     0
 76
     0
 77
     0
 78
     0
170
     0
171
     2
172
     0
173
     0
174
     0
175
     0
176
     0
177
     0
178
     0
270
     2
271
     4
272
     4
273
     2
274
     2
340
11
275
     0
280
     0
281
     0
282
     0
283
     1
284
     0
285
     0
286
     0
287
     3
288
     0
  0
ENDTAB
  0
TABLE
  2
BLOCK_RECORD
  5
1
330
0
100
AcDbSymbolTable
 70
     1
  0
BLOCK_RECORD
  5
1F
330
1
100
AcDbSymbolTableRecord
100
AcDbBlockTableRecord
  2
*MODEL_SPACE
  0
BLOCK_RECORD
  5
1B
330
1
100
AcDbSymbolTableRecord
100
AcDbBlockTableRecord
  2
*PAPER_SPACE
  0
ENDTAB
  0
ENDSEC
  0
SECTION
  2
BLOCKS
  0
BLOCK
  5
20
330
1F
100
AcDbEntity
  8
0
100
AcDbBlockBegin
  2
*MODEL_SPACE
 70
     0
 10
0.0
 20
0.0
 30
0.0
  3
*MODEL_SPACE
  1

  0
ENDBLK
  5
21
330
1F
100
AcDbEntity
  8
0
100
AcDbBlockEnd
  0
BLOCK
  5
1C
330
1B
100
AcDbEntity
 67
     1
  8
0
100
AcDbBlockBegin
  2
*PAPER_SPACE
 70
     0
 10
0.0
 20
0.0
 30
0.0
  3
*PAPER_SPACE
  1

  0
ENDBLK
  5
1D
330
1B
100
AcDbEntity
 67
     1
  8
0
100
AcDbBlockEnd
  0
ENDSEC
  0
SECTION
  2
ENTITIES
  0
SPLINE
  5
41
330
1F
100
AcDbEntity
  8
VRSTVA_1
100
AcDbSpline
210
0.0
220
0.0
230
1.0
 70
     8
 71
     3
 72
    28
 73
    24
 74
     0
 42
0.0000000001
 43
0.0000000001
 40
0.0
 40
0.0
 40
0.0
 40
0.0
 40
0.1428571428571428
 40
0.1428571428571428
 40
0.1428571428571428
 40
0.1428571428571428
 40
0.2857142857142857
 40
0.2857142857142857
 40
0.2857142857142857
 40
0.2857142857142857
 40
0.4285714285714285
 40
0.4285714285714285
 40
0.4285714285714285
 40
0.4285714285714285
 40
0.5714285714285714
 40
0.5714285714285714
 40
0.5714285714285714
 40
0.5714285714285714
 40
0.7142857142857143
 40
0.7142857142857143
 40
0.7142857142857143
 40
0.7142857142857143
 40
1.0
 40
1.0
 40
1.0
 40
1.0
 10
22.5722
 20
-8.2664
 30
0.0
 10
22.5722
 20
-8.2664
 30
0.0
 10
22.543
 20
-8.4252
 30
0.0
 10
22.543
 20
-8.4252
 30
0.0
 10
22.543
 20
-8.4252
 30
0.0
 10
22.543
 20
-8.4252
 30
0.0
 10
22.4571
 20
-8.576
 30
0.0
 10
22.4571
 20
-8.576
 30
0.0
 10
22.4571
 20
-8.576
 30
0.0
 10
22.4571
 20
-8.576
 30
0.0
 10
22.3203
 20
-8.7076
 30
0.0
 10
22.3203
 20
-8.7076
 30
0.0
 10
22.3203
 20
-8.7076
 30
0.0
 10
22.3203
 20
-8.7076
 30
0.0
 10
22.1419
 20
-8.8099
 30
0.0
 10
22.1419
 20
-8.8099
 30
0.0
 10
22.1419
 20
-8.8099
 30
0.0
 10
22.1419
 20
-8.8099
 30
0.0
 10
21.9344
 20
-8.8747
 30
0.0
 10
21.9344
 20
-8.8747
 30
0.0
 10
21.9344
 20
-8.8747
 30
0.0
 10
21.9344
 20
-8.8747
 30
0.0
 10
21.7119
 20
-8.8969
 30
0.0
 10
21.7119
 20
-8.8969
 30
0.0
  0
SPLINE
  5
42
330
1F
100
AcDbEntity
  8
VRSTVA_1
100
AcDbSpline
210
0.0
220
0.0
230
1.0
 70
     8
 71
     3
 72
    28
 73
    24
 74
     0
 42
0.0000000001
 43
0.0000000001
 40
0.0
 40
0.0
 40
0.0
 40
0.0
 40
0.1428571428571428
 40
0.1428571428571428
 40
0.1428571428571428
 40
0.1428571428571428
 40
0.2857142857142857
 40
0.2857142857142857
 40
0.2857142857142857
 40
0.2857142857142857
 40
0.4285714285714285
 40
0.4285714285714285
 40
0.4285714285714285
 40
0.4285714285714285
 40
0.5714285714285714
 40
0.5714285714285714
 40
0.5714285714285714
 40
0.5714285714285714
 40
0.7142857142857143
 40
0.7142857142857143
 40
0.7142857142857143
 40
0.7142857142857143
 40
1.0
 40
1.0
 40
1.0
 40
1.0
 10
22.5722
 20
-8.4185
 30
0.0
 10
22.5722
 20
-8.4185
 30
0.0
 10
22.5433
 20
-8.5764
 30
0.0
 10
22.5433
 20
-8.5764
 30
0.0
 10
22.5433
 20
-8.5764
 30
0.0
 10
22.5433
 20
-8.5764
 30
0.0
 10
22.4561
 20
-8.7294
 30
0.0
 10
22.4561
 20
-8.7294
 30
0.0
 10
22.4561
 20
-8.7294
 30
0.0
 10
22.4561
 20
-8.7294
 30
0.0
 10
22.3199
 20
-8.8601
 30
0.0
 10
22.3199
 20
-8.8601
 30
0.0
 10
22.3199
 20
-8.8601
 30
0.0
 10
22.3199
 20
-8.8601
 30
0.0
 10
22.1432
 20
-8.9617
 30
0.0
 10
22.1432
 20
-8.9617
 30
0.0
 10
22.1432
 20
-8.9617
 30
0.0
 10
22.1432
 20
-8.9617
 30
0.0
 10
21.933
 20
-9.0274
 30
0.0
 10
21.933
 20
-9.0274
 30
0.0
 10
21.933
 20
-9.0274
 30
0.0
 10
21.933
 20
-9.0274
 30
0.0
 10
21.7119
 20
-9.0493
 30
0.0
 10
21.7119
 20
-9.0493
 30
0.0
  0
SPLINE
  5
43
330
1F
100
AcDbEntity
  8
VRSTVA_1
100
AcDbSpline
210
0.0
220
0.0
230
1.0
 70
     8
 71
     3
 72
    28
 73
    24
 74
     0
 42
0.0000000001
 43
0.0000000001
 40
0.0
 40
0.0
 40
0.0
 40
0.0
 40
0.1428571428571428
 40
0.1428571428571428
 40
0.1428571428571428
 40
0.1428571428571428
 40
0.2857142857142857
 40
0.2857142857142857
 40
0.2857142857142857
 40
0.2857142857142857
 40
0.4285714285714285
 40
0.4285714285714285
 40
0.4285714285714285
 40
0.4285714285714285
 40
0.5714285714285714
 40
0.5714285714285714
 40
0.5714285714285714
 40
0.5714285714285714
 40
0.7142857142857143
 40
0.7142857142857143
 40
0.7142857142857143
 40
0.7142857142857143
 40
1.0
 40
1.0
 40
1.0
 40
1.0
 10
22.5722
 20
-24.9954
 30
0.0
 10
22.5722
 20
-24.9954
 30
0.0
 10
22.543
 20
-24.8367
 30
0.0
 10
22.543
 20
-24.8367
 30
0.0
 10
22.543
 20
-24.8367
 30
0.0
 10
22.543
 20
-24.8367
 30
0.0
 10
22.4571
 20
-24.6859
 30
0.0
 10
22.4571
 20
-24.6859
 30
0.0
 10
22.4571
 20
-24.6859
 30
0.0
 10
22.4571
 20
-24.6859
 30
0.0
 10
22.3203
 20
-24.5542
 30
0.0
 10
22.3203
 20
-24.5542
 30
0.0
 10
22.3203
 20
-24.5542
 30
0.0
 10
22.3203
 20
-24.5542
 30
0.0
 10
22.1419
 20
-24.4519
 30
0.0
 10
22.1419
 20
-24.4519
 30
0.0
 10
22.1419
 20
-24.4519
 30
0.0
 10
22.1419
 20
-24.4519
 30
0.0
 10
21.9344
 20
-24.3871
 30
0.0
 10
21.9344
 20
-24.3871
 30
0.0
 10
21.9344
 20
-24.3871
 30
0.0
 10
21.9344
 20
-24.3871
 30
0.0
 10
21.7119
 20
-24.3649
 30
0.0
 10
21.7119
 20
-24.3649
 30
0.0
  0
SPLINE
  5
44
330
1F
100
AcDbEntity
  8
VRSTVA_1
100
AcDbSpline
210
0.0
220
0.0
230
1.0
 70
     8
 71
     3
 72
    48
 73
    44
 74
     0
 42
0.0000000001
 43
0.0000000001
 40
0.0
 40
0.0
 40
0.0
 40
0.0
 40
0.0833333333333333
 40
0.0833333333333333
 40
0.0833333333333333
 40
0.0833333333333333
 40
0.1666666666666667
 40
0.1666666666666667
 40
0.1666666666666667
 40
0.1666666666666667
 40
0.25
 40
0.25
 40
0.25
 40
0.25
 40
0.3333333333333333
 40
0.3333333333333333
 40
0.3333333333333333
 40
0.3333333333333333
 40
0.4166666666666667
 40
0.4166666666666667
 40
0.4166666666666667
 40
0.4166666666666667
 40
0.5
 40
0.5
 40
0.5
 40
0.5
 40
0.5833333333333334
 40
0.5833333333333334
 40
0.5833333333333334
 40
0.5833333333333334
 40
0.6666666666666666
 40
0.6666666666666666
 40
0.6666666666666666
 40
0.6666666666666666
 40
0.75
 40
0.75
 40
0.75
 40
0.75
 40
0.8333333333333334
 40
0.8333333333333334
 40
0.8333333333333334
 40
0.8333333333333334
 40
1.0
 40
1.0
 40
1.0
 40
1.0
 10
12.59
 20
-26.0942
 30
0.0
 10
12.59
 20
-26.0942
 30
0.0
 10
12.6042
 20
-26.0838
 30
0.0
 10
12.6042
 20
-26.0838
 30
0.0
 10
12.6042
 20
-26.0838
 30
0.0
 10
12.6042
 20
-26.0838
 30
0.0
 10
12.6476
 20
-26.049
 30
0.0
 10
12.6476
 20
-26.049
 30
0.0
 10
12.6476
 20
-26.049
 30
0.0
 10
12.6476
 20
-26.049
 30
0.0
 10
12.7167
 20
-25.9829
 30
0.0
 10
12.7167
 20
-25.9829
 30
0.0
 10
12.7167
 20
-25.9829
 30
0.0
 10
12.7167
 20
-25.9829
 30
0.0
 10
12.8012
 20
-25.8771
 30
0.0
 10
12.8012
 20
-25.8771
 30
0.0
 10
12.8012
 20
-25.8771
 30
0.0
 10
12.8012
 20
-25.8771
 30
0.0
 10
12.8825
 20
-25.729
 30
0.0
 10
12.8825
 20
-25.729
 30
0.0
 10
12.8825
 20
-25.729
 30
0.0
 10
12.8825
 20
-25.729
 30
0.0
 10
12.9423
 20
-25.5464
 30
0.0
 10
12.9423
 20
-25.5464
 30
0.0
 10
12.9423
 20
-25.5464
 30
0.0
 10
12.9423
 20
-25.5464
 30
0.0
 10
12.9711
 20
-25.3426
 30
0.0
 10
12.9711
 20
-25.3426
 30
0.0
 10
12.9711
 20
-25.3426
 30
0.0
 10
12.9711
 20
-25.3426
 30
0.0
 10
12.9682
 20
-25.1304
 30
0.0
 10
12.9682
 20
-25.1304
 30
0.0
 10
12.9682
 20
-25.1304
 30
0.0
 10
12.9682
 20
-25.1304
 30
0.0
 10
12.9369
 20
-24.9184
 30
0.0
 10
12.9369
 20
-24.9184
 30
0.0
 10
12.9369
 20
-24.9184
 30
0.0
 10
12.9369
 20
-24.9184
 30
0.0
 10
12.8818
 20
-24.7112
 30
0.0
 10
12.8818
 20
-24.7112
 30
0.0
 10
12.8818
 20
-24.7112
 30
0.0
 10
12.8818
 20
-24.7112
 30
0.0
 10
12.8064
 20
-24.5098
 30
0.0
 10
12.8064
 20
-24.5098
 30
0.0
  0
SPLINE
  5
45
330
1F
100
AcDbEntity
  8
VRSTVA_1
100
AcDbSpline
210
0.0
220
0.0
230
1.0
 70
     8
 71
     3
 72
    12
 73
     8
 74
     0
 42
0.0000000001
 43
0.0000000001
 40
0.0
 40
0.0
 40
0.0
 40
0.0
 40
0.3333333333333333
 40
0.3333333333333333
 40
0.3333333333333333
 40
0.3333333333333333
 40
1.0
 40
1.0
 40
1.0
 40
1.0
 10
12.3971
 20
-26.1399
 30
0.0
 10
12.3971
 20
-26.1399
 30
0.0
 10
12.4064
 20
-26.1315
 30
0.0
 10
12.4064
 20
-26.1315
 30
0.0
 10
12.4064
 20
-26.1315
 30
0.0
 10
12.4064
 20
-26.1315
 30
0.0
 10
12.4349
 20
-26.1035
 30
0.0
 10
12.4349
 20
-26.1035
 30
0.0
  0
SPLINE
  5
46
330
1F
100
AcDbEntity
  8
VRSTVA_1
100
AcDbSpline
210
0.0
220
0.0
230
1.0
 70
     8
 71
     3
 72
    40
 73
    36
 74
     0
 42
0.0000000001
 43
0.0000000001
 40
0.0
 40
0.0
 40
0.0
 40
0.0
 40
0.1
 40
0.1
 40
0.1
 40
0.1
 40
0.2
 40
0.2
 40
0.2
 40
0.2
 40
0.3
 40
0.3
 40
0.3
 40
0.3
 40
0.4
 40
0.4
 40
0.4
 40
0.4
 40
0.5
 40
0.5
 40
0.5
 40
0.5
 40
0.6
 40
0.6
 40
0.6
 40
0.6
 40
0.7
 40
0.7
 40
0.7
 40
0.7
 40
0.8
 40
0.8
 40
0.8
 40
0.8
 40
1.0
 40
1.0
 40
1.0
 40
1.0
 10
12.4349
 20
-26.1035
 30
0.0
 10
12.4349
 20
-26.1035
 30
0.0
 10
12.4789
 20
-26.0503
 30
0.0
 10
12.4789
 20
-26.0503
 30
0.0
 10
12.4789
 20
-26.0503
 30
0.0
 10
12.4789
 20
-26.0503
 30
0.0
 10
12.53
 20
-25.9651
 30
0.0
 10
12.53
 20
-25.9651
 30
0.0
 10
12.53
 20
-25.9651
 30
0.0
 10
12.53
 20
-25.9651
 30
0.0
 10
12.5744
 20
-25.8462
 30
0.0
 10
12.5744
 20
-25.8462
 30
0.0
 10
12.5744
 20
-25.8462
 30
0.0
 10
12.5744
 20
-25.8462
 30
0.0
 10
12.5995
 20
-25.6995
 30
0.0
 10
12.5995
 20
-25.6995
 30
0.0
 10
12.5995
 20
-25.6995
 30
0.0
 10
12.5995
 20
-25.6995
 30
0.0
 10
12.5997
 20
-25.5359
 30
0.0
 10
12.5997
 20
-25.5359
 30
0.0
 10
12.5997
 20
-25.5359
 30
0.0
 10
12.5997
 20
-25.5359
 30
0.0
 10
12.5755
 20
-25.3657
 30
0.0
 10
12.5755
 20
-25.3657
 30
0.0
 10
12.5755
 20
-25.3657
 30
0.0
 10
12.5755
 20
-25.3657
 30
0.0
 10
12.5304
 20
-25.1957
 30
0.0
 10
12.5304
 20
-25.1957
 30
0.0
 10
12.5304
 20
-25.1957
 30
0.0
 10
12.5304
 20
-25.1957
 30
0.0
 10
12.4682
 20
-25.0294
 30
0.0
 10
12.4682
 20
-25.0294
 30
0.0
 10
12.4682
 20
-25.0294
 30
0.0
 10
12.4682
 20
-25.0294
 30
0.0
 10
12.3913
 20
-24.868
 30
0.0
 10
12.3913
 20
-24.868
 30
0.0
  0
SPLINE
  5
47
330
1F
100
AcDbEntity
  8
VRSTVA_1
100
AcDbSpline
210
0.0
220
0.0
230
1.0
 70
     8
 71
     3
 72
    20
 73
    16
 74
     0
 42
0.0000000001
 43
0.0000000001
 40
0.0
 40
0.0
 40
0.0
 40
0.0
 40
0.2
 40
0.2
 40
0.2
 40
0.2
 40
0.4
 40
0.4
 40
0.4
 40
0.4
 40
0.6
 40
0.6
 40
0.6
 40
0.6
 40
1.0
 40
1.0
 40
1.0
 40
1.0
 10
12.3913
 20
-24.868
 30
0.0
 10
12.3913
 20
-24.868
 30
0.0
 10
12.4387
 20
-24.7417
 30
0.0
 10
12.4387
 20
-24.7417
 30
0.0
 10
12.4387
 20
-24.7417
 30
0.0
 10
12.4387
 20
-24.7417
 30
0.0
 10
12.5322
 20
-24.6313
 30
0.0
 10
12.5322
 20
-24.6313
 30
0.0
 10
12.5322
 20
-24.6313
 30
0.0
 10
12.5322
 20
-24.6313
 30
0.0
 10
12.6601
 20
-24.5507
 30
0.0
 10
12.6601
 20
-24.5507
 30
0.0
 10
12.6601
 20
-24.5507
 30
0.0
 10
12.6601
 20
-24.5507
 30
0.0
 10
12.8064
 20
-24.5098
 30
0.0
 10
12.8064
 20
-24.5098
 30
0.0
  0
SPLINE
  5
48
330
1F
100
AcDbEntity
  8
VRSTVA_1
100
AcDbSpline
210
0.0
220
0.0
230
1.0
 70
     8
 71
     3
 72
    28
 73
    24
 74
     0
 42
0.0000000001
 43
0.0000000001
 40
0.0
 40
0.0
 40
0.0
 40
0.0
 40
0.1428571428571428
 40
0.1428571428571428
 40
0.1428571428571428
 40
0.1428571428571428
 40
0.2857142857142857
 40
0.2857142857142857
 40
0.2857142857142857
 40
0.2857142857142857
 40
0.4285714285714285
 40
0.4285714285714285
 40
0.4285714285714285
 40
0.4285714285714285
 40
0.5714285714285714
 40
0.5714285714285714
 40
0.5714285714285714
 40
0.5714285714285714
 40
0.7142857142857143
 40
0.7142857142857143
 40
0.7142857142857143
 40
0.7142857142857143
 40
1.0
 40
1.0
 40
1.0
 40
1.0
 10
21.7119
 20
-28.2131
 30
0.0
 10
21.7119
 20
-28.2131
 30
0.0
 10
21.9334
 20
-28.2152
 30
0.0
 10
21.9334
 20
-28.2152
 30
0.0
 10
21.9334
 20
-28.2152
 30
0.0
 10
21.9334
 20
-28.2152
 30
0.0
 10
22.1432
 20
-28.2211
 30
0.0
 10
22.1432
 20
-28.2211
 30
0.0
 10
22.1432
 20
-28.2211
 30
0.0
 10
22.1432
 20
-28.2211
 30
0.0
 10
22.3198
 20
-28.2291
 30
0.0
 10
22.3198
 20
-28.2291
 30
0.0
 10
22.3198
 20
-28.2291
 30
0.0
 10
22.3198
 20
-28.2291
 30
0.0
 10
22.4562
 20
-28.237
 30
0.0
 10
22.4562
 20
-28.237
 30
0.0
 10
22.4562
 20
-28.237
 30
0.0
 10
22.4562
 20
-28.237
 30
0.0
 10
22.5433
 20
-28.2429
 30
0.0
 10
22.5433
 20
-28.2429
 30
0.0
 10
22.5433
 20
-28.2429
 30
0.0
 10
22.5433
 20
-28.2429
 30
0.0
 10
22.5722
 20
-28.245
 30
0.0
 10
22.5722
 20
-28.245
 30
0.0
  0
SPLINE
  5
49
330
1F
100
AcDbEntity
  8
VRSTVA_1
100
AcDbSpline
210
0.0
220
0.0
230
1.0
 70
     8
 71
     3
 72
    28
 73
    24
 74
     0
 42
0.0000000001
 43
0.0000000001
 40
0.0
 40
0.0
 40
0.0
 40
0.0
 40
0.1428571428571428
 40
0.1428571428571428
 40
0.1428571428571428
 40
0.1428571428571428
 40
0.2857142857142857
 40
0.2857142857142857
 40
0.2857142857142857
 40
0.2857142857142857
 40
0.4285714285714285
 40
0.4285714285714285
 40
0.4285714285714285
 40
0.4285714285714285
 40
0.5714285714285714
 40
0.5714285714285714
 40
0.5714285714285714
 40
0.5714285714285714
 40
0.7142857142857143
 40
0.7142857142857143
 40
0.7142857142857143
 40
0.7142857142857143
 40
1.0
 40
1.0
 40
1.0
 40
1.0
 10
21.7119
 20
-28.4288
 30
0.0
 10
21.7119
 20
-28.4288
 30
0.0
 10
21.9344
 20
-28.4309
 30
0.0
 10
21.9344
 20
-28.4309
 30
0.0
 10
21.9344
 20
-28.4309
 30
0.0
 10
21.9344
 20
-28.4309
 30
0.0
 10
22.1419
 20
-28.4366
 30
0.0
 10
22.1419
 20
-28.4366
 30
0.0
 10
22.1419
 20
-28.4366
 30
0.0
 10
22.1419
 20
-28.4366
 30
0.0
 10
22.3202
 20
-28.4444
 30
0.0
 10
22.3202
 20
-28.4444
 30
0.0
 10
22.3202
 20
-28.4444
 30
0.0
 10
22.3202
 20
-28.4444
 30
0.0
 10
22.4571
 20
-28.4523
 30
0.0
 10
22.4571
 20
-28.4523
 30
0.0
 10
22.4571
 20
-28.4523
 30
0.0
 10
22.4571
 20
-28.4523
 30
0.0
 10
22.543
 20
-28.458
 30
0.0
 10
22.543
 20
-28.458
 30
0.0
 10
22.543
 20
-28.458
 30
0.0
 10
22.543
 20
-28.458
 30
0.0
 10
22.5722
 20
-28.4601
 30
0.0
 10
22.5722
 20
-28.4601
 30
0.0
  0
SPLINE
  5
4A
330
1F
100
AcDbEntity
  8
VRSTVA_1
100
AcDbSpline
210
0.0
220
0.0
230
1.0
 70
     8
 71
     3
 72
    28
 73
    24
 74
     0
 42
0.0000000001
 43
0.0000000001
 40
0.0
 40
0.0
 40
0.0
 40
0.0
 40
0.1428571428571428
 40
0.1428571428571428
 40
0.1428571428571428
 40
0.1428571428571428
 40
0.2857142857142857
 40
0.2857142857142857
 40
0.2857142857142857
 40
0.2857142857142857
 40
0.4285714285714285
 40
0.4285714285714285
 40
0.4285714285714285
 40
0.4285714285714285
 40
0.5714285714285714
 40
0.5714285714285714
 40
0.5714285714285714
 40
0.5714285714285714
 40
0.7142857142857143
 40
0.7142857142857143
 40
0.7142857142857143
 40
0.7142857142857143
 40
1.0
 40
1.0
 40
1.0
 40
1.0
 10
21.7119
 20
-25.5816
 30
0.0
 10
21.7119
 20
-25.5816
 30
0.0
 10
21.9344
 20
-25.5624
 30
0.0
 10
21.9344
 20
-25.5624
 30
0.0
 10
21.9344
 20
-25.5624
 30
0.0
 10
21.9344
 20
-25.5624
 30
0.0
 10
22.1419
 20
-25.5057
 30
0.0
 10
22.1419
 20
-25.5057
 30
0.0
 10
22.1419
 20
-25.5057
 30
0.0
 10
22.1419
 20
-25.5057
 30
0.0
 10
22.3203
 20
-25.4145
 30
0.0
 10
22.3203
 20
-25.4145
 30
0.0
 10
22.3203
 20
-25.4145
 30
0.0
 10
22.3203
 20
-25.4145
 30
0.0
 10
22.4571
 20
-25.2939
 30
0.0
 10
22.4571
 20
-25.2939
 30
0.0
 10
22.4571
 20
-25.2939
 30
0.0
 10
22.4571
 20
-25.2939
 30
0.0
 10
22.543
 20
-25.1512
 30
0.0
 10
22.543
 20
-25.1512
 30
0.0
 10
22.543
 20
-25.1512
 30
0.0
 10
22.543
 20
-25.1512
 30
0.0
 10
22.5722
 20
-24.9954
 30
0.0
 10
22.5722
 20
-24.9954
 30
0.0
  0
SPLINE
  5
4B
330
1F
100
AcDbEntity
  8
VRSTVA_1
100
AcDbSpline
210
0.0
220
0.0
230
1.0
 70
     8
 71
     3
 72
    12
 73
     8
 74
     0
 42
0.0000000001
 43
0.0000000001
 40
0.0
 40
0.0
 40
0.0
 40
0.0
 40
0.3333333333333333
 40
0.3333333333333333
 40
0.3333333333333333
 40
0.3333333333333333
 40
1.0
 40
1.0
 40
1.0
 40
1.0
 10
12.59
 20
-26.0942
 30
0.0
 10
12.59
 20
-26.0942
 30
0.0
 10
12.4731
 20
-26.1104
 30
0.0
 10
12.4731
 20
-26.1104
 30
0.0
 10
12.4731
 20
-26.1104
 30
0.0
 10
12.4731
 20
-26.1104
 30
0.0
 10
12.3971
 20
-26.1399
 30
0.0
 10
12.3971
 20
-26.1399
 30
0.0
  0
SPLINE
  5
4C
330
1F
100
AcDbEntity
  8
VRSTVA_1
100
AcDbSpline
210
0.0
220
0.0
230
1.0
 70
     8
 71
     3
 72
    28
 73
    24
 74
     0
 42
0.0000000001
 43
0.0000000001
 40
0.0
 40
0.0
 40
0.0
 40
0.0
 40
0.1428571428571428
 40
0.1428571428571428
 40
0.1428571428571428
 40
0.1428571428571428
 40
0.2857142857142857
 40
0.2857142857142857
 40
0.2857142857142857
 40
0.2857142857142857
 40
0.4285714285714285
 40
0.4285714285714285
 40
0.4285714285714285
 40
0.4285714285714285
 40
0.5714285714285714
 40
0.5714285714285714
 40
0.5714285714285714
 40
0.5714285714285714
 40
0.7142857142857143
 40
0.7142857142857143
 40
0.7142857142857143
 40
0.7142857142857143
 40
1.0
 40
1.0
 40
1.0
 40
1.0
 10
13.1088
 20
-6.7374
 30
0.0
 10
13.1088
 20
-6.7374
 30
0.0
 10
13.1103
 20
-6.772
 30
0.0
 10
13.1103
 20
-6.772
 30
0.0
 10
13.1103
 20
-6.772
 30
0.0
 10
13.1103
 20
-6.772
 30
0.0
 10
13.1476
 20
-6.9157
 30
0.0
 10
13.1476
 20
-6.9157
 30
0.0
 10
13.1476
 20
-6.9157
 30
0.0
 10
13.1476
 20
-6.9157
 30
0.0
 10
13.2315
 20
-7.0382
 30
0.0
 10
13.2315
 20
-7.0382
 30
0.0
 10
13.2315
 20
-7.0382
 30
0.0
 10
13.2315
 20
-7.0382
 30
0.0
 10
13.3521
 20
-7.1248
 30
0.0
 10
13.3521
 20
-7.1248
 30
0.0
 10
13.3521
 20
-7.1248
 30
0.0
 10
13.3521
 20
-7.1248
 30
0.0
 10
13.4949
 20
-7.1653
 30
0.0
 10
13.4949
 20
-7.1653
 30
0.0
 10
13.4949
 20
-7.1653
 30
0.0
 10
13.4949
 20
-7.1653
 30
0.0
 10
13.539
 20
-7.1675
 30
0.0
 10
13.539
 20
-7.1675
 30
0.0
  0
SPLINE
  5
4D
330
1F
100
AcDbEntity
  8
VRSTVA_1
100
AcDbSpline
210
0.0
220
0.0
230
1.0
 70
     8
 71
     3
 72
    28
 73
    24
 74
     0
 42
0.0000000001
 43
0.0000000001
 40
0.0
 40
0.0
 40
0.0
 40
0.0
 40
0.1428571428571428
 40
0.1428571428571428
 40
0.1428571428571428
 40
0.1428571428571428
 40
0.2857142857142857
 40
0.2857142857142857
 40
0.2857142857142857
 40
0.2857142857142857
 40
0.4285714285714285
 40
0.4285714285714285
 40
0.4285714285714285
 40
0.4285714285714285
 40
0.5714285714285714
 40
0.5714285714285714
 40
0.5714285714285714
 40
0.5714285714285714
 40
0.7142857142857143
 40
0.7142857142857143
 40
0.7142857142857143
 40
0.7142857142857143
 40
1.0
 40
1.0
 40
1.0
 40
1.0
 10
21.7119
 20
-24.2124
 30
0.0
 10
21.7119
 20
-24.2124
 30
0.0
 10
21.9334
 20
-24.2344
 30
0.0
 10
21.9334
 20
-24.2344
 30
0.0
 10
21.9334
 20
-24.2344
 30
0.0
 10
21.9334
 20
-24.2344
 30
0.0
 10
22.1432
 20
-24.3
 30
0.0
 10
22.1432
 20
-24.3
 30
0.0
 10
22.1432
 20
-24.3
 30
0.0
 10
22.1432
 20
-24.3
 30
0.0
 10
22.3198
 20
-24.4016
 30
0.0
 10
22.3198
 20
-24.4016
 30
0.0
 10
22.3198
 20
-24.4016
 30
0.0
 10
22.3198
 20
-24.4016
 30
0.0
 10
22.4562
 20
-24.5325
 30
0.0
 10
22.4562
 20
-24.5325
 30
0.0
 10
22.4562
 20
-24.5325
 30
0.0
 10
22.4562
 20
-24.5325
 30
0.0
 10
22.5433
 20
-24.6853
 30
0.0
 10
22.5433
 20
-24.6853
 30
0.0
 10
22.5433
 20
-24.6853
 30
0.0
 10
22.5433
 20
-24.6853
 30
0.0
 10
22.5722
 20
-24.8432
 30
0.0
 10
22.5722
 20
-24.8432
 30
0.0
  0
SPLINE
  5
4E
330
1F
100
AcDbEntity
  8
VRSTVA_1
100
AcDbSpline
210
0.0
220
0.0
230
1.0
 70
     8
 71
     3
 72
    68
 73
    64
 74
     0
 42
0.0000000001
 43
0.0000000001
 40
0.0
 40
0.0
 40
0.0
 40
0.0
 40
0.0588235294117647
 40
0.0588235294117647
 40
0.0588235294117647
 40
0.0588235294117647
 40
0.1176470588235294
 40
0.1176470588235294
 40
0.1176470588235294
 40
0.1176470588235294
 40
0.1764705882352941
 40
0.1764705882352941
 40
0.1764705882352941
 40
0.1764705882352941
 40
0.2352941176470588
 40
0.2352941176470588
 40
0.2352941176470588
 40
0.2352941176470588
 40
0.2941176470588235
 40
0.2941176470588235
 40
0.2941176470588235
 40
0.2941176470588235
 40
0.3529411764705883
 40
0.3529411764705883
 40
0.3529411764705883
 40
0.3529411764705883
 40
0.4117647058823529
 40
0.4117647058823529
 40
0.4117647058823529
 40
0.4117647058823529
 40
0.4705882352941176
 40
0.4705882352941176
 40
0.4705882352941176
 40
0.4705882352941176
 40
0.5294117647058824
 40
0.5294117647058824
 40
0.5294117647058824
 40
0.5294117647058824
 40
0.5882352941176471
 40
0.5882352941176471
 40
0.5882352941176471
 40
0.5882352941176471
 40
0.6470588235294118
 40
0.6470588235294118
 40
0.6470588235294118
 40
0.6470588235294118
 40
0.7058823529411765
 40
0.7058823529411765
 40
0.7058823529411765
 40
0.7058823529411765
 40
0.7647058823529411
 40
0.7647058823529411
 40
0.7647058823529411
 40
0.7647058823529411
 40
0.8235294117647058
 40
0.8235294117647058
 40
0.8235294117647058
 40
0.8235294117647058
 40
0.8823529411764706
 40
0.8823529411764706
 40
0.8823529411764706
 40
0.8823529411764706
 40
1.0
 40
1.0
 40
1.0
 40
1.0
 10
12.3913
 20
-24.868
 30
0.0
 10
12.3913
 20
-24.868
 30
0.0
 10
12.0048
 20
-23.8501
 30
0.0
 10
12.0048
 20
-23.8501
 30
0.0
 10
12.0048
 20
-23.8501
 30
0.0
 10
12.0048
 20
-23.8501
 30
0.0
 10
11.5992
 20
-22.6261
 30
0.0
 10
11.5992
 20
-22.6261
 30
0.0
 10
11.5992
 20
-22.6261
 30
0.0
 10
11.5992
 20
-22.6261
 30
0.0
 10
11.2271
 20
-21.2574
 30
0.0
 10
11.2271
 20
-21.2574
 30
0.0
 10
11.2271
 20
-21.2574
 30
0.0
 10
11.2271
 20
-21.2574
 30
0.0
 10
10.9321
 20
-19.8062
 30
0.0
 10
10.9321
 20
-19.8062
 30
0.0
 10
10.9321
 20
-19.8062
 30
0.0
 10
10.9321
 20
-19.8062
 30
0.0
 10
10.7407
 20
-18.3153
 30
0.0
 10
10.7407
 20
-18.3153
 30
0.0
 10
10.7407
 20
-18.3153
 30
0.0
 10
10.7407
 20
-18.3153
 30
0.0
 10
10.6661
 20
-16.8141
 30
0.0
 10
10.6661
 20
-16.8141
 30
0.0
 10
10.6661
 20
-16.8141
 30
0.0
 10
10.6661
 20
-16.8141
 30
0.0
 10
10.7115
 20
-15.3127
 30
0.0
 10
10.7115
 20
-15.3127
 30
0.0
 10
10.7115
 20
-15.3127
 30
0.0
 10
10.7115
 20
-15.3127
 30
0.0
 10
10.8749
 20
-13.818
 30
0.0
 10
10.8749
 20
-13.818
 30
0.0
 10
10.8749
 20
-13.818
 30
0.0
 10
10.8749
 20
-13.818
 30
0.0
 10
11.1465
 20
-12.3538
 30
0.0
 10
11.1465
 20
-12.3538
 30
0.0
 10
11.1465
 20
-12.3538
 30
0.0
 10
11.1465
 20
-12.3538
 30
0.0
 10
11.5031
 20
-10.96
 30
0.0
 10
11.5031
 20
-10.96
 30
0.0
 10
11.5031
 20
-10.96
 30
0.0
 10
11.5031
 20
-10.96
 30
0.0
 10
11.9054
 20
-9.6941
 30
0.0
 10
11.9054
 20
-9.6941
 30
0.0
 10
11.9054
 20
-9.6941
 30
0.0
 10
11.9054
 20
-9.6941
 30
0.0
 10
12.3014
 20
-8.6209
 30
0.0
 10
12.3014
 20
-8.6209
 30
0.0
 10
12.3014
 20
-8.6209
 30
0.0
 10
12.3014
 20
-8.6209
 30
0.0
 10
12.6419
 20
-7.7869
 30
0.0
 10
12.6419
 20
-7.7869
 30
0.0
 10
12.6419
 20
-7.7869
 30
0.0
 10
12.6419
 20
-7.7869
 30
0.0
 10
12.8982
 20
-7.1993
 30
0.0
 10
12.8982
 20
-7.1993
 30
0.0
 10
12.8982
 20
-7.1993
 30
0.0
 10
12.8982
 20
-7.1993
 30
0.0
 10
13.056
 20
-6.8516
 30
0.0
 10
13.056
 20
-6.8516
 30
0.0
 10
13.056
 20
-6.8516
 30
0.0
 10
13.056
 20
-6.8516
 30
0.0
 10
13.1088
 20
-6.7374
 30
0.0
 10
13.1088
 20
-6.7374
 30
0.0
  0
SPLINE
  5
4F
330
1F
100
AcDbEntity
  8
VRSTVA_1
100
AcDbSpline
210
0.0
220
0.0
230
1.0
 70
     8
 71
     3
 72
    68
 73
    64
 74
     0
 42
0.0000000001
 43
0.0000000001
 40
0.0
 40
0.0
 40
0.0
 40
0.0
 40
0.0588235294117647
 40
0.0588235294117647
 40
0.0588235294117647
 40
0.0588235294117647
 40
0.1176470588235294
 40
0.1176470588235294
 40
0.1176470588235294
 40
0.1176470588235294
 40
0.1764705882352941
 40
0.1764705882352941
 40
0.1764705882352941
 40
0.1764705882352941
 40
0.2352941176470588
 40
0.2352941176470588
 40
0.2352941176470588
 40
0.2352941176470588
 40
0.2941176470588235
 40
0.2941176470588235
 40
0.2941176470588235
 40
0.2941176470588235
 40
0.3529411764705883
 40
0.3529411764705883
 40
0.3529411764705883
 40
0.3529411764705883
 40
0.4117647058823529
 40
0.4117647058823529
 40
0.4117647058823529
 40
0.4117647058823529
 40
0.4705882352941176
 40
0.4705882352941176
 40
0.4705882352941176
 40
0.4705882352941176
 40
0.5294117647058824
 40
0.5294117647058824
 40
0.5294117647058824
 40
0.5294117647058824
 40
0.5882352941176471
 40
0.5882352941176471
 40
0.5882352941176471
 40
0.5882352941176471
 40
0.6470588235294118
 40
0.6470588235294118
 40
0.6470588235294118
 40
0.6470588235294118
 40
0.7058823529411765
 40
0.7058823529411765
 40
0.7058823529411765
 40
0.7058823529411765
 40
0.7647058823529411
 40
0.7647058823529411
 40
0.7647058823529411
 40
0.7647058823529411
 40
0.8235294117647058
 40
0.8235294117647058
 40
0.8235294117647058
 40
0.8235294117647058
 40
0.8823529411764706
 40
0.8823529411764706
 40
0.8823529411764706
 40
0.8823529411764706
 40
1.0
 40
1.0
 40
1.0
 40
1.0
 10
12.8064
 20
-24.5098
 30
0.0
 10
12.8064
 20
-24.5098
 30
0.0
 10
12.4112
 20
-23.5348
 30
0.0
 10
12.4112
 20
-23.5348
 30
0.0
 10
12.4112
 20
-23.5348
 30
0.0
 10
12.4112
 20
-23.5348
 30
0.0
 10
11.9971
 20
-22.3639
 30
0.0
 10
11.9971
 20
-22.3639
 30
0.0
 10
11.9971
 20
-22.3639
 30
0.0
 10
11.9971
 20
-22.3639
 30
0.0
 10
11.6173
 20
-21.0548
 30
0.0
 10
11.6173
 20
-21.0548
 30
0.0
 10
11.6173
 20
-21.0548
 30
0.0
 10
11.6173
 20
-21.0548
 30
0.0
 10
11.3161
 20
-19.6668
 30
0.0
 10
11.3161
 20
-19.6668
 30
0.0
 10
11.3161
 20
-19.6668
 30
0.0
 10
11.3161
 20
-19.6668
 30
0.0
 10
11.1209
 20
-18.2408
 30
0.0
 10
11.1209
 20
-18.2408
 30
0.0
 10
11.1209
 20
-18.2408
 30
0.0
 10
11.1209
 20
-18.2408
 30
0.0
 10
11.0448
 20
-16.8052
 30
0.0
 10
11.0448
 20
-16.8052
 30
0.0
 10
11.0448
 20
-16.8052
 30
0.0
 10
11.0448
 20
-16.8052
 30
0.0
 10
11.0912
 20
-15.3691
 30
0.0
 10
11.0912
 20
-15.3691
 30
0.0
 10
11.0912
 20
-15.3691
 30
0.0
 10
11.0912
 20
-15.3691
 30
0.0
 10
11.2581
 20
-13.9397
 30
0.0
 10
11.2581
 20
-13.9397
 30
0.0
 10
11.2581
 20
-13.9397
 30
0.0
 10
11.2581
 20
-13.9397
 30
0.0
 10
11.5354
 20
-12.5393
 30
0.0
 10
11.5354
 20
-12.5393
 30
0.0
 10
11.5354
 20
-12.5393
 30
0.0
 10
11.5354
 20
-12.5393
 30
0.0
 10
11.8995
 20
-11.2063
 30
0.0
 10
11.8995
 20
-11.2063
 30
0.0
 10
11.8995
 20
-11.2063
 30
0.0
 10
11.8995
 20
-11.2063
 30
0.0
 10
12.3102
 20
-9.9957
 30
0.0
 10
12.3102
 20
-9.9957
 30
0.0
 10
12.3102
 20
-9.9957
 30
0.0
 10
12.3102
 20
-9.9957
 30
0.0
 10
12.7145
 20
-8.9692
 30
0.0
 10
12.7145
 20
-8.9692
 30
0.0
 10
12.7145
 20
-8.9692
 30
0.0
 10
12.7145
 20
-8.9692
 30
0.0
 10
13.0622
 20
-8.1717
 30
0.0
 10
13.0622
 20
-8.1717
 30
0.0
 10
13.0622
 20
-8.1717
 30
0.0
 10
13.0622
 20
-8.1717
 30
0.0
 10
13.3239
 20
-7.6095
 30
0.0
 10
13.3239
 20
-7.6095
 30
0.0
 10
13.3239
 20
-7.6095
 30
0.0
 10
13.3239
 20
-7.6095
 30
0.0
 10
13.485
 20
-7.2769
 30
0.0
 10
13.485
 20
-7.2769
 30
0.0
 10
13.485
 20
-7.2769
 30
0.0
 10
13.485
 20
-7.2769
 30
0.0
 10
13.539
 20
-7.1675
 30
0.0
 10
13.539
 20
-7.1675
 30
0.0
  0
SPLINE
  5
50
330
1F
100
AcDbEntity
  8
VRSTVA_1
100
AcDbSpline
210
0.0
220
0.0
230
1.0
 70
     8
 71
     3
 72
    28
 73
    24
 74
     0
 42
0.0000000001
 43
0.0000000001
 40
0.0
 40
0.0
 40
0.0
 40
0.0
 40
0.1428571428571428
 40
0.1428571428571428
 40
0.1428571428571428
 40
0.1428571428571428
 40
0.2857142857142857
 40
0.2857142857142857
 40
0.2857142857142857
 40
0.2857142857142857
 40
0.4285714285714285
 40
0.4285714285714285
 40
0.4285714285714285
 40
0.4285714285714285
 40
0.5714285714285714
 40
0.5714285714285714
 40
0.5714285714285714
 40
0.5714285714285714
 40
0.7142857142857143
 40
0.7142857142857143
 40
0.7142857142857143
 40
0.7142857142857143
 40
1.0
 40
1.0
 40
1.0
 40
1.0
 10
22.5722
 20
-4.8017
 30
0.0
 10
22.5722
 20
-4.8017
 30
0.0
 10
22.543
 20
-4.8038
 30
0.0
 10
22.543
 20
-4.8038
 30
0.0
 10
22.543
 20
-4.8038
 30
0.0
 10
22.543
 20
-4.8038
 30
0.0
 10
22.4571
 20
-4.8095
 30
0.0
 10
22.4571
 20
-4.8095
 30
0.0
 10
22.4571
 20
-4.8095
 30
0.0
 10
22.4571
 20
-4.8095
 30
0.0
 10
22.3203
 20
-4.8173
 30
0.0
 10
22.3203
 20
-4.8173
 30
0.0
 10
22.3203
 20
-4.8173
 30
0.0
 10
22.3203
 20
-4.8173
 30
0.0
 10
22.1419
 20
-4.8252
 30
0.0
 10
22.1419
 20
-4.8252
 30
0.0
 10
22.1419
 20
-4.8252
 30
0.0
 10
22.1419
 20
-4.8252
 30
0.0
 10
21.9344
 20
-4.8309
 30
0.0
 10
21.9344
 20
-4.8309
 30
0.0
 10
21.9344
 20
-4.8309
 30
0.0
 10
21.9344
 20
-4.8309
 30
0.0
 10
21.7119
 20
-4.833
 30
0.0
 10
21.7119
 20
-4.833
 30
0.0
  0
SPLINE
  5
51
330
1F
100
AcDbEntity
  8
VRSTVA_1
100
AcDbSpline
210
0.0
220
0.0
230
1.0
 70
     8
 71
     3
 72
    28
 73
    24
 74
     0
 42
0.0000000001
 43
0.0000000001
 40
0.0
 40
0.0
 40
0.0
 40
0.0
 40
0.1428571428571428
 40
0.1428571428571428
 40
0.1428571428571428
 40
0.1428571428571428
 40
0.2857142857142857
 40
0.2857142857142857
 40
0.2857142857142857
 40
0.2857142857142857
 40
0.4285714285714285
 40
0.4285714285714285
 40
0.4285714285714285
 40
0.4285714285714285
 40
0.5714285714285714
 40
0.5714285714285714
 40
0.5714285714285714
 40
0.5714285714285714
 40
0.7142857142857143
 40
0.7142857142857143
 40
0.7142857142857143
 40
0.7142857142857143
 40
1.0
 40
1.0
 40
1.0
 40
1.0
 10
22.5722
 20
-5.0167
 30
0.0
 10
22.5722
 20
-5.0167
 30
0.0
 10
22.5433
 20
-5.0189
 30
0.0
 10
22.5433
 20
-5.0189
 30
0.0
 10
22.5433
 20
-5.0189
 30
0.0
 10
22.5433
 20
-5.0189
 30
0.0
 10
22.4561
 20
-5.0248
 30
0.0
 10
22.4561
 20
-5.0248
 30
0.0
 10
22.4561
 20
-5.0248
 30
0.0
 10
22.4561
 20
-5.0248
 30
0.0
 10
22.3199
 20
-5.0327
 30
0.0
 10
22.3199
 20
-5.0327
 30
0.0
 10
22.3199
 20
-5.0327
 30
0.0
 10
22.3199
 20
-5.0327
 30
0.0
 10
22.1432
 20
-5.0406
 30
0.0
 10
22.1432
 20
-5.0406
 30
0.0
 10
22.1432
 20
-5.0406
 30
0.0
 10
22.1432
 20
-5.0406
 30
0.0
 10
21.933
 20
-5.0465
 30
0.0
 10
21.933
 20
-5.0465
 30
0.0
 10
21.933
 20
-5.0465
 30
0.0
 10
21.933
 20
-5.0465
 30
0.0
 10
21.7119
 20
-5.0486
 30
0.0
 10
21.7119
 20
-5.0486
 30
0.0
  0
SPLINE
  5
52
330
1F
100
AcDbEntity
  8
VRSTVA_1
100
AcDbSpline
210
0.0
220
0.0
230
1.0
 70
     8
 71
     3
 72
    28
 73
    24
 74
     0
 42
0.0000000001
 43
0.0000000001
 40
0.0
 40
0.0
 40
0.0
 40
0.0
 40
0.1428571428571428
 40
0.1428571428571428
 40
0.1428571428571428
 40
0.1428571428571428
 40
0.2857142857142857
 40
0.2857142857142857
 40
0.2857142857142857
 40
0.2857142857142857
 40
0.4285714285714285
 40
0.4285714285714285
 40
0.4285714285714285
 40
0.4285714285714285
 40
0.5714285714285714
 40
0.5714285714285714
 40
0.5714285714285714
 40
0.5714285714285714
 40
0.7142857142857143
 40
0.7142857142857143
 40
0.7142857142857143
 40
0.7142857142857143
 40
1.0
 40
1.0
 40
1.0
 40
1.0
 10
21.7119
 20
-7.6802
 30
0.0
 10
21.7119
 20
-7.6802
 30
0.0
 10
21.9344
 20
-7.6994
 30
0.0
 10
21.9344
 20
-7.6994
 30
0.0
 10
21.9344
 20
-7.6994
 30
0.0
 10
21.9344
 20
-7.6994
 30
0.0
 10
22.1419
 20
-7.7561
 30
0.0
 10
22.1419
 20
-7.7561
 30
0.0
 10
22.1419
 20
-7.7561
 30
0.0
 10
22.1419
 20
-7.7561
 30
0.0
 10
22.3203
 20
-7.8473
 30
0.0
 10
22.3203
 20
-7.8473
 30
0.0
 10
22.3203
 20
-7.8473
 30
0.0
 10
22.3203
 20
-7.8473
 30
0.0
 10
22.4571
 20
-7.9679
 30
0.0
 10
22.4571
 20
-7.9679
 30
0.0
 10
22.4571
 20
-7.9679
 30
0.0
 10
22.4571
 20
-7.9679
 30
0.0
 10
22.543
 20
-8.1106
 30
0.0
 10
22.543
 20
-8.1106
 30
0.0
 10
22.543
 20
-8.1106
 30
0.0
 10
22.543
 20
-8.1106
 30
0.0
 10
22.5722
 20
-8.2664
 30
0.0
 10
22.5722
 20
-8.2664
 30
0.0
  0
SPLINE
  5
53
330
1F
100
AcDbEntity
  8
VRSTVA_1
100
AcDbSpline
210
0.0
220
0.0
230
1.0
 70
     8
 71
     3
 72
    24
 73
    20
 74
     0
 42
0.0000000001
 43
0.0000000001
 40
0.0
 40
0.0
 40
0.0
 40
0.0
 40
0.1666666666666667
 40
0.1666666666666667
 40
0.1666666666666667
 40
0.1666666666666667
 40
0.3333333333333333
 40
0.3333333333333333
 40
0.3333333333333333
 40
0.3333333333333333
 40
0.5
 40
0.5
 40
0.5
 40
0.5
 40
0.6666666666666666
 40
0.6666666666666666
 40
0.6666666666666666
 40
0.6666666666666666
 40
1.0
 40
1.0
 40
1.0
 40
1.0
 10
-23.4542
 20
-20.4383
 30
0.0
 10
-23.4542
 20
-20.4383
 30
0.0
 10
-23.4557
 20
-20.4024
 30
0.0
 10
-23.4557
 20
-20.4024
 30
0.0
 10
-23.4557
 20
-20.4024
 30
0.0
 10
-23.4557
 20
-20.4024
 30
0.0
 10
-23.4902
 20
-20.266
 30
0.0
 10
-23.4902
 20
-20.266
 30
0.0
 10
-23.4902
 20
-20.266
 30
0.0
 10
-23.4902
 20
-20.266
 30
0.0
 10
-23.567
 20
-20.1479
 30
0.0
 10
-23.567
 20
-20.1479
 30
0.0
 10
-23.567
 20
-20.1479
 30
0.0
 10
-23.567
 20
-20.1479
 30
0.0
 10
-23.6775
 20
-20.0611
 30
0.0
 10
-23.6775
 20
-20.0611
 30
0.0
 10
-23.6775
 20
-20.0611
 30
0.0
 10
-23.6775
 20
-20.0611
 30
0.0
 10
-23.8097
 20
-20.0147
 30
0.0
 10
-23.8097
 20
-20.0147
 30
0.0
  0
SPLINE
  5
54
330
1F
100
AcDbEntity
  8
VRSTVA_1
 62
     7
100
AcDbSpline
210
0.0
220
0.0
230
1.0
 70
     8
 71
     3
 72
     8
 73
     4
 74
     0
 42
0.0000000001
 43
0.0000000001
 40
0.0
 40
0.0
 40
0.0
 40
0.0
 40
1.0
 40
1.0
 40
1.0
 40
1.0
 10
-19.7655
 20
11.114
 30
0.0
 10
-20.2528
 20
11.114
 30
0.0
 10
-20.7905
 20
11.0132
 30
0.0
 10
-21.2442
 20
10.8619
 30
0.0
  0
SPLINE
  5
55
330
1F
100
AcDbEntity
  8
VRSTVA_1
100
AcDbSpline
210
0.0
220
0.0
230
1.0
 70
     8
 71
     3
 72
     8
 73
     4
 74
     0
 42
0.0000000001
 43
0.0000000001
 40
0.0
 40
0.0
 40
0.0
 40
0.0
 40
1.0
 40
1.0
 40
1.0
 40
1.0
 10
-19.7655
 20
11.114
 30
0.0
 10
-20.2528
 20
11.114
 30
0.0
 10
-20.7905
 20
11.0132
 30
0.0
 10
-21.2442
 20
10.8619
 30
0.0
  0
SPLINE
  5
56
330
1F
100
AcDbEntity
  8
VRSTVA_1
 62
     7
100
AcDbSpline
210
0.0
220
0.0
230
1.0
 70
     8
 71
     3
 72
    12
 73
     8
 74
     0
 42
0.0000000001
 43
0.0000000001
 40
0.0
 40
0.0
 40
0.0
 40
0.0
 40
0.3333333333333333
 40
0.3333333333333333
 40
0.3333333333333333
 40
0.3333333333333333
 40
1.0
 40
1.0
 40
1.0
 40
1.0
 10
6.4388
 20
10.8323
 30
0.0
 10
5.9851
 20
10.9835
 30
0.0
 10
5.4474
 20
11.0843
 30
0.0
 10
4.9602
 20
11.0843
 30
0.0
 10
4.9602
 20
11.0843
 30
0.0
 10
4.9602
 20
11.0843
 30
0.0
 10
4.9602
 20
11.0843
 30
0.0
 10
4.9602
 20
11.0843
 30
0.0
  0
SPLINE
  5
57
330
1F
100
AcDbEntity
  8
VRSTVA_1
100
AcDbSpline
210
0.0
220
0.0
230
1.0
 70
     8
 71
     3
 72
    12
 73
     8
 74
     0
 42
0.0000000001
 43
0.0000000001
 40
0.0
 40
0.0
 40
0.0
 40
0.0
 40
0.3333333333333333
 40
0.3333333333333333
 40
0.3333333333333333
 40
0.3333333333333333
 40
1.0
 40
1.0
 40
1.0
 40
1.0
 10
6.4388
 20
10.8323
 30
0.0
 10
5.9851
 20
10.9835
 30
0.0
 10
5.4474
 20
11.0843
 30
0.0
 10
4.9602
 20
11.0843
 30
0.0
 10
4.9602
 20
11.0843
 30
0.0
 10
4.9602
 20
11.0843
 30
0.0
 10
4.9602
 20
11.0843
 30
0.0
 10
4.9602
 20
11.0843
 30
0.0
  0
SPLINE
  5
58
330
1F
100
AcDbEntity
  8
VRSTVA_1
 62
     7
100
AcDbSpline
210
0.0
220
0.0
230
1.0
 70
     8
 71
     3
 72
    12
 73
     8
 74
     0
 42
0.0000000001
 43
0.0000000001
 40
0.0
 40
0.0
 40
0.0
 40
0.0
 40
0.3333333333333333
 40
0.3333333333333333
 40
0.3333333333333333
 40
0.3333333333333333
 40
1.0
 40
1.0
 40
1.0
 40
1.0
 10
22.5722
 20
-28.245
 30
0.0
 10
23.0461
 20
-28.245
 30
0.0
 10
23.4325
 20
-27.8585
 30
0.0
 10
23.4325
 20
-27.3847
 30
0.0
 10
23.4325
 20
-27.3847
 30
0.0
 10
23.4325
 20
-27.3847
 30
0.0
 10
23.4325
 20
-27.3847
 30
0.0
 10
23.4325
 20
-27.3847
 30
0.0
  0
SPLINE
  5
59
330
1F
100
AcDbEntity
  8
VRSTVA_1
100
AcDbSpline
210
0.0
220
0.0
230
1.0
 70
     8
 71
     3
 72
    12
 73
     8
 74
     0
 42
0.0000000001
 43
0.0000000001
 40
0.0
 40
0.0
 40
0.0
 40
0.0
 40
0.3333333333333333
 40
0.3333333333333333
 40
0.3333333333333333
 40
0.3333333333333333
 40
1.0
 40
1.0
 40
1.0
 40
1.0
 10
22.5722
 20
-28.245
 30
0.0
 10
23.0461
 20
-28.245
 30
0.0
 10
23.4325
 20
-27.8585
 30
0.0
 10
23.4325
 20
-27.3847
 30
0.0
 10
23.4325
 20
-27.3847
 30
0.0
 10
23.4325
 20
-27.3847
 30
0.0
 10
23.4325
 20
-27.3847
 30
0.0
 10
23.4325
 20
-27.3847
 30
0.0
  0
SPLINE
  5
5A
330
1F
100
AcDbEntity
  8
VRSTVA_1
 62
     7
100
AcDbSpline
210
0.0
220
0.0
230
1.0
 70
     8
 71
     3
 72
    12
 73
     8
 74
     0
 42
0.0000000001
 43
0.0000000001
 40
0.0
 40
0.0
 40
0.0
 40
0.0
 40
0.3333333333333333
 40
0.3333333333333333
 40
0.3333333333333333
 40
0.3333333333333333
 40
1.0
 40
1.0
 40
1.0
 40
1.0
 10
23.4325
 20
-5.877
 30
0.0
 10
23.4325
 20
-5.4032
 30
0.0
 10
23.0461
 20
-5.0167
 30
0.0
 10
22.5722
 20
-5.0167
 30
0.0
 10
22.5722
 20
-5.0167
 30
0.0
 10
22.5722
 20
-5.0167
 30
0.0
 10
22.5722
 20
-5.0167
 30
0.0
 10
22.5722
 20
-5.0167
 30
0.0
  0
SPLINE
  5
5B
330
1F
100
AcDbEntity
  8
VRSTVA_1
100
AcDbSpline
210
0.0
220
0.0
230
1.0
 70
     8
 71
     3
 72
    12
 73
     8
 74
     0
 42
0.0000000001
 43
0.0000000001
 40
0.0
 40
0.0
 40
0.0
 40
0.0
 40
0.3333333333333333
 40
0.3333333333333333
 40
0.3333333333333333
 40
0.3333333333333333
 40
1.0
 40
1.0
 40
1.0
 40
1.0
 10
23.4325
 20
-5.877
 30
0.0
 10
23.4325
 20
-5.4032
 30
0.0
 10
23.0461
 20
-5.0167
 30
0.0
 10
22.5722
 20
-5.0167
 30
0.0
 10
22.5722
 20
-5.0167
 30
0.0
 10
22.5722
 20
-5.0167
 30
0.0
 10
22.5722
 20
-5.0167
 30
0.0
 10
22.5722
 20
-5.0167
 30
0.0
  0
SPLINE
  5
5C
330
1F
100
AcDbEntity
  8
VRSTVA_1
 62
     7
100
AcDbSpline
210
0.0
220
0.0
230
1.0
 70
     8
 71
     3
 72
    16
 73
    12
 74
     0
 42
0.0000000001
 43
0.0000000001
 40
0.0
 40
0.0
 40
0.0
 40
0.0
 40
0.25
 40
0.25
 40
0.25
 40
0.25
 40
0.5
 40
0.5
 40
0.5
 40
0.5
 40
1.0
 40
1.0
 40
1.0
 40
1.0
 10
21.7119
 20
-17.4911
 30
0.0
 10
22.1858
 20
-17.4911
 30
0.0
 10
22.5722
 20
-17.1047
 30
0.0
 10
22.5722
 20
-16.6308
 30
0.0
 10
22.5722
 20
-16.6308
 30
0.0
 10
22.5722
 20
-16.157
 30
0.0
 10
22.1858
 20
-15.7705
 30
0.0
 10
21.7119
 20
-15.7705
 30
0.0
 10
21.7119
 20
-15.7705
 30
0.0
 10
21.7119
 20
-15.7705
 30
0.0
 10
21.7119
 20
-15.7705
 30
0.0
 10
21.7119
 20
-15.7705
 30
0.0
  0
SPLINE
  5
5D
330
1F
100
AcDbEntity
  8
VRSTVA_1
100
AcDbSpline
210
0.0
220
0.0
230
1.0
 70
     8
 71
     3
 72
    16
 73
    12
 74
     0
 42
0.0000000001
 43
0.0000000001
 40
0.0
 40
0.0
 40
0.0
 40
0.0
 40
0.25
 40
0.25
 40
0.25
 40
0.25
 40
0.5
 40
0.5
 40
0.5
 40
0.5
 40
1.0
 40
1.0
 40
1.0
 40
1.0
 10
21.7119
 20
-17.4911
 30
0.0
 10
22.1858
 20
-17.4911
 30
0.0
 10
22.5722
 20
-17.1047
 30
0.0
 10
22.5722
 20
-16.6308
 30
0.0
 10
22.5722
 20
-16.6308
 30
0.0
 10
22.5722
 20
-16.157
 30
0.0
 10
22.1858
 20
-15.7705
 30
0.0
 10
21.7119
 20
-15.7705
 30
0.0
 10
21.7119
 20
-15.7705
 30
0.0
 10
21.7119
 20
-15.7705
 30
0.0
 10
21.7119
 20
-15.7705
 30
0.0
 10
21.7119
 20
-15.7705
 30
0.0
  0
SPLINE
  5
5E
330
1F
100
AcDbEntity
  8
VRSTVA_1
 62
     7
100
AcDbSpline
210
0.0
220
0.0
230
1.0
 70
     8
 71
     3
 72
     8
 73
     4
 74
     0
 42
0.0000000001
 43
0.0000000001
 40
0.0
 40
0.0
 40
0.0
 40
0.0
 40
1.0
 40
1.0
 40
1.0
 40
1.0
 10
-26.3716
 20
1.8657
 30
0.0
 10
-26.4758
 20
1.8657
 30
0.0
 10
-26.5657
 20
1.7901
 30
0.0
 10
-26.5833
 20
1.6876
 30
0.0
  0
SPLINE
  5
5F
330
1F
100
AcDbEntity
  8
VRSTVA_1
100
AcDbSpline
210
0.0
220
0.0
230
1.0
 70
     8
 71
     3
 72
     8
 73
     4
 74
     0
 42
0.0000000001
 43
0.0000000001
 40
0.0
 40
0.0
 40
0.0
 40
0.0
 40
1.0
 40
1.0
 40
1.0
 40
1.0
 10
-26.3716
 20
1.8657
 30
0.0
 10
-26.4758
 20
1.8657
 30
0.0
 10
-26.5657
 20
1.7901
 30
0.0
 10
-26.5833
 20
1.6876
 30
0.0
  0
SPLINE
  5
60
330
1F
100
AcDbEntity
  8
VRSTVA_1
 62
     7
100
AcDbSpline
210
0.0
220
0.0
230
1.0
 70
     8
 71
     3
 72
    12
 73
     8
 74
     0
 42
0.0000000001
 43
0.0000000001
 40
0.0
 40
0.0
 40
0.0
 40
0.0
 40
0.3333333333333333
 40
0.3333333333333333
 40
0.3333333333333333
 40
0.3333333333333333
 40
1.0
 40
1.0
 40
1.0
 40
1.0
 10
11.9365
 20
1.6876
 30
0.0
 10
11.9188
 20
1.7901
 30
0.0
 10
11.8289
 20
1.8657
 30
0.0
 10
11.7248
 20
1.8657
 30
0.0
 10
11.7248
 20
1.8657
 30
0.0
 10
11.7248
 20
1.8657
 30
0.0
 10
11.7248
 20
1.8657
 30
0.0
 10
11.7248
 20
1.8657
 30
0.0
  0
SPLINE
  5
61
330
1F
100
AcDbEntity
  8
VRSTVA_1
100
AcDbSpline
210
0.0
220
0.0
230
1.0
 70
     8
 71
     3
 72
    12
 73
     8
 74
     0
 42
0.0000000001
 43
0.0000000001
 40
0.0
 40
0.0
 40
0.0
 40
0.0
 40
0.3333333333333333
 40
0.3333333333333333
 40
0.3333333333333333
 40
0.3333333333333333
 40
1.0
 40
1.0
 40
1.0
 40
1.0
 10
11.9365
 20
1.6876
 30
0.0
 10
11.9188
 20
1.7901
 30
0.0
 10
11.8289
 20
1.8657
 30
0.0
 10
11.7248
 20
1.8657
 30
0.0
 10
11.7248
 20
1.8657
 30
0.0
 10
11.7248
 20
1.8657
 30
0.0
 10
11.7248
 20
1.8657
 30
0.0
 10
11.7248
 20
1.8657
 30
0.0
  0
SPLINE
  5
62
330
1F
100
AcDbEntity
  8
VRSTVA_1
 62
     7
100
AcDbSpline
210
0.0
220
0.0
230
1.0
 70
     8
 71
     3
 72
     8
 73
     4
 74
     0
 42
0.0000000001
 43
0.0000000001
 40
0.0
 40
0.0
 40
0.0
 40
0.0
 40
1.0
 40
1.0
 40
1.0
 40
1.0
 10
-27.7944
 20
-4.1565
 30
0.0
 10
-27.6903
 20
-4.1565
 30
0.0
 10
-27.6004
 20
-4.0809
 30
0.0
 10
-27.5827
 20
-3.9784
 30
0.0
  0
SPLINE
  5
63
330
1F
100
AcDbEntity
  8
VRSTVA_1
100
AcDbSpline
210
0.0
220
0.0
230
1.0
 70
     8
 71
     3
 72
     8
 73
     4
 74
     0
 42
0.0000000001
 43
0.0000000001
 40
0.0
 40
0.0
 40
0.0
 40
0.0
 40
1.0
 40
1.0
 40
1.0
 40
1.0
 10
-27.7944
 20
-4.1565
 30
0.0
 10
-27.6903
 20
-4.1565
 30
0.0
 10
-27.6004
 20
-4.0809
 30
0.0
 10
-27.5827
 20
-3.9784
 30
0.0
  0
SPLINE
  5
64
330
1F
100
AcDbEntity
  8
VRSTVA_1
 62
     7
100
AcDbSpline
210
0.0
220
0.0
230
1.0
 70
     8
 71
     3
 72
    12
 73
     8
 74
     0
 42
0.0000000001
 43
0.0000000001
 40
0.0
 40
0.0
 40
0.0
 40
0.0
 40
0.3333333333333333
 40
0.3333333333333333
 40
0.3333333333333333
 40
0.3333333333333333
 40
1.0
 40
1.0
 40
1.0
 40
1.0
 10
12.9359
 20
-3.9792
 30
0.0
 10
12.9535
 20
-4.0817
 30
0.0
 10
13.0434
 20
-4.1565
 30
0.0
 10
13.1476
 20
-4.1565
 30
0.0
 10
13.1476
 20
-4.1565
 30
0.0
 10
13.1476
 20
-4.1565
 30
0.0
 10
13.1476
 20
-4.1565
 30
0.0
 10
13.1476
 20
-4.1565
 30
0.0
  0
SPLINE
  5
65
330
1F
100
AcDbEntity
  8
VRSTVA_1
100
AcDbSpline
210
0.0
220
0.0
230
1.0
 70
     8
 71
     3
 72
    12
 73
     8
 74
     0
 42
0.0000000001
 43
0.0000000001
 40
0.0
 40
0.0
 40
0.0
 40
0.0
 40
0.3333333333333333
 40
0.3333333333333333
 40
0.3333333333333333
 40
0.3333333333333333
 40
1.0
 40
1.0
 40
1.0
 40
1.0
 10
12.9359
 20
-3.9792
 30
0.0
 10
12.9535
 20
-4.0817
 30
0.0
 10
13.0434
 20
-4.1565
 30
0.0
 10
13.1476
 20
-4.1565
 30
0.0
 10
13.1476
 20
-4.1565
 30
0.0
 10
13.1476
 20
-4.1565
 30
0.0
 10
13.1476
 20
-4.1565
 30
0.0
 10
13.1476
 20
-4.1565
 30
0.0
  0
SPLINE
  5
66
330
1F
100
AcDbEntity
  8
VRSTVA_1
 62
     7
100
AcDbSpline
210
0.0
220
0.0
230
1.0
 70
     8
 71
     3
 72
    12
 73
     8
 74
     0
 42
0.0000000001
 43
0.0000000001
 40
0.0
 40
0.0
 40
0.0
 40
0.0
 40
0.3333333333333333
 40
0.3333333333333333
 40
0.3333333333333333
 40
0.3333333333333333
 40
1.0
 40
1.0
 40
1.0
 40
1.0
 10
7.5169
 20
-29.1053
 30
0.0
 10
8.2276
 20
-29.1053
 30
0.0
 10
8.8073
 20
-28.5256
 30
0.0
 10
8.8073
 20
-27.8148
 30
0.0
 10
8.8073
 20
-27.8148
 30
0.0
 10
8.8073
 20
-27.8148
 30
0.0
 10
8.8073
 20
-27.8148
 30
0.0
 10
8.8073
 20
-27.8148
 30
0.0
  0
SPLINE
  5
67
330
1F
100
AcDbEntity
  8
VRSTVA_1
100
AcDbSpline
210
0.0
220
0.0
230
1.0
 70
     8
 71
     3
 72
    12
 73
     8
 74
     0
 42
0.0000000001
 43
0.0000000001
 40
0.0
 40
0.0
 40
0.0
 40
0.0
 40
0.3333333333333333
 40
0.3333333333333333
 40
0.3333333333333333
 40
0.3333333333333333
 40
1.0
 40
1.0
 40
1.0
 40
1.0
 10
7.5169
 20
-29.1053
 30
0.0
 10
8.2276
 20
-29.1053
 30
0.0
 10
8.8073
 20
-28.5256
 30
0.0
 10
8.8073
 20
-27.8148
 30
0.0
 10
8.8073
 20
-27.8148
 30
0.0
 10
8.8073
 20
-27.8148
 30
0.0
 10
8.8073
 20
-27.8148
 30
0.0
 10
8.8073
 20
-27.8148
 30
0.0
  0
SPLINE
  5
68
330
1F
100
AcDbEntity
  8
VRSTVA_1
 62
     7
100
AcDbSpline
210
0.0
220
0.0
230
1.0
 70
     8
 71
     3
 72
    12
 73
     8
 74
     0
 42
0.0000000001
 43
0.0000000001
 40
0.0
 40
0.0
 40
0.0
 40
0.0
 40
0.3333333333333333
 40
0.3333333333333333
 40
0.3333333333333333
 40
0.3333333333333333
 40
1.0
 40
1.0
 40
1.0
 40
1.0
 10
-23.4541
 20
-27.8148
 30
0.0
 10
-23.4541
 20
-28.5256
 30
0.0
 10
-22.8744
 20
-29.1053
 30
0.0
 10
-22.1637
 20
-29.1053
 30
0.0
 10
-22.1637
 20
-29.1053
 30
0.0
 10
-22.1637
 20
-29.1053
 30
0.0
 10
-22.1637
 20
-29.1053
 30
0.0
 10
-22.1637
 20
-29.1053
 30
0.0
  0
SPLINE
  5
69
330
1F
100
AcDbEntity
  8
VRSTVA_1
100
AcDbSpline
210
0.0
220
0.0
230
1.0
 70
     8
 71
     3
 72
    12
 73
     8
 74
     0
 42
0.0000000001
 43
0.0000000001
 40
0.0
 40
0.0
 40
0.0
 40
0.0
 40
0.3333333333333333
 40
0.3333333333333333
 40
0.3333333333333333
 40
0.3333333333333333
 40
1.0
 40
1.0
 40
1.0
 40
1.0
 10
-23.4541
 20
-27.8148
 30
0.0
 10
-23.4541
 20
-28.5256
 30
0.0
 10
-22.8744
 20
-29.1053
 30
0.0
 10
-22.1637
 20
-29.1053
 30
0.0
 10
-22.1637
 20
-29.1053
 30
0.0
 10
-22.1637
 20
-29.1053
 30
0.0
 10
-22.1637
 20
-29.1053
 30
0.0
 10
-22.1637
 20
-29.1053
 30
0.0
  0
SPLINE
  5
6A
330
1F
100
AcDbEntity
  8
VRSTVA_1
 62
     7
100
AcDbSpline
210
0.0
220
0.0
230
1.0
 70
     8
 71
     3
 72
    16
 73
    12
 74
     0
 42
0.0000000001
 43
0.0000000001
 40
0.0
 40
0.0
 40
0.0
 40
0.0
 40
0.25
 40
0.25
 40
0.25
 40
0.25
 40
0.5
 40
0.5
 40
0.5
 40
0.5
 40
1.0
 40
1.0
 40
1.0
 40
1.0
 10
9.3114
 20
-25.8551
 30
0.0
 10
9.2896
 20
-25.8518
 30
0.0
 10
9.261
 20
-25.8484
 30
0.0
 10
9.2375
 20
-25.8484
 30
0.0
 10
9.2375
 20
-25.8484
 30
0.0
 10
9.0006
 20
-25.8484
 30
0.0
 10
8.8073
 20
-26.0416
 30
0.0
 10
8.8073
 20
-26.2785
 30
0.0
 10
8.8073
 20
-26.2785
 30
0.0
 10
8.8073
 20
-26.2785
 30
0.0
 10
8.8073
 20
-26.2785
 30
0.0
 10
8.8073
 20
-26.2785
 30
0.0
  0
SPLINE
  5
6B
330
1F
100
AcDbEntity
  8
VRSTVA_1
100
AcDbSpline
210
0.0
220
0.0
230
1.0
 70
     8
 71
     3
 72
    16
 73
    12
 74
     0
 42
0.0000000001
 43
0.0000000001
 40
0.0
 40
0.0
 40
0.0
 40
0.0
 40
0.25
 40
0.25
 40
0.25
 40
0.25
 40
0.5
 40
0.5
 40
0.5
 40
0.5
 40
1.0
 40
1.0
 40
1.0
 40
1.0
 10
9.3114
 20
-25.8551
 30
0.0
 10
9.2896
 20
-25.8518
 30
0.0
 10
9.261
 20
-25.8484
 30
0.0
 10
9.2375
 20
-25.8484
 30
0.0
 10
9.2375
 20
-25.8484
 30
0.0
 10
9.0006
 20
-25.8484
 30
0.0
 10
8.8073
 20
-26.0416
 30
0.0
 10
8.8073
 20
-26.2785
 30
0.0
 10
8.8073
 20
-26.2785
 30
0.0
 10
8.8073
 20
-26.2785
 30
0.0
 10
8.8073
 20
-26.2785
 30
0.0
 10
8.8073
 20
-26.2785
 30
0.0
  0
SPLINE
  5
6C
330
1F
100
AcDbEntity
  8
VRSTVA_1
 62
     7
100
AcDbSpline
210
0.0
220
0.0
230
1.0
 70
     8
 71
     3
 72
    12
 73
     8
 74
     0
 42
0.0000000001
 43
0.0000000001
 40
0.0
 40
0.0
 40
0.0
 40
0.0
 40
0.3333333333333333
 40
0.3333333333333333
 40
0.3333333333333333
 40
0.3333333333333333
 40
1.0
 40
1.0
 40
1.0
 40
1.0
 10
-27.7557
 20
-6.3072
 30
0.0
 10
-27.7557
 20
-6.0703
 30
0.0
 10
-27.949
 20
-5.8771
 30
0.0
 10
-28.1859
 20
-5.8771
 30
0.0
 10
-28.1859
 20
-5.8771
 30
0.0
 10
-28.1859
 20
-5.8771
 30
0.0
 10
-28.1859
 20
-5.8771
 30
0.0
 10
-28.1859
 20
-5.8771
 30
0.0
  0
SPLINE
  5
6D
330
1F
100
AcDbEntity
  8
VRSTVA_1
100
AcDbSpline
210
0.0
220
0.0
230
1.0
 70
     8
 71
     3
 72
    12
 73
     8
 74
     0
 42
0.0000000001
 43
0.0000000001
 40
0.0
 40
0.0
 40
0.0
 40
0.0
 40
0.3333333333333333
 40
0.3333333333333333
 40
0.3333333333333333
 40
0.3333333333333333
 40
1.0
 40
1.0
 40
1.0
 40
1.0
 10
-27.7557
 20
-6.3072
 30
0.0
 10
-27.7557
 20
-6.0703
 30
0.0
 10
-27.949
 20
-5.8771
 30
0.0
 10
-28.1859
 20
-5.8771
 30
0.0
 10
-28.1859
 20
-5.8771
 30
0.0
 10
-28.1859
 20
-5.8771
 30
0.0
 10
-28.1859
 20
-5.8771
 30
0.0
 10
-28.1859
 20
-5.8771
 30
0.0
  0
SPLINE
  5
6E
330
1F
100
AcDbEntity
  8
VRSTVA_1
 62
     7
100
AcDbSpline
210
0.0
220
0.0
230
1.0
 70
     8
 71
     3
 72
    12
 73
     8
 74
     0
 42
0.0000000001
 43
0.0000000001
 40
0.0
 40
0.0
 40
0.0
 40
0.0
 40
0.3333333333333333
 40
0.3333333333333333
 40
0.3333333333333333
 40
0.3333333333333333
 40
1.0
 40
1.0
 40
1.0
 40
1.0
 10
13.539
 20
-5.8771
 30
0.0
 10
13.3021
 20
-5.8771
 30
0.0
 10
13.1088
 20
-6.0703
 30
0.0
 10
13.1088
 20
-6.3072
 30
0.0
 10
13.1088
 20
-6.3072
 30
0.0
 10
13.1088
 20
-6.3072
 30
0.0
 10
13.1088
 20
-6.3072
 30
0.0
 10
13.1088
 20
-6.3072
 30
0.0
  0
SPLINE
  5
6F
330
1F
100
AcDbEntity
  8
VRSTVA_1
100
AcDbSpline
210
0.0
220
0.0
230
1.0
 70
     8
 71
     3
 72
    12
 73
     8
 74
     0
 42
0.0000000001
 43
0.0000000001
 40
0.0
 40
0.0
 40
0.0
 40
0.0
 40
0.3333333333333333
 40
0.3333333333333333
 40
0.3333333333333333
 40
0.3333333333333333
 40
1.0
 40
1.0
 40
1.0
 40
1.0
 10
13.539
 20
-5.8771
 30
0.0
 10
13.3021
 20
-5.8771
 30
0.0
 10
13.1088
 20
-6.0703
 30
0.0
 10
13.1088
 20
-6.3072
 30
0.0
 10
13.1088
 20
-6.3072
 30
0.0
 10
13.1088
 20
-6.3072
 30
0.0
 10
13.1088
 20
-6.3072
 30
0.0
 10
13.1088
 20
-6.3072
 30
0.0
  0
SPLINE
  5
70
330
1F
100
AcDbEntity
  8
VRSTVA_1
 62
     7
100
AcDbSpline
210
0.0
220
0.0
230
1.0
 70
     8
 71
     3
 72
    12
 73
     8
 74
     0
 42
0.0000000001
 43
0.0000000001
 40
0.0
 40
0.0
 40
0.0
 40
0.0
 40
0.3333333333333333
 40
0.3333333333333333
 40
0.3333333333333333
 40
0.3333333333333333
 40
1.0
 40
1.0
 40
1.0
 40
1.0
 10
11.5966
 20
-26.2567
 30
0.0
 10
11.6621
 20
-26.2668
 30
0.0
 10
11.7478
 20
-26.2769
 30
0.0
 10
11.8184
 20
-26.2769
 30
0.0
 10
11.8184
 20
-26.2769
 30
0.0
 10
12.015
 20
-26.2769
 30
0.0
 10
12.2267
 20
-26.2265
 30
0.0
 10
12.3981
 20
-26.1408
 30
0.0
  0
SPLINE
  5
71
330
1F
100
AcDbEntity
  8
VRSTVA_1
100
AcDbSpline
210
0.0
220
0.0
230
1.0
 70
     8
 71
     3
 72
    12
 73
     8
 74
     0
 42
0.0000000001
 43
0.0000000001
 40
0.0
 40
0.0
 40
0.0
 40
0.0
 40
0.3333333333333333
 40
0.3333333333333333
 40
0.3333333333333333
 40
0.3333333333333333
 40
1.0
 40
1.0
 40
1.0
 40
1.0
 10
11.5966
 20
-26.2567
 30
0.0
 10
11.6621
 20
-26.2668
 30
0.0
 10
11.7478
 20
-26.2769
 30
0.0
 10
11.8184
 20
-26.2769
 30
0.0
 10
11.8184
 20
-26.2769
 30
0.0
 10
12.015
 20
-26.2769
 30
0.0
 10
12.2267
 20
-26.2265
 30
0.0
 10
12.3981
 20
-26.1408
 30
0.0
  0
SPLINE
  5
72
330
1F
100
AcDbEntity
  8
VRSTVA_1
 62
     7
100
AcDbSpline
210
0.0
220
0.0
230
1.0
 70
     8
 71
     3
 72
     8
 73
     4
 74
     0
 42
0.0000000001
 43
0.0000000001
 40
0.0
 40
0.0
 40
0.0
 40
0.0
 40
1.0
 40
1.0
 40
1.0
 40
1.0
 10
-27.7557
 20
-18.236
 30
0.0
 10
-27.7557
 20
-18.8611
 30
0.0
 10
-27.302
 20
-19.4004
 30
0.0
 10
-26.687
 20
-19.5063
 30
0.0
  0
SPLINE
  5
73
330
1F
100
AcDbEntity
  8
VRSTVA_1
100
AcDbSpline
210
0.0
220
0.0
230
1.0
 70
     8
 71
     3
 72
     8
 73
     4
 74
     0
 42
0.0000000001
 43
0.0000000001
 40
0.0
 40
0.0
 40
0.0
 40
0.0
 40
1.0
 40
1.0
 40
1.0
 40
1.0
 10
-27.7557
 20
-18.236
 30
0.0
 10
-27.7557
 20
-18.8611
 30
0.0
 10
-27.302
 20
-19.4004
 30
0.0
 10
-26.687
 20
-19.5063
 30
0.0
  0
SPLINE
  5
74
330
1F
100
AcDbEntity
  8
VRSTVA_1
100
AcDbSpline
210
0.0
220
0.0
230
1.0
 70
    24
 71
     3
 72
     8
 73
     4
 74
     0
 42
0.0000000001
 43
0.0000000001
 40
0.0
 40
0.0
 40
0.0
 40
0.0
 40
1.0
 40
1.0
 40
1.0
 40
1.0
 10
24.4123
 20
-24.2455
 30
0.0
 10
24.4123
 20
-24.2455
 30
0.0
 10
29.9049
 20
-24.2455
 30
0.0
 10
29.9049
 20
-24.2455
 30
0.0
  0
SPLINE
  5
75
330
1F
100
AcDbEntity
  8
VRSTVA_1
100
AcDbSpline
210
0.0
220
0.0
230
1.0
 70
    24
 71
     3
 72
     8
 73
     4
 74
     0
 42
0.0000000001
 43
0.0000000001
 40
0.0
 40
0.0
 40
0.0
 40
0.0
 40
1.0
 40
1.0
 40
1.0
 40
1.0
 10
24.4123
 20
-8.4244
 30
0.0
 10
24.4123
 20
-8.4244
 30
0.0
 10
29.7726
 20
-8.4244
 30
0.0
 10
29.7726
 20
-8.4244
 30
0.0
  0
SPLINE
  5
76
330
1F
100
AcDbEntity
  8
VRSTVA_1
  6
NEW_LINE1
100
AcDbSpline
210
0.0
220
0.0
230
1.0
 70
    24
 71
     3
 72
     8
 73
     4
 74
     0
 42
0.0000000001
 43
0.0000000001
 40
0.0
 40
0.0
 40
0.0
 40
0.0
 40
1.0
 40
1.0
 40
1.0
 40
1.0
 10
-16.031
 20
-16.6311
 30
0.0
 10
-16.031
 20
-16.6311
 30
0.0
 10
23.941
 20
-16.6311
 30
0.0
 10
23.941
 20
-16.6311
 30
0.0
  0
SPLINE
  5
78
330
1F
100
AcDbEntity
  8
VRSTVA_1
  6
NEW_LINE2
100
AcDbSpline
210
0.0
220
0.0
230
1.0
 70
    24
 71
     3
 72
     8
 73
     4
 74
     0
 42
0.0000000001
 43
0.0000000001
 40
0.0
 40
0.0
 40
0.0
 40
0.0
 40
1.0
 40
1.0
 40
1.0
 40
1.0
 10
-7.269
 20
-24.5718
 30
0.0
 10
-7.269
 20
-24.5718
 30
0.0
 10
-7.269
 20
12.0997
 30
0.0
 10
-7.269
 20
12.0997
 30
0.0
  0
SPLINE
  5
7A
330
1F
100
AcDbEntity
  8
VRSTVA_1
100
AcDbSpline
210
0.0
220
0.0
230
1.0
 70
    24
 71
     3
 72
     8
 73
     4
 74
     0
 42
0.0000000001
 43
0.0000000001
 40
0.0
 40
0.0
 40
0.0
 40
0.0
 40
1.0
 40
1.0
 40
1.0
 40
1.0
 10
-26.5835
 20
1.688
 30
0.0
 10
-26.5835
 20
1.688
 30
0.0
 10
-27.5827
 20
-3.9787
 30
0.0
 10
-27.5827
 20
-3.9787
 30
0.0
  0
SPLINE
  5
7B
330
1F
100
AcDbEntity
  8
VRSTVA_1
100
AcDbSpline
210
0.0
220
0.0
230
1.0
 70
    24
 71
     3
 72
     8
 73
     4
 74
     0
 42
0.0000000001
 43
0.0000000001
 40
0.0
 40
0.0
 40
0.0
 40
0.0
 40
1.0
 40
1.0
 40
1.0
 40
1.0
 10
-21.2556
 20
10.8546
 30
0.0
 10
-21.2556
 20
10.8546
 30
0.0
 10
-22.9066
 20
10.2537
 30
0.0
 10
-22.9066
 20
10.2537
 30
0.0
  0
SPLINE
  5
7C
330
1F
100
AcDbEntity
  8
VRSTVA_1
100
AcDbSpline
210
0.0
220
0.0
230
1.0
 70
    24
 71
     3
 72
     8
 73
     4
 74
     0
 42
0.0000000001
 43
0.0000000001
 40
0.0
 40
0.0
 40
0.0
 40
0.0
 40
1.0
 40
1.0
 40
1.0
 40
1.0
 10
-29.0462
 20
-4.1564
 30
0.0
 10
-29.0462
 20
-4.1564
 30
0.0
 10
-29.0462
 20
-5.877
 30
0.0
 10
-29.0462
 20
-5.877
 30
0.0
  0
SPLINE
  5
7D
330
1F
100
AcDbEntity
  8
VRSTVA_1
100
AcDbSpline
210
0.0
220
0.0
230
1.0
 70
    24
 71
     3
 72
     8
 73
     4
 74
     0
 42
0.0000000001
 43
0.0000000001
 40
0.0
 40
0.0
 40
0.0
 40
0.0
 40
1.0
 40
1.0
 40
1.0
 40
1.0
 10
-27.7558
 20
-6.3072
 30
0.0
 10
-27.7558
 20
-6.3072
 30
0.0
 10
-27.7558
 20
-18.2361
 30
0.0
 10
-27.7558
 20
-18.2361
 30
0.0
  0
SPLINE
  5
7E
330
1F
100
AcDbEntity
  8
VRSTVA_1
100
AcDbSpline
210
0.0
220
0.0
230
1.0
 70
    24
 71
     3
 72
     8
 73
     4
 74
     0
 42
0.0000000001
 43
0.0000000001
 40
0.0
 40
0.0
 40
0.0
 40
0.0
 40
1.0
 40
1.0
 40
1.0
 40
1.0
 10
-25.605
 20
3.1562
 30
0.0
 10
-25.605
 20
3.1562
 30
0.0
 10
-25.605
 20
1.8657
 30
0.0
 10
-25.605
 20
1.8657
 30
0.0
  0
SPLINE
  5
7F
330
1F
100
AcDbEntity
  8
VRSTVA_1
100
AcDbSpline
210
0.0
220
0.0
230
1.0
 70
    24
 71
     3
 72
     8
 73
     4
 74
     0
 42
0.0000000001
 43
0.0000000001
 40
0.0
 40
0.0
 40
0.0
 40
0.0
 40
1.0
 40
1.0
 40
1.0
 40
1.0
 10
-22.3255
 20
9.5518
 30
0.0
 10
-22.3255
 20
9.5518
 30
0.0
 10
-22.3255
 20
9.1216
 30
0.0
 10
-22.3255
 20
9.1216
 30
0.0
  0
SPLINE
  5
80
330
1F
100
AcDbEntity
  8
VRSTVA_1
100
AcDbSpline
210
0.0
220
0.0
230
1.0
 70
    24
 71
     3
 72
     8
 73
     4
 74
     0
 42
0.0000000001
 43
0.0000000001
 40
0.0
 40
0.0
 40
0.0
 40
0.0
 40
1.0
 40
1.0
 40
1.0
 40
1.0
 10
-23.4542
 20
-27.8149
 30
0.0
 10
-23.4542
 20
-27.8149
 30
0.0
 10
-23.4542
 20
-20.4383
 30
0.0
 10
-23.4542
 20
-20.4383
 30
0.0
  0
SPLINE
  5
81
330
1F
100
AcDbEntity
  8
VRSTVA_1
100
AcDbSpline
210
0.0
220
0.0
230
1.0
 70
    24
 71
     3
 72
     8
 73
     4
 74
     0
 42
0.0000000001
 43
0.0000000001
 40
0.0
 40
0.0
 40
0.0
 40
0.0
 40
1.0
 40
1.0
 40
1.0
 40
1.0
 10
-19.9176
 20
11.114
 30
0.0
 10
-19.9176
 20
11.114
 30
0.0
 10
4.9378
 20
11.114
 30
0.0
 10
4.9378
 20
11.114
 30
0.0
  0
SPLINE
  5
82
330
1F
100
AcDbEntity
  8
VRSTVA_1
100
AcDbSpline
210
0.0
220
0.0
230
1.0
 70
    24
 71
     3
 72
     8
 73
     4
 74
     0
 42
0.0000000001
 43
0.0000000001
 40
0.0
 40
0.0
 40
0.0
 40
0.0
 40
1.0
 40
1.0
 40
1.0
 40
1.0
 10
-22.6915
 20
10.0516
 30
0.0
 10
-22.6915
 20
10.0516
 30
0.0
 10
7.9915
 20
10.0516
 30
0.0
 10
7.9915
 20
10.0516
 30
0.0
  0
SPLINE
  5
83
330
1F
100
AcDbEntity
  8
VRSTVA_1
100
AcDbSpline
210
0.0
220
0.0
230
1.0
 70
    24
 71
     3
 72
     8
 73
     4
 74
     0
 42
0.0000000001
 43
0.0000000001
 40
0.0
 40
0.0
 40
0.0
 40
0.0
 40
1.0
 40
1.0
 40
1.0
 40
1.0
 10
-22.333
 20
9.6085
 30
0.0
 10
-22.333
 20
9.6085
 30
0.0
 10
7.5468
 20
9.6085
 30
0.0
 10
7.5468
 20
9.6085
 30
0.0
  0
SPLINE
  5
84
330
1F
100
AcDbEntity
  8
VRSTVA_1
100
AcDbSpline
210
0.0
220
0.0
230
1.0
 70
    24
 71
     3
 72
     8
 73
     4
 74
     0
 42
0.0000000001
 43
0.0000000001
 40
0.0
 40
0.0
 40
0.0
 40
0.0
 40
1.0
 40
1.0
 40
1.0
 40
1.0
 10
-22.333
 20
9.1783
 30
0.0
 10
-22.333
 20
9.1783
 30
0.0
 10
7.3986
 20
9.1783
 30
0.0
 10
7.3986
 20
9.1783
 30
0.0
  0
SPLINE
  5
85
330
1F
100
AcDbEntity
  8
VRSTVA_1
100
AcDbSpline
210
0.0
220
0.0
230
1.0
 70
    24
 71
     3
 72
     8
 73
     4
 74
     0
 42
0.0000000001
 43
0.0000000001
 40
0.0
 40
0.0
 40
0.0
 40
0.0
 40
1.0
 40
1.0
 40
1.0
 40
1.0
 10
-18.3891
 20
8.318
 30
0.0
 10
-18.3891
 20
8.318
 30
0.0
 10
3.663
 20
8.318
 30
0.0
 10
3.663
 20
8.318
 30
0.0
  0
SPLINE
  5
86
330
1F
100
AcDbEntity
  8
VRSTVA_1
100
AcDbSpline
210
0.0
220
0.0
230
1.0
 70
    24
 71
     3
 72
     8
 73
     4
 74
     0
 42
0.0000000001
 43
0.0000000001
 40
0.0
 40
0.0
 40
0.0
 40
0.0
 40
1.0
 40
1.0
 40
1.0
 40
1.0
 10
7.5336
 20
9.1783
 30
0.0
 10
7.5336
 20
9.1783
 30
0.0
 10
3.6622
 20
8.318
 30
0.0
 10
3.6622
 20
8.318
 30
0.0
  0
SPLINE
  5
87
330
1F
100
AcDbEntity
  8
VRSTVA_1
100
AcDbSpline
210
0.0
220
0.0
230
1.0
 70
    24
 71
     3
 72
     8
 73
     4
 74
     0
 42
0.0000000001
 43
0.0000000001
 40
0.0
 40
0.0
 40
0.0
 40
0.0
 40
1.0
 40
1.0
 40
1.0
 40
1.0
 10
-22.8877
 20
10.1213
 30
0.0
 10
-22.8877
 20
10.1213
 30
0.0
 10
-22.8142
 20
9.9192
 30
0.0
 10
-22.8142
 20
9.9192
 30
0.0
  0
SPLINE
  5
88
330
1F
100
AcDbEntity
  8
VRSTVA_1
100
AcDbSpline
210
0.0
220
0.0
230
1.0
 70
    24
 71
     3
 72
     8
 73
     4
 74
     0
 42
0.0000000001
 43
0.0000000001
 40
0.0
 40
0.0
 40
0.0
 40
0.0
 40
1.0
 40
1.0
 40
1.0
 40
1.0
 10
-17.432
 20
8.318
 30
0.0
 10
-17.432
 20
8.318
 30
0.0
 10
-17.432
 20
3.1562
 30
0.0
 10
-17.432
 20
3.1562
 30
0.0
  0
SPLINE
  5
89
330
1F
100
AcDbEntity
  8
VRSTVA_1
100
AcDbSpline
210
0.0
220
0.0
230
1.0
 70
    24
 71
     3
 72
     8
 73
     4
 74
     0
 42
0.0000000001
 43
0.0000000001
 40
0.0
 40
0.0
 40
0.0
 40
0.0
 40
1.0
 40
1.0
 40
1.0
 40
1.0
 10
4.148
 20
10.0516
 30
0.0
 10
4.148
 20
10.0516
 30
0.0
 10
3.3805
 20
9.6085
 30
0.0
 10
3.3805
 20
9.6085
 30
0.0
  0
SPLINE
  5
8A
330
1F
100
AcDbEntity
  8
VRSTVA_1
100
AcDbSpline
210
0.0
220
0.0
230
1.0
 70
    24
 71
     3
 72
     8
 73
     4
 74
     0
 42
0.0000000001
 43
0.0000000001
 40
0.0
 40
0.0
 40
0.0
 40
0.0
 40
1.0
 40
1.0
 40
1.0
 40
1.0
 10
-25.605
 20
3.1562
 30
0.0
 10
-25.605
 20
3.1562
 30
0.0
 10
10.9581
 20
3.1562
 30
0.0
 10
10.9581
 20
3.1562
 30
0.0
  0
SPLINE
  5
8B
330
1F
100
AcDbEntity
  8
VRSTVA_1
100
AcDbSpline
210
0.0
220
0.0
230
1.0
 70
    24
 71
     3
 72
     8
 73
     4
 74
     0
 42
0.0000000001
 43
0.0000000001
 40
0.0
 40
0.0
 40
0.0
 40
0.0
 40
1.0
 40
1.0
 40
1.0
 40
1.0
 10
-22.2123
 20
9.1783
 30
0.0
 10
-22.2123
 20
9.1783
 30
0.0
 10
-18.3409
 20
8.318
 30
0.0
 10
-18.3409
 20
8.318
 30
0.0
  0
SPLINE
  5
8C
330
1F
100
AcDbEntity
  8
VRSTVA_1
100
AcDbSpline
210
0.0
220
0.0
230
1.0
 70
    24
 71
     3
 72
     8
 73
     4
 74
     0
 42
0.0000000001
 43
0.0000000001
 40
0.0
 40
0.0
 40
0.0
 40
0.0
 40
1.0
 40
1.0
 40
1.0
 40
1.0
 10
11.7247
 20
1.8657
 30
0.0
 10
11.7247
 20
1.8657
 30
0.0
 10
-26.3717
 20
1.8657
 30
0.0
 10
-26.3717
 20
1.8657
 30
0.0
  0
SPLINE
  5
8D
330
1F
100
AcDbEntity
  8
VRSTVA_1
100
AcDbSpline
210
0.0
220
0.0
230
1.0
 70
    24
 71
     3
 72
     8
 73
     4
 74
     0
 42
0.0000000001
 43
0.0000000001
 40
0.0
 40
0.0
 40
0.0
 40
0.0
 40
1.0
 40
1.0
 40
1.0
 40
1.0
 10
11.9366
 20
1.688
 30
0.0
 10
11.9366
 20
1.688
 30
0.0
 10
-26.5835
 20
1.688
 30
0.0
 10
-26.5835
 20
1.688
 30
0.0
  0
SPLINE
  5
8E
330
1F
100
AcDbEntity
  8
VRSTVA_1
100
AcDbSpline
210
0.0
220
0.0
230
1.0
 70
    24
 71
     3
 72
     8
 73
     4
 74
     0
 42
0.0000000001
 43
0.0000000001
 40
0.0
 40
0.0
 40
0.0
 40
0.0
 40
1.0
 40
1.0
 40
1.0
 40
1.0
 10
-27.5827
 20
-3.9787
 30
0.0
 10
-27.5827
 20
-3.9787
 30
0.0
 10
12.9358
 20
-3.9787
 30
0.0
 10
12.9358
 20
-3.9787
 30
0.0
  0
SPLINE
  5
8F
330
1F
100
AcDbEntity
  8
VRSTVA_1
100
AcDbSpline
210
0.0
220
0.0
230
1.0
 70
    24
 71
     3
 72
     8
 73
     4
 74
     0
 42
0.0000000001
 43
0.0000000001
 40
0.0
 40
0.0
 40
0.0
 40
0.0
 40
1.0
 40
1.0
 40
1.0
 40
1.0
 10
-29.0462
 20
-4.1564
 30
0.0
 10
-29.0462
 20
-4.1564
 30
0.0
 10
14.3993
 20
-4.1564
 30
0.0
 10
14.3993
 20
-4.1564
 30
0.0
  0
SPLINE
  5
90
330
1F
100
AcDbEntity
  8
VRSTVA_1
100
AcDbSpline
210
0.0
220
0.0
230
1.0
 70
    24
 71
     3
 72
     8
 73
     4
 74
     0
 42
0.0000000001
 43
0.0000000001
 40
0.0
 40
0.0
 40
0.0
 40
0.0
 40
1.0
 40
1.0
 40
1.0
 40
1.0
 10
22.5722
 20
-4.8017
 30
0.0
 10
22.5722
 20
-4.8017
 30
0.0
 10
17.4104
 20
-4.8017
 30
0.0
 10
17.4104
 20
-4.8017
 30
0.0
  0
SPLINE
  5
91
330
1F
100
AcDbEntity
  8
VRSTVA_1
100
AcDbSpline
210
0.0
220
0.0
230
1.0
 70
    24
 71
     3
 72
     8
 73
     4
 74
     0
 42
0.0000000001
 43
0.0000000001
 40
0.0
 40
0.0
 40
0.0
 40
0.0
 40
1.0
 40
1.0
 40
1.0
 40
1.0
 10
18.7009
 20
-4.833
 30
0.0
 10
18.7009
 20
-4.833
 30
0.0
 10
21.712
 20
-4.833
 30
0.0
 10
21.712
 20
-4.833
 30
0.0
  0
SPLINE
  5
92
330
1F
100
AcDbEntity
  8
VRSTVA_1
100
AcDbSpline
210
0.0
220
0.0
230
1.0
 70
    27
 71
     3
 72
     8
 73
     4
 74
     0
 42
0.0000000001
 43
0.0000000001
 40
0.0
 40
0.0
 40
0.0
 40
0.0
 40
1.0
 40
1.0
 40
1.0
 40
1.0
 10
22.5722
 20
-5.0167
 30
0.0
 10
22.5722
 20
-5.0167
 30
0.0
 10
22.5722
 20
-5.0167
 30
0.0
 10
22.5722
 20
-5.0167
 30
0.0
  0
SPLINE
  5
93
330
1F
100
AcDbEntity
  8
VRSTVA_1
100
AcDbSpline
210
0.0
220
0.0
230
1.0
 70
    24
 71
     3
 72
     8
 73
     4
 74
     0
 42
0.0000000001
 43
0.0000000001
 40
0.0
 40
0.0
 40
0.0
 40
0.0
 40
1.0
 40
1.0
 40
1.0
 40
1.0
 10
-29.0462
 20
-5.0167
 30
0.0
 10
-29.0462
 20
-5.0167
 30
0.0
 10
14.3993
 20
-5.0167
 30
0.0
 10
14.3993
 20
-5.0167
 30
0.0
  0
SPLINE
  5
94
330
1F
100
AcDbEntity
  8
VRSTVA_1
100
AcDbSpline
210
0.0
220
0.0
230
1.0
 70
    24
 71
     3
 72
     8
 73
     4
 74
     0
 42
0.0000000001
 43
0.0000000001
 40
0.0
 40
0.0
 40
0.0
 40
0.0
 40
1.0
 40
1.0
 40
1.0
 40
1.0
 10
21.712
 20
-5.0486
 30
0.0
 10
21.712
 20
-5.0486
 30
0.0
 10
18.7009
 20
-5.0486
 30
0.0
 10
18.7009
 20
-5.0486
 30
0.0
  0
SPLINE
  5
95
330
1F
100
AcDbEntity
  8
VRSTVA_1
100
AcDbSpline
210
0.0
220
0.0
230
1.0
 70
    24
 71
     3
 72
     8
 73
     4
 74
     0
 42
0.0000000001
 43
0.0000000001
 40
0.0
 40
0.0
 40
0.0
 40
0.0
 40
1.0
 40
1.0
 40
1.0
 40
1.0
 10
-29.0462
 20
-5.877
 30
0.0
 10
-29.0462
 20
-5.877
 30
0.0
 10
14.3993
 20
-5.877
 30
0.0
 10
14.3993
 20
-5.877
 30
0.0
  0
SPLINE
  5
96
330
1F
100
AcDbEntity
  8
VRSTVA_1
100
AcDbSpline
210
0.0
220
0.0
230
1.0
 70
    24
 71
     3
 72
     8
 73
     4
 74
     0
 42
0.0000000001
 43
0.0000000001
 40
0.0
 40
0.0
 40
0.0
 40
0.0
 40
1.0
 40
1.0
 40
1.0
 40
1.0
 10
15.2596
 20
-6.3072
 30
0.0
 10
15.2596
 20
-6.3072
 30
0.0
 10
17.4104
 20
-6.3072
 30
0.0
 10
17.4104
 20
-6.3072
 30
0.0
  0
SPLINE
  5
97
330
1F
100
AcDbEntity
  8
VRSTVA_1
100
AcDbSpline
210
0.0
220
0.0
230
1.0
 70
    24
 71
     3
 72
     8
 73
     4
 74
     0
 42
0.0000000001
 43
0.0000000001
 40
0.0
 40
0.0
 40
0.0
 40
0.0
 40
1.0
 40
1.0
 40
1.0
 40
1.0
 10
-27.7558
 20
-6.3072
 30
0.0
 10
-27.7558
 20
-6.3072
 30
0.0
 10
13.1089
 20
-6.3072
 30
0.0
 10
13.1089
 20
-6.3072
 30
0.0
  0
SPLINE
  5
98
330
1F
100
AcDbEntity
  8
VRSTVA_1
100
AcDbSpline
210
0.0
220
0.0
230
1.0
 70
    24
 71
     3
 72
     8
 73
     4
 74
     0
 42
0.0000000001
 43
0.0000000001
 40
0.0
 40
0.0
 40
0.0
 40
0.0
 40
1.0
 40
1.0
 40
1.0
 40
1.0
 10
17.4104
 20
-7.1675
 30
0.0
 10
17.4104
 20
-7.1675
 30
0.0
 10
15.2596
 20
-7.1675
 30
0.0
 10
15.2596
 20
-7.1675
 30
0.0
  0
SPLINE
  5
99
330
1F
100
AcDbEntity
  8
VRSTVA_1
100
AcDbSpline
210
0.0
220
0.0
230
1.0
 70
    24
 71
     3
 72
     8
 73
     4
 74
     0
 42
0.0000000001
 43
0.0000000001
 40
0.0
 40
0.0
 40
0.0
 40
0.0
 40
1.0
 40
1.0
 40
1.0
 40
1.0
 10
13.539
 20
-7.1675
 30
0.0
 10
13.539
 20
-7.1675
 30
0.0
 10
15.2596
 20
-7.1675
 30
0.0
 10
15.2596
 20
-7.1675
 30
0.0
  0
SPLINE
  5
9A
330
1F
100
AcDbEntity
  8
VRSTVA_1
100
AcDbSpline
210
0.0
220
0.0
230
1.0
 70
    24
 71
     3
 72
     8
 73
     4
 74
     0
 42
0.0000000001
 43
0.0000000001
 40
0.0
 40
0.0
 40
0.0
 40
0.0
 40
1.0
 40
1.0
 40
1.0
 40
1.0
 10
18.7009
 20
-7.6802
 30
0.0
 10
18.7009
 20
-7.6802
 30
0.0
 10
21.712
 20
-7.6802
 30
0.0
 10
21.712
 20
-7.6802
 30
0.0
  0
SPLINE
  5
9B
330
1F
100
AcDbEntity
  8
VRSTVA_1
100
AcDbSpline
210
0.0
220
0.0
230
1.0
 70
    24
 71
     3
 72
     8
 73
     4
 74
     0
 42
0.0000000001
 43
0.0000000001
 40
0.0
 40
0.0
 40
0.0
 40
0.0
 40
1.0
 40
1.0
 40
1.0
 40
1.0
 10
18.7009
 20
-8.8968
 30
0.0
 10
18.7009
 20
-8.8968
 30
0.0
 10
21.712
 20
-8.8968
 30
0.0
 10
21.712
 20
-8.8968
 30
0.0
  0
SPLINE
  5
9C
330
1F
100
AcDbEntity
  8
VRSTVA_1
100
AcDbSpline
210
0.0
220
0.0
230
1.0
 70
    24
 71
     3
 72
     8
 73
     4
 74
     0
 42
0.0000000001
 43
0.0000000001
 40
0.0
 40
0.0
 40
0.0
 40
0.0
 40
1.0
 40
1.0
 40
1.0
 40
1.0
 10
21.712
 20
-9.0493
 30
0.0
 10
21.712
 20
-9.0493
 30
0.0
 10
18.7009
 20
-9.0493
 30
0.0
 10
18.7009
 20
-9.0493
 30
0.0
  0
SPLINE
  5
9D
330
1F
100
AcDbEntity
  8
VRSTVA_1
100
AcDbSpline
210
0.0
220
0.0
230
1.0
 70
    24
 71
     3
 72
     8
 73
     4
 74
     0
 42
0.0000000001
 43
0.0000000001
 40
0.0
 40
0.0
 40
0.0
 40
0.0
 40
1.0
 40
1.0
 40
1.0
 40
1.0
 10
2.7852
 20
8.318
 30
0.0
 10
2.7852
 20
8.318
 30
0.0
 10
2.7852
 20
3.1562
 30
0.0
 10
2.7852
 20
3.1562
 30
0.0
  0
SPLINE
  5
9E
330
1F
100
AcDbEntity
  8
VRSTVA_1
100
AcDbSpline
210
0.0
220
0.0
230
1.0
 70
    24
 71
     3
 72
     8
 73
     4
 74
     0
 42
0.0000000001
 43
0.0000000001
 40
0.0
 40
0.0
 40
0.0
 40
0.0
 40
1.0
 40
1.0
 40
1.0
 40
1.0
 10
8.0823
 20
10.2241
 30
0.0
 10
8.0823
 20
10.2241
 30
0.0
 10
8.0088
 20
10.022
 30
0.0
 10
8.0088
 20
10.022
 30
0.0
  0
SPLINE
  5
9F
330
1F
100
AcDbEntity
  8
VRSTVA_1
100
AcDbSpline
210
0.0
220
0.0
230
1.0
 70
    24
 71
     3
 72
     8
 73
     4
 74
     0
 42
0.0000000001
 43
0.0000000001
 40
0.0
 40
0.0
 40
0.0
 40
0.0
 40
1.0
 40
1.0
 40
1.0
 40
1.0
 10
18.7009
 20
-15.7706
 30
0.0
 10
18.7009
 20
-15.7706
 30
0.0
 10
21.712
 20
-15.7706
 30
0.0
 10
21.712
 20
-15.7706
 30
0.0
  0
SPLINE
  5
A0
330
1F
100
AcDbEntity
  8
VRSTVA_1
100
AcDbSpline
210
0.0
220
0.0
230
1.0
 70
    24
 71
     3
 72
     8
 73
     4
 74
     0
 42
0.0000000001
 43
0.0000000001
 40
0.0
 40
0.0
 40
0.0
 40
0.0
 40
1.0
 40
1.0
 40
1.0
 40
1.0
 10
18.7009
 20
-17.4912
 30
0.0
 10
18.7009
 20
-17.4912
 30
0.0
 10
21.712
 20
-17.4912
 30
0.0
 10
21.712
 20
-17.4912
 30
0.0
  0
SPLINE
  5
A1
330
1F
100
AcDbEntity
  8
VRSTVA_1
100
AcDbSpline
210
0.0
220
0.0
230
1.0
 70
    24
 71
     3
 72
     8
 73
     4
 74
     0
 42
0.0000000001
 43
0.0000000001
 40
0.0
 40
0.0
 40
0.0
 40
0.0
 40
1.0
 40
1.0
 40
1.0
 40
1.0
 10
-18.7949
 20
10.0516
 30
0.0
 10
-18.7949
 20
10.0516
 30
0.0
 10
-18.0273
 20
9.6085
 30
0.0
 10
-18.0273
 20
9.6085
 30
0.0
  0
SPLINE
  5
A2
330
1F
100
AcDbEntity
  8
VRSTVA_1
100
AcDbSpline
210
0.0
220
0.0
230
1.0
 70
    24
 71
     3
 72
     8
 73
     4
 74
     0
 42
0.0000000001
 43
0.0000000001
 40
0.0
 40
0.0
 40
0.0
 40
0.0
 40
1.0
 40
1.0
 40
1.0
 40
1.0
 10
8.8073
 20
-27.8149
 30
0.0
 10
8.8073
 20
-27.8149
 30
0.0
 10
8.8073
 20
-26.2786
 30
0.0
 10
8.8073
 20
-26.2786
 30
0.0
  0
SPLINE
  5
A3
330
1F
100
AcDbEntity
  8
VRSTVA_1
100
AcDbSpline
210
0.0
220
0.0
230
1.0
 70
    24
 71
     3
 72
     8
 73
     4
 74
     0
 42
0.0000000001
 43
0.0000000001
 40
0.0
 40
0.0
 40
0.0
 40
0.0
 40
1.0
 40
1.0
 40
1.0
 40
1.0
 10
-27.7558
 20
-18.2361
 30
0.0
 10
-27.7558
 20
-18.2361
 30
0.0
 10
12.3914
 20
-24.868
 30
0.0
 10
12.3914
 20
-24.868
 30
0.0
  0
SPLINE
  5
A4
330
1F
100
AcDbEntity
  8
VRSTVA_1
100
AcDbSpline
210
0.0
220
0.0
230
1.0
 70
    24
 71
     3
 72
     8
 73
     4
 74
     0
 42
0.0000000001
 43
0.0000000001
 40
0.0
 40
0.0
 40
0.0
 40
0.0
 40
1.0
 40
1.0
 40
1.0
 40
1.0
 10
-26.6894
 20
-19.5069
 30
0.0
 10
-26.6894
 20
-19.5069
 30
0.0
 10
11.5943
 20
-26.2574
 30
0.0
 10
11.5943
 20
-26.2574
 30
0.0
  0
SPLINE
  5
A5
330
1F
100
AcDbEntity
  8
VRSTVA_1
100
AcDbSpline
210
0.0
220
0.0
230
1.0
 70
    24
 71
     3
 72
     8
 73
     4
 74
     0
 42
0.0000000001
 43
0.0000000001
 40
0.0
 40
0.0
 40
0.0
 40
0.0
 40
1.0
 40
1.0
 40
1.0
 40
1.0
 10
-23.4542
 20
-20.4383
 30
0.0
 10
-23.4542
 20
-20.4383
 30
0.0
 10
8.8073
 20
-26.2786
 30
0.0
 10
8.8073
 20
-26.2786
 30
0.0
  0
SPLINE
  5
A6
330
1F
100
AcDbEntity
  8
VRSTVA_1
100
AcDbSpline
210
0.0
220
0.0
230
1.0
 70
    24
 71
     3
 72
     8
 73
     4
 74
     0
 42
0.0000000001
 43
0.0000000001
 40
0.0
 40
0.0
 40
0.0
 40
0.0
 40
1.0
 40
1.0
 40
1.0
 40
1.0
 10
7.5336
 20
9.6381
 30
0.0
 10
7.5336
 20
9.6381
 30
0.0
 10
7.5336
 20
9.208
 30
0.0
 10
7.5336
 20
9.208
 30
0.0
  0
SPLINE
  5
A7
330
1F
100
AcDbEntity
  8
VRSTVA_1
100
AcDbSpline
210
0.0
220
0.0
230
1.0
 70
    24
 71
     3
 72
     8
 73
     4
 74
     0
 42
0.0000000001
 43
0.0000000001
 40
0.0
 40
0.0
 40
0.0
 40
0.0
 40
1.0
 40
1.0
 40
1.0
 40
1.0
 10
10.9581
 20
3.1562
 30
0.0
 10
10.9581
 20
3.1562
 30
0.0
 10
10.9581
 20
1.8657
 30
0.0
 10
10.9581
 20
1.8657
 30
0.0
  0
SPLINE
  5
A8
330
1F
100
AcDbEntity
  8
VRSTVA_1
100
AcDbSpline
210
0.0
220
0.0
230
1.0
 70
    24
 71
     3
 72
     8
 73
     4
 74
     0
 42
0.0000000001
 43
0.0000000001
 40
0.0
 40
0.0
 40
0.0
 40
0.0
 40
1.0
 40
1.0
 40
1.0
 40
1.0
 10
21.712
 20
-24.2124
 30
0.0
 10
21.712
 20
-24.2124
 30
0.0
 10
18.7009
 20
-24.2124
 30
0.0
 10
18.7009
 20
-24.2124
 30
0.0
  0
SPLINE
  5
A9
330
1F
100
AcDbEntity
  8
VRSTVA_1
100
AcDbSpline
210
0.0
220
0.0
230
1.0
 70
    24
 71
     3
 72
     8
 73
     4
 74
     0
 42
0.0000000001
 43
0.0000000001
 40
0.0
 40
0.0
 40
0.0
 40
0.0
 40
1.0
 40
1.0
 40
1.0
 40
1.0
 10
18.7009
 20
-24.3649
 30
0.0
 10
18.7009
 20
-24.3649
 30
0.0
 10
21.712
 20
-24.3649
 30
0.0
 10
21.712
 20
-24.3649
 30
0.0
  0
SPLINE
  5
AA
330
1F
100
AcDbEntity
  8
VRSTVA_1
100
AcDbSpline
210
0.0
220
0.0
230
1.0
 70
    24
 71
     3
 72
     8
 73
     4
 74
     0
 42
0.0000000001
 43
0.0000000001
 40
0.0
 40
0.0
 40
0.0
 40
0.0
 40
1.0
 40
1.0
 40
1.0
 40
1.0
 10
18.7009
 20
-25.5816
 30
0.0
 10
18.7009
 20
-25.5816
 30
0.0
 10
21.712
 20
-25.5816
 30
0.0
 10
21.712
 20
-25.5816
 30
0.0
  0
SPLINE
  5
AB
330
1F
100
AcDbEntity
  8
VRSTVA_1
100
AcDbSpline
210
0.0
220
0.0
230
1.0
 70
    24
 71
     3
 72
     8
 73
     4
 74
     0
 42
0.0000000001
 43
0.0000000001
 40
0.0
 40
0.0
 40
0.0
 40
0.0
 40
1.0
 40
1.0
 40
1.0
 40
1.0
 10
17.4104
 20
-26.0942
 30
0.0
 10
17.4104
 20
-26.0942
 30
0.0
 10
15.2596
 20
-26.0942
 30
0.0
 10
15.2596
 20
-26.0942
 30
0.0
  0
SPLINE
  5
AC
330
1F
100
AcDbEntity
  8
VRSTVA_1
100
AcDbSpline
210
0.0
220
0.0
230
1.0
 70
    24
 71
     3
 72
     8
 73
     4
 74
     0
 42
0.0000000001
 43
0.0000000001
 40
0.0
 40
0.0
 40
0.0
 40
0.0
 40
1.0
 40
1.0
 40
1.0
 40
1.0
 10
12.59
 20
-26.0942
 30
0.0
 10
12.59
 20
-26.0942
 30
0.0
 10
15.2596
 20
-26.0942
 30
0.0
 10
15.2596
 20
-26.0942
 30
0.0
  0
SPLINE
  5
AD
330
1F
100
AcDbEntity
  8
VRSTVA_1
100
AcDbSpline
210
0.0
220
0.0
230
1.0
 70
    24
 71
     3
 72
     8
 73
     4
 74
     0
 42
0.0000000001
 43
0.0000000001
 40
0.0
 40
0.0
 40
0.0
 40
0.0
 40
1.0
 40
1.0
 40
1.0
 40
1.0
 10
11.9366
 20
1.688
 30
0.0
 10
11.9366
 20
1.688
 30
0.0
 10
12.9358
 20
-3.9787
 30
0.0
 10
12.9358
 20
-3.9787
 30
0.0
  0
SPLINE
  5
AE
330
1F
100
AcDbEntity
  8
VRSTVA_1
100
AcDbSpline
210
0.0
220
0.0
230
1.0
 70
    24
 71
     3
 72
     8
 73
     4
 74
     0
 42
0.0000000001
 43
0.0000000001
 40
0.0
 40
0.0
 40
0.0
 40
0.0
 40
1.0
 40
1.0
 40
1.0
 40
1.0
 10
13.1089
 20
-6.3072
 30
0.0
 10
13.1089
 20
-6.3072
 30
0.0
 10
13.1089
 20
-6.7374
 30
0.0
 10
13.1089
 20
-6.7374
 30
0.0
  0
SPLINE
  5
AF
330
1F
100
AcDbEntity
  8
VRSTVA_1
100
AcDbSpline
210
0.0
220
0.0
230
1.0
 70
    24
 71
     3
 72
     8
 73
     4
 74
     0
 42
0.0000000001
 43
0.0000000001
 40
0.0
 40
0.0
 40
0.0
 40
0.0
 40
1.0
 40
1.0
 40
1.0
 40
1.0
 10
14.3993
 20
-4.1564
 30
0.0
 10
14.3993
 20
-4.1564
 30
0.0
 10
14.3993
 20
-5.877
 30
0.0
 10
14.3993
 20
-5.877
 30
0.0
  0
SPLINE
  5
B0
330
1F
100
AcDbEntity
  8
VRSTVA_1
100
AcDbSpline
210
0.0
220
0.0
230
1.0
 70
    24
 71
     3
 72
     8
 73
     4
 74
     0
 42
0.0000000001
 43
0.0000000001
 40
0.0
 40
0.0
 40
0.0
 40
0.0
 40
1.0
 40
1.0
 40
1.0
 40
1.0
 10
15.2596
 20
-26.9546
 30
0.0
 10
15.2596
 20
-26.9546
 30
0.0
 10
17.4104
 20
-26.9546
 30
0.0
 10
17.4104
 20
-26.9546
 30
0.0
  0
SPLINE
  5
B1
330
1F
100
AcDbEntity
  8
VRSTVA_1
100
AcDbSpline
210
0.0
220
0.0
230
1.0
 70
    24
 71
     3
 72
     8
 73
     4
 74
     0
 42
0.0000000001
 43
0.0000000001
 40
0.0
 40
0.0
 40
0.0
 40
0.0
 40
1.0
 40
1.0
 40
1.0
 40
1.0
 10
-23.4542
 20
-27.8149
 30
0.0
 10
-23.4542
 20
-27.8149
 30
0.0
 10
8.8073
 20
-27.8149
 30
0.0
 10
8.8073
 20
-27.8149
 30
0.0
  0
SPLINE
  5
B2
330
1F
100
AcDbEntity
  8
VRSTVA_1
100
AcDbSpline
210
0.0
220
0.0
230
1.0
 70
    24
 71
     3
 72
     8
 73
     4
 74
     0
 42
0.0000000001
 43
0.0000000001
 40
0.0
 40
0.0
 40
0.0
 40
0.0
 40
1.0
 40
1.0
 40
1.0
 40
1.0
 10
21.712
 20
-28.2131
 30
0.0
 10
21.712
 20
-28.2131
 30
0.0
 10
18.7009
 20
-28.2131
 30
0.0
 10
18.7009
 20
-28.2131
 30
0.0
  0
SPLINE
  5
B3
330
1F
100
AcDbEntity
  8
VRSTVA_1
100
AcDbSpline
210
0.0
220
0.0
230
1.0
 70
    27
 71
     3
 72
     8
 73
     4
 74
     0
 42
0.0000000001
 43
0.0000000001
 40
0.0
 40
0.0
 40
0.0
 40
0.0
 40
1.0
 40
1.0
 40
1.0
 40
1.0
 10
22.5722
 20
-28.245
 30
0.0
 10
22.5722
 20
-28.245
 30
0.0
 10
22.5722
 20
-28.245
 30
0.0
 10
22.5722
 20
-28.245
 30
0.0
  0
SPLINE
  5
B4
330
1F
100
AcDbEntity
  8
VRSTVA_1
100
AcDbSpline
210
0.0
220
0.0
230
1.0
 70
    24
 71
     3
 72
     8
 73
     4
 74
     0
 42
0.0000000001
 43
0.0000000001
 40
0.0
 40
0.0
 40
0.0
 40
0.0
 40
1.0
 40
1.0
 40
1.0
 40
1.0
 10
18.7009
 20
-28.4288
 30
0.0
 10
18.7009
 20
-28.4288
 30
0.0
 10
21.712
 20
-28.4288
 30
0.0
 10
21.712
 20
-28.4288
 30
0.0
  0
SPLINE
  5
B5
330
1F
100
AcDbEntity
  8
VRSTVA_1
100
AcDbSpline
210
0.0
220
0.0
230
1.0
 70
    24
 71
     3
 72
     8
 73
     4
 74
     0
 42
0.0000000001
 43
0.0000000001
 40
0.0
 40
0.0
 40
0.0
 40
0.0
 40
1.0
 40
1.0
 40
1.0
 40
1.0
 10
22.5722
 20
-28.4601
 30
0.0
 10
22.5722
 20
-28.4601
 30
0.0
 10
17.4104
 20
-28.4601
 30
0.0
 10
17.4104
 20
-28.4601
 30
0.0
  0
SPLINE
  5
B6
330
1F
100
AcDbEntity
  8
VRSTVA_1
100
AcDbSpline
210
0.0
220
0.0
230
1.0
 70
    24
 71
     3
 72
     8
 73
     4
 74
     0
 42
0.0000000001
 43
0.0000000001
 40
0.0
 40
0.0
 40
0.0
 40
0.0
 40
1.0
 40
1.0
 40
1.0
 40
1.0
 10
15.2596
 20
-26.9546
 30
0.0
 10
15.2596
 20
-26.9546
 30
0.0
 10
15.2596
 20
-6.3072
 30
0.0
 10
15.2596
 20
-6.3072
 30
0.0
  0
SPLINE
  5
B7
330
1F
100
AcDbEntity
  8
VRSTVA_1
100
AcDbSpline
210
0.0
220
0.0
230
1.0
 70
    24
 71
     3
 72
     8
 73
     4
 74
     0
 42
0.0000000001
 43
0.0000000001
 40
0.0
 40
0.0
 40
0.0
 40
0.0
 40
1.0
 40
1.0
 40
1.0
 40
1.0
 10
-22.1637
 20
-29.1053
 30
0.0
 10
-22.1637
 20
-29.1053
 30
0.0
 10
7.5169
 20
-29.1053
 30
0.0
 10
7.5169
 20
-29.1053
 30
0.0
  0
SPLINE
  5
B8
330
1F
100
AcDbEntity
  8
VRSTVA_1
100
AcDbSpline
210
0.0
220
0.0
230
1.0
 70
    24
 71
     3
 72
     8
 73
     4
 74
     0
 42
0.0000000001
 43
0.0000000001
 40
0.0
 40
0.0
 40
0.0
 40
0.0
 40
1.0
 40
1.0
 40
1.0
 40
1.0
 10
17.4104
 20
-28.4601
 30
0.0
 10
17.4104
 20
-28.4601
 30
0.0
 10
17.4104
 20
-4.8017
 30
0.0
 10
17.4104
 20
-4.8017
 30
0.0
  0
SPLINE
  5
B9
330
1F
100
AcDbEntity
  8
VRSTVA_1
100
AcDbSpline
210
0.0
220
0.0
230
1.0
 70
    24
 71
     3
 72
     8
 73
     4
 74
     0
 42
0.0000000001
 43
0.0000000001
 40
0.0
 40
0.0
 40
0.0
 40
0.0
 40
1.0
 40
1.0
 40
1.0
 40
1.0
 10
18.7009
 20
-24.3649
 30
0.0
 10
18.7009
 20
-24.3649
 30
0.0
 10
18.7009
 20
-17.4912
 30
0.0
 10
18.7009
 20
-17.4912
 30
0.0
  0
SPLINE
  5
BA
330
1F
100
AcDbEntity
  8
VRSTVA_1
100
AcDbSpline
210
0.0
220
0.0
230
1.0
 70
    24
 71
     3
 72
     8
 73
     4
 74
     0
 42
0.0000000001
 43
0.0000000001
 40
0.0
 40
0.0
 40
0.0
 40
0.0
 40
1.0
 40
1.0
 40
1.0
 40
1.0
 10
18.7009
 20
-28.4288
 30
0.0
 10
18.7009
 20
-28.4288
 30
0.0
 10
18.7009
 20
-25.5816
 30
0.0
 10
18.7009
 20
-25.5816
 30
0.0
  0
SPLINE
  5
BB
330
1F
100
AcDbEntity
  8
VRSTVA_1
100
AcDbSpline
210
0.0
220
0.0
230
1.0
 70
    24
 71
     3
 72
     8
 73
     4
 74
     0
 42
0.0000000001
 43
0.0000000001
 40
0.0
 40
0.0
 40
0.0
 40
0.0
 40
1.0
 40
1.0
 40
1.0
 40
1.0
 10
18.7009
 20
-8.8968
 30
0.0
 10
18.7009
 20
-8.8968
 30
0.0
 10
18.7009
 20
-15.7706
 30
0.0
 10
18.7009
 20
-15.7706
 30
0.0
  0
SPLINE
  5
BC
330
1F
100
AcDbEntity
  8
VRSTVA_1
100
AcDbSpline
210
0.0
220
0.0
230
1.0
 70
    24
 71
     3
 72
     8
 73
     4
 74
     0
 42
0.0000000001
 43
0.0000000001
 40
0.0
 40
0.0
 40
0.0
 40
0.0
 40
1.0
 40
1.0
 40
1.0
 40
1.0
 10
18.7009
 20
-4.833
 30
0.0
 10
18.7009
 20
-4.833
 30
0.0
 10
18.7009
 20
-7.6802
 30
0.0
 10
18.7009
 20
-7.6802
 30
0.0
  0
SPLINE
  5
BD
330
1F
100
AcDbEntity
  8
VRSTVA_1
100
AcDbSpline
210
0.0
220
0.0
230
1.0
 70
    24
 71
     3
 72
     8
 73
     4
 74
     0
 42
0.0000000001
 43
0.0000000001
 40
0.0
 40
0.0
 40
0.0
 40
0.0
 40
1.0
 40
1.0
 40
1.0
 40
1.0
 10
6.4314
 20
10.8249
 30
0.0
 10
6.4314
 20
10.8249
 30
0.0
 10
8.0823
 20
10.2241
 30
0.0
 10
8.0823
 20
10.2241
 30
0.0
  0
SPLINE
  5
BE
330
1F
100
AcDbEntity
  8
VRSTVA_1
100
AcDbSpline
210
0.0
220
0.0
230
1.0
 70
    24
 71
     3
 72
     8
 73
     4
 74
     0
 42
0.0000000001
 43
0.0000000001
 40
0.0
 40
0.0
 40
0.0
 40
0.0
 40
1.0
 40
1.0
 40
1.0
 40
1.0
 10
21.712
 20
-24.3649
 30
0.0
 10
21.712
 20
-24.3649
 30
0.0
 10
21.712
 20
-24.2124
 30
0.0
 10
21.712
 20
-24.2124
 30
0.0
  0
SPLINE
  5
BF
330
1F
100
AcDbEntity
  8
VRSTVA_1
100
AcDbSpline
210
0.0
220
0.0
230
1.0
 70
    24
 71
     3
 72
     8
 73
     4
 74
     0
 42
0.0000000001
 43
0.0000000001
 40
0.0
 40
0.0
 40
0.0
 40
0.0
 40
1.0
 40
1.0
 40
1.0
 40
1.0
 10
21.712
 20
-28.4288
 30
0.0
 10
21.712
 20
-28.4288
 30
0.0
 10
21.712
 20
-28.2131
 30
0.0
 10
21.712
 20
-28.2131
 30
0.0
  0
SPLINE
  5
C0
330
1F
100
AcDbEntity
  8
VRSTVA_1
100
AcDbSpline
210
0.0
220
0.0
230
1.0
 70
    24
 71
     3
 72
     8
 73
     4
 74
     0
 42
0.0000000001
 43
0.0000000001
 40
0.0
 40
0.0
 40
0.0
 40
0.0
 40
1.0
 40
1.0
 40
1.0
 40
1.0
 10
21.712
 20
-8.8968
 30
0.0
 10
21.712
 20
-8.8968
 30
0.0
 10
21.712
 20
-9.0493
 30
0.0
 10
21.712
 20
-9.0493
 30
0.0
  0
SPLINE
  5
C1
330
1F
100
AcDbEntity
  8
VRSTVA_1
100
AcDbSpline
210
0.0
220
0.0
230
1.0
 70
    24
 71
     3
 72
     8
 73
     4
 74
     0
 42
0.0000000001
 43
0.0000000001
 40
0.0
 40
0.0
 40
0.0
 40
0.0
 40
1.0
 40
1.0
 40
1.0
 40
1.0
 10
21.712
 20
-4.833
 30
0.0
 10
21.712
 20
-4.833
 30
0.0
 10
21.712
 20
-5.0486
 30
0.0
 10
21.712
 20
-5.0486
 30
0.0
  0
SPLINE
  5
C2
330
1F
100
AcDbEntity
  8
VRSTVA_1
100
AcDbSpline
210
0.0
220
0.0
230
1.0
 70
    24
 71
     3
 72
     8
 73
     4
 74
     0
 42
0.0000000001
 43
0.0000000001
 40
0.0
 40
0.0
 40
0.0
 40
0.0
 40
1.0
 40
1.0
 40
1.0
 40
1.0
 10
22.5722
 20
-28.4601
 30
0.0
 10
22.5722
 20
-28.4601
 30
0.0
 10
22.5722
 20
-4.8017
 30
0.0
 10
22.5722
 20
-4.8017
 30
0.0
  0
SPLINE
  5
C3
330
1F
100
AcDbEntity
  8
VRSTVA_1
100
AcDbSpline
210
0.0
220
0.0
230
1.0
 70
    24
 71
     3
 72
     8
 73
     4
 74
     0
 42
0.0000000001
 43
0.0000000001
 40
0.0
 40
0.0
 40
0.0
 40
0.0
 40
1.0
 40
1.0
 40
1.0
 40
1.0
 10
23.4326
 20
-27.3847
 30
0.0
 10
23.4326
 20
-27.3847
 30
0.0
 10
23.4326
 20
-5.877
 30
0.0
 10
23.4326
 20
-5.877
 30
0.0
  0
SPLINE
  5
C4
330
1F
100
AcDbEntity
  8
VRSTVA_1
100
AcDbSpline
210
0.0
220
0.0
230
1.0
 70
    24
 71
     3
 72
     8
 73
     4
 74
     0
 42
0.0000000001
 43
0.0000000001
 40
0.0
 40
0.0
 40
0.0
 40
0.0
 40
1.0
 40
1.0
 40
1.0
 40
1.0
 10
8.0333
 20
11.6955
 30
0.0
 10
8.0333
 20
11.6955
 30
0.0
 10
8.0333
 20
26.759
 30
0.0
 10
8.0333
 20
26.759
 30
0.0
  0
SPLINE
  5
C5
330
1F
100
AcDbEntity
  8
VRSTVA_1
100
AcDbSpline
210
0.0
220
0.0
230
1.0
 70
    24
 71
     3
 72
     8
 73
     4
 74
     0
 42
0.0000000001
 43
0.0000000001
 40
0.0
 40
0.0
 40
0.0
 40
0.0
 40
1.0
 40
1.0
 40
1.0
 40
1.0
 10
-22.8817
 20
11.8473
 30
0.0
 10
-22.8817
 20
11.8473
 30
0.0
 10
-22.8817
 20
26.759
 30
0.0
 10
-22.8817
 20
26.759
 30
0.0
  0
SPLINE
  5
C6
330
1F
100
AcDbEntity
  8
VRSTVA_1
100
AcDbSpline
210
0.0
220
0.0
230
1.0
 70
    24
 71
     3
 72
     8
 73
     4
 74
     0
 42
0.0000000001
 43
0.0000000001
 40
0.0
 40
0.0
 40
0.0
 40
0.0
 40
1.0
 40
1.0
 40
1.0
 40
1.0
 10
-26.9494
 20
3.2437
 30
0.0
 10
-26.9494
 20
3.2437
 30
0.0
 10
-37.4609
 20
3.2437
 30
0.0
 10
-37.4609
 20
3.2437
 30
0.0
  0
SPLINE
  5
C7
330
1F
100
AcDbEntity
  8
VRSTVA_1
100
AcDbSpline
210
0.0
220
0.0
230
1.0
 70
    24
 71
     3
 72
     8
 73
     4
 74
     0
 42
0.0000000001
 43
0.0000000001
 40
0.0
 40
0.0
 40
0.0
 40
0.0
 40
1.0
 40
1.0
 40
1.0
 40
1.0
 10
-23.8314
 20
-29.1896
 30
0.0
 10
-23.8314
 20
-29.1896
 30
0.0
 10
-37.4609
 20
-29.1896
 30
0.0
 10
-37.4609
 20
-29.1896
 30
0.0
  0
SPLINE
  5
C8
330
1F
100
AcDbEntity
  8
VRSTVA_1
100
AcDbSpline
210
0.0
220
0.0
230
1.0
 70
    24
 71
     3
 72
     8
 73
     4
 74
     0
 42
0.0000000001
 43
0.0000000001
 40
0.0
 40
0.0
 40
0.0
 40
0.0
 40
1.0
 40
1.0
 40
1.0
 40
1.0
 10
2.7785
 20
12.1683
 30
0.0
 10
2.7785
 20
12.1683
 30
0.0
 10
2.7785
 20
18.6507
 30
0.0
 10
2.7785
 20
18.6507
 30
0.0
  0
SPLINE
  5
C9
330
1F
100
AcDbEntity
  8
VRSTVA_1
100
AcDbSpline
210
0.0
220
0.0
230
1.0
 70
    24
 71
     3
 72
     8
 73
     4
 74
     0
 42
0.0000000001
 43
0.0000000001
 40
0.0
 40
0.0
 40
0.0
 40
0.0
 40
1.0
 40
1.0
 40
1.0
 40
1.0
 10
-17.4048
 20
12.0586
 30
0.0
 10
-17.4048
 20
12.0586
 30
0.0
 10
-17.4048
 20
18.6507
 30
0.0
 10
-17.4048
 20
18.6507
 30
0.0
  0
SPLINE
  5
CA
330
1F
100
AcDbEntity
  8
VRSTVA_1
100
AcDbSpline
210
0.0
220
0.0
230
1.0
 70
    24
 71
     3
 72
     8
 73
     4
 74
     0
 42
0.0000000001
 43
0.0000000001
 40
0.0
 40
0.0
 40
0.0
 40
0.0
 40
1.0
 40
1.0
 40
1.0
 40
1.0
 10
-6.9168
 20
3.1562
 30
0.0
 10
-6.9168
 20
3.1562
 30
0.0
 10
2.8246
 20
3.762
 30
0.0
 10
2.8246
 20
3.762
 30
0.0
  0
SPLINE
  5
CB
330
1F
100
AcDbEntity
  8
VRSTVA_1
100
AcDbSpline
210
0.0
220
0.0
230
1.0
 70
    24
 71
     3
 72
     8
 73
     4
 74
     0
 42
0.0000000001
 43
0.0000000001
 40
0.0
 40
0.0
 40
0.0
 40
0.0
 40
1.0
 40
1.0
 40
1.0
 40
1.0
 10
-17.4742
 20
7.6603
 30
0.0
 10
-17.4742
 20
7.6603
 30
0.0
 10
-6.8979
 20
8.318
 30
0.0
 10
-6.8979
 20
8.318
 30
0.0
  0
SPLINE
  5
CC
330
1F
100
AcDbEntity
  8
VRSTVA_1
100
AcDbSpline
210
0.0
220
0.0
230
1.0
 70
    24
 71
     3
 72
     8
 73
     4
 74
     0
 42
0.0000000001
 43
0.0000000001
 40
0.0
 40
0.0
 40
0.0
 40
0.0
 40
1.0
 40
1.0
 40
1.0
 40
1.0
 10
-17.4789
 20
7.0163
 30
0.0
 10
-17.4789
 20
7.0163
 30
0.0
 10
2.6786
 20
8.2699
 30
0.0
 10
2.6786
 20
8.2699
 30
0.0
  0
SPLINE
  5
CD
330
1F
100
AcDbEntity
  8
VRSTVA_1
100
AcDbSpline
210
0.0
220
0.0
230
1.0
 70
    24
 71
     3
 72
     8
 73
     4
 74
     0
 42
0.0000000001
 43
0.0000000001
 40
0.0
 40
0.0
 40
0.0
 40
0.0
 40
1.0
 40
1.0
 40
1.0
 40
1.0
 10
-17.4389
 20
6.3723
 30
0.0
 10
-17.4389
 20
6.3723
 30
0.0
 10
2.7187
 20
7.6259
 30
0.0
 10
2.7187
 20
7.6259
 30
0.0
  0
SPLINE
  5
CE
330
1F
100
AcDbEntity
  8
VRSTVA_1
100
AcDbSpline
210
0.0
220
0.0
230
1.0
 70
    24
 71
     3
 72
     8
 73
     4
 74
     0
 42
0.0000000001
 43
0.0000000001
 40
0.0
 40
0.0
 40
0.0
 40
0.0
 40
1.0
 40
1.0
 40
1.0
 40
1.0
 10
-17.3989
 20
5.7283
 30
0.0
 10
-17.3989
 20
5.7283
 30
0.0
 10
2.7587
 20
6.9819
 30
0.0
 10
2.7587
 20
6.9819
 30
0.0
  0
SPLINE
  5
CF
330
1F
100
AcDbEntity
  8
VRSTVA_1
100
AcDbSpline
210
0.0
220
0.0
230
1.0
 70
    24
 71
     3
 72
     8
 73
     4
 74
     0
 42
0.0000000001
 43
0.0000000001
 40
0.0
 40
0.0
 40
0.0
 40
0.0
 40
1.0
 40
1.0
 40
1.0
 40
1.0
 10
-17.4036
 20
5.0843
 30
0.0
 10
-17.4036
 20
5.0843
 30
0.0
 10
2.754
 20
6.3379
 30
0.0
 10
2.754
 20
6.3379
 30
0.0
  0
SPLINE
  5
D0
330
1F
100
AcDbEntity
  8
VRSTVA_1
100
AcDbSpline
210
0.0
220
0.0
230
1.0
 70
    24
 71
     3
 72
     8
 73
     4
 74
     0
 42
0.0000000001
 43
0.0000000001
 40
0.0
 40
0.0
 40
0.0
 40
0.0
 40
1.0
 40
1.0
 40
1.0
 40
1.0
 10
-17.3636
 20
4.4404
 30
0.0
 10
-17.3636
 20
4.4404
 30
0.0
 10
2.794
 20
5.6939
 30
0.0
 10
2.794
 20
5.6939
 30
0.0
  0
SPLINE
  5
D1
330
1F
100
AcDbEntity
  8
VRSTVA_1
100
AcDbSpline
210
0.0
220
0.0
230
1.0
 70
    24
 71
     3
 72
     8
 73
     4
 74
     0
 42
0.0000000001
 43
0.0000000001
 40
0.0
 40
0.0
 40
0.0
 40
0.0
 40
1.0
 40
1.0
 40
1.0
 40
1.0
 10
-17.4131
 20
3.7964
 30
0.0
 10
-17.4131
 20
3.7964
 30
0.0
 10
2.7445
 20
5.05
 30
0.0
 10
2.7445
 20
5.05
 30
0.0
  0
SPLINE
  5
D2
330
1F
100
AcDbEntity
  8
VRSTVA_1
100
AcDbSpline
210
0.0
220
0.0
230
1.0
 70
    24
 71
     3
 72
     8
 73
     4
 74
     0
 42
0.0000000001
 43
0.0000000001
 40
0.0
 40
0.0
 40
0.0
 40
0.0
 40
1.0
 40
1.0
 40
1.0
 40
1.0
 10
-17.3731
 20
3.1524
 30
0.0
 10
-17.3731
 20
3.1524
 30
0.0
 10
2.7845
 20
4.4059
 30
0.0
 10
2.7845
 20
4.4059
 30
0.0
  0
SPLINE
  5
D3
330
1F
100
AcDbEntity
  8
VRSTVA_1
 62
   250
100
AcDbSpline
210
0.0
220
0.0
230
1.0
 70
    24
 71
     3
 72
     8
 73
     4
 74
     0
 42
0.0000000001
 43
0.0000000001
 40
0.0
 40
0.0
 40
0.0
 40
0.0
 40
1.0
 40
1.0
 40
1.0
 40
1.0
 10
-37.2027
 20
2.7071
 30
0.0
 10
-37.2027
 20
2.7071
 30
0.0
 10
-37.2027
 20
-28.5749
 30
0.0
 10
-37.2027
 20
-28.5749
 30
0.0
  0
SPLINE
  5
D4
330
1F
100
AcDbEntity
  8
VRSTVA_1
 62
   250
100
AcDbSpline
210
0.0
220
0.0
230
1.0
 70
    24
 71
     3
 72
     8
 73
     4
 74
     0
 42
0.0000000001
 43
0.0000000001
 40
0.0
 40
0.0
 40
0.0
 40
0.0
 40
1.0
 40
1.0
 40
1.0
 40
1.0
 10
7.6907
 20
26.476
 30
0.0
 10
7.6907
 20
26.476
 30
0.0
 10
-22.6356
 20
26.476
 30
0.0
 10
-22.6356
 20
26.476
 30
0.0
  0
SPLINE
  5
D5
330
1F
100
AcDbEntity
  8
VRSTVA_1
 62
   250
100
AcDbSpline
210
0.0
220
0.0
230
1.0
 70
    11
 71
     3
 72
    84
 73
    80
 74
     0
 42
0.0000000001
 43
0.0000000001
 40
0.0
 40
0.0
 40
0.0
 40
0.0
 40
0.0476190476190476
 40
0.0476190476190476
 40
0.0476190476190476
 40
0.0476190476190476
 40
0.0952380952380952
 40
0.0952380952380952
 40
0.0952380952380952
 40
0.0952380952380952
 40
0.1428571428571428
 40
0.1428571428571428
 40
0.1428571428571428
 40
0.1428571428571428
 40
0.1904761904761905
 40
0.1904761904761905
 40
0.1904761904761905
 40
0.1904761904761905
 40
0.2380952380952381
 40
0.2380952380952381
 40
0.2380952380952381
 40
0.2380952380952381
 40
0.2857142857142857
 40
0.2857142857142857
 40
0.2857142857142857
 40
0.2857142857142857
 40
0.3333333333333333
 40
0.3333333333333333
 40
0.3333333333333333
 40
0.3333333333333333
 40
0.3809523809523809
 40
0.3809523809523809
 40
0.3809523809523809
 40
0.3809523809523809
 40
0.4285714285714285
 40
0.4285714285714285
 40
0.4285714285714285
 40
0.4285714285714285
 40
0.4761904761904762
 40
0.4761904761904762
 40
0.4761904761904762
 40
0.4761904761904762
 40
0.5238095238095238
 40
0.5238095238095238
 40
0.5238095238095238
 40
0.5238095238095238
 40
0.5714285714285714
 40
0.5714285714285714
 40
0.5714285714285714
 40
0.5714285714285714
 40
0.6190476190476191
 40
0.6190476190476191
 40
0.6190476190476191
 40
0.6190476190476191
 40
0.6666666666666666
 40
0.6666666666666666
 40
0.6666666666666666
 40
0.6666666666666666
 40
0.7142857142857143
 40
0.7142857142857143
 40
0.7142857142857143
 40
0.7142857142857143
 40
0.7619047619047619
 40
0.7619047619047619
 40
0.7619047619047619
 40
0.7619047619047619
 40
0.8095238095238095
 40
0.8095238095238095
 40
0.8095238095238095
 40
0.8095238095238095
 40
0.8571428571428571
 40
0.8571428571428571
 40
0.8571428571428571
 40
0.8571428571428571
 40
0.9047619047619048
 40
0.9047619047619048
 40
0.9047619047619048
 40
0.9047619047619048
 40
1.0
 40
1.0
 40
1.0
 40
1.0
 10
-8.2214
 20
28.9306
 30
0.0
 10
-8.2214
 20
28.9306
 30
0.0
 10
-7.99
 20
29.1897
 30
0.0
 10
-7.99
 20
29.1897
 30
0.0
 10
-7.99
 20
29.1897
 30
0.0
 10
-7.99
 20
29.1897
 30
0.0
 10
-7.8536
 20
29.074
 30
0.0
 10
-7.8536
 20
29.074
 30
0.0
 10
-7.8536
 20
29.074
 30
0.0
 10
-7.8536
 20
29.074
 30
0.0
 10
-8.0958
 20
28.8012
 30
0.0
 10
-8.0958
 20
28.8012
 30
0.0
 10
-8.0958
 20
28.8012
 30
0.0
 10
-8.0168
 20
28.6836
 30
0.0
 10
-7.9637
 20
28.5806
 30
0.0
 10
-7.9359
 20
28.4927
 30
0.0
 10
-7.9359
 20
28.4927
 30
0.0
 10
-7.8992
 20
28.3769
 30
0.0
 10
-7.8809
 20
28.2471
 30
0.0
 10
-7.8809
 20
28.1041
 30
0.0
 10
-7.8809
 20
28.1041
 30
0.0
 10
-7.8809
 20
27.8972
 30
0.0
 10
-7.9227
 20
27.7128
 30
0.0
 10
-8.0065
 20
27.5515
 30
0.0
 10
-8.0065
 20
27.5515
 30
0.0
 10
-8.0902
 20
27.3896
 30
0.0
 10
-8.2073
 20
27.2674
 30
0.0
 10
-8.3583
 20
27.1846
 30
0.0
 10
-8.3583
 20
27.1846
 30
0.0
 10
-8.5098
 20
27.1023
 30
0.0
 10
-8.6701
 20
27.0609
 30
0.0
 10
-8.8399
 20
27.0609
 30
0.0
 10
-8.8399
 20
27.0609
 30
0.0
 10
-8.9669
 20
27.0609
 30
0.0
 10
-9.0817
 20
27.0787
 30
0.0
 10
-9.1847
 20
27.1145
 30
0.0
 10
-9.1847
 20
27.1145
 30
0.0
 10
-9.2637
 20
27.1422
 30
0.0
 10
-9.3559
 20
27.1949
 30
0.0
 10
-9.4618
 20
27.273
 30
0.0
 10
-9.4618
 20
27.273
 30
0.0
 10
-9.4618
 20
27.273
 30
0.0
 10
-9.6932
 20
27.0138
 30
0.0
 10
-9.6932
 20
27.0138
 30
0.0
 10
-9.6932
 20
27.0138
 30
0.0
 10
-9.6932
 20
27.0138
 30
0.0
 10
-9.8296
 20
27.1295
 30
0.0
 10
-9.8296
 20
27.1295
 30
0.0
 10
-9.8296
 20
27.1295
 30
0.0
 10
-9.8296
 20
27.1295
 30
0.0
 10
-9.5869
 20
27.4009
 30
0.0
 10
-9.5869
 20
27.4009
 30
0.0
 10
-9.5869
 20
27.4009
 30
0.0
 10
-9.6772
 20
27.5378
 30
0.0
 10
-9.7374
 20
27.6549
 30
0.0
 10
-9.7675
 20
27.7518
 30
0.0
 10
-9.7675
 20
27.7518
 30
0.0
 10
-9.7976
 20
27.8487
 30
0.0
 10
-9.8131
 20
27.9654
 30
0.0
 10
-9.8131
 20
28.1013
 30
0.0
 10
-9.8131
 20
28.1013
 30
0.0
 10
-9.8131
 20
28.3087
 30
0.0
 10
-9.7717
 20
28.4936
 30
0.0
 10
-9.689
 20
28.6559
 30
0.0
 10
-9.689
 20
28.6559
 30
0.0
 10
-9.6062
 20
28.8182
 30
0.0
 10
-9.4905
 20
28.9409
 30
0.0
 10
-9.3409
 20
29.0246
 30
0.0
 10
-9.3409
 20
29.0246
 30
0.0
 10
-9.1918
 20
29.1079
 30
0.0
 10
-9.0257
 20
29.1498
 30
0.0
 10
-8.8428
 20
29.1498
 30
0.0
 10
-8.8428
 20
29.1498
 30
0.0
 10
-8.7195
 20
29.1498
 30
0.0
 10
-8.6118
 20
29.1338
 30
0.0
 10
-8.5196
 20
29.1008
 30
0.0
 10
-8.5196
 20
29.1008
 30
0.0
 10
-8.4274
 20
29.0684
 30
0.0
 10
-8.3277
 20
29.0115
 30
0.0
 10
-8.2214
 20
28.9306
 30
0.0
  0
SPLINE
  5
D6
330
1F
100
AcDbEntity
  8
VRSTVA_1
 62
   250
100
AcDbSpline
210
0.0
220
0.0
230
1.0
 70
    11
 71
     3
 72
    32
 73
    28
 74
     0
 42
0.0000000001
 43
0.0000000001
 40
0.0
 40
0.0
 40
0.0
 40
0.0
 40
0.125
 40
0.125
 40
0.125
 40
0.125
 40
0.25
 40
0.25
 40
0.25
 40
0.25
 40
0.375
 40
0.375
 40
0.375
 40
0.375
 40
0.5
 40
0.5
 40
0.5
 40
0.5
 40
0.625
 40
0.625
 40
0.625
 40
0.625
 40
0.75
 40
0.75
 40
0.75
 40
0.75
 40
1.0
 40
1.0
 40
1.0
 40
1.0
 10
-8.3865
 20
28.7448
 30
0.0
 10
-8.4731
 20
28.8125
 30
0.0
 10
-8.5488
 20
28.8591
 30
0.0
 10
-8.6132
 20
28.884
 30
0.0
 10
-8.6132
 20
28.884
 30
0.0
 10
-8.6781
 20
28.9085
 30
0.0
 10
-8.7543
 20
28.9212
 30
0.0
 10
-8.8414
 20
28.9212
 30
0.0
 10
-8.8414
 20
28.9212
 30
0.0
 10
-9.0427
 20
28.9212
 30
0.0
 10
-9.2087
 20
28.853
 30
0.0
 10
-9.3404
 20
28.7166
 30
0.0
 10
-9.3404
 20
28.7166
 30
0.0
 10
-9.4717
 20
28.5801
 30
0.0
 10
-9.5375
 20
28.3765
 30
0.0
 10
-9.5375
 20
28.1051
 30
0.0
 10
-9.5375
 20
28.1051
 30
0.0
 10
-9.5375
 20
27.9988
 30
0.0
 10
-9.5272
 20
27.9042
 30
0.0
 10
-9.5069
 20
27.8214
 30
0.0
 10
-9.5069
 20
27.8214
 30
0.0
 10
-9.4923
 20
27.7598
 30
0.0
 10
-9.4618
 20
27.6841
 30
0.0
 10
-9.4147
 20
27.5943
 30
0.0
 10
-9.4147
 20
27.5943
 30
0.0
 10
-9.4147
 20
27.5943
 30
0.0
 10
-8.3865
 20
28.7448
 30
0.0
 10
-8.3865
 20
28.7448
 30
0.0
  0
SPLINE
  5
D7
330
1F
100
AcDbEntity
  8
VRSTVA_1
 62
   250
100
AcDbSpline
210
0.0
220
0.0
230
1.0
 70
    11
 71
     3
 72
    28
 73
    24
 74
     0
 42
0.0000000001
 43
0.0000000001
 40
0.0
 40
0.0
 40
0.0
 40
0.0
 40
0.1428571428571428
 40
0.1428571428571428
 40
0.1428571428571428
 40
0.1428571428571428
 40
0.2857142857142857
 40
0.2857142857142857
 40
0.2857142857142857
 40
0.2857142857142857
 40
0.4285714285714285
 40
0.4285714285714285
 40
0.4285714285714285
 40
0.4285714285714285
 40
0.5714285714285714
 40
0.5714285714285714
 40
0.5714285714285714
 40
0.5714285714285714
 40
0.7142857142857143
 40
0.7142857142857143
 40
0.7142857142857143
 40
0.7142857142857143
 40
1.0
 40
1.0
 40
1.0
 40
1.0
 10
-8.2736
 20
28.6027
 30
0.0
 10
-8.2736
 20
28.6027
 30
0.0
 10
-9.2976
 20
27.4564
 30
0.0
 10
-9.2976
 20
27.4564
 30
0.0
 10
-9.2976
 20
27.4564
 30
0.0
 10
-9.2271
 20
27.3986
 30
0.0
 10
-9.1617
 20
27.3581
 30
0.0
 10
-9.1019
 20
27.3351
 30
0.0
 10
-9.1019
 20
27.3351
 30
0.0
 10
-9.0239
 20
27.3045
 30
0.0
 10
-8.9392
 20
27.2895
 30
0.0
 10
-8.8484
 20
27.2895
 30
0.0
 10
-8.8484
 20
27.2895
 30
0.0
 10
-8.648
 20
27.2895
 30
0.0
 10
-8.4829
 20
27.36
 30
0.0
 10
-8.3522
 20
27.5016
 30
0.0
 10
-8.3522
 20
27.5016
 30
0.0
 10
-8.2219
 20
27.6432
 30
0.0
 10
-8.1565
 20
27.8417
 30
0.0
 10
-8.1565
 20
28.0971
 30
0.0
 10
-8.1565
 20
28.0971
 30
0.0
 10
-8.1565
 20
28.288
 30
0.0
 10
-8.1955
 20
28.4569
 30
0.0
 10
-8.2736
 20
28.6027
 30
0.0
  0
SPLINE
  5
D8
330
1F
100
AcDbEntity
  8
VRSTVA_1
 62
   250
100
AcDbSpline
210
0.0
220
0.0
230
1.0
 70
    11
 71
     3
 72
    48
 73
    44
 74
     0
 42
0.0000000001
 43
0.0000000001
 40
0.0
 40
0.0
 40
0.0
 40
0.0
 40
0.0833333333333333
 40
0.0833333333333333
 40
0.0833333333333333
 40
0.0833333333333333
 40
0.1666666666666667
 40
0.1666666666666667
 40
0.1666666666666667
 40
0.1666666666666667
 40
0.25
 40
0.25
 40
0.25
 40
0.25
 40
0.3333333333333333
 40
0.3333333333333333
 40
0.3333333333333333
 40
0.3333333333333333
 40
0.4166666666666667
 40
0.4166666666666667
 40
0.4166666666666667
 40
0.4166666666666667
 40
0.5
 40
0.5
 40
0.5
 40
0.5
 40
0.5833333333333334
 40
0.5833333333333334
 40
0.5833333333333334
 40
0.5833333333333334
 40
0.6666666666666666
 40
0.6666666666666666
 40
0.6666666666666666
 40
0.6666666666666666
 40
0.75
 40
0.75
 40
0.75
 40
0.75
 40
0.8333333333333334
 40
0.8333333333333334
 40
0.8333333333333334
 40
0.8333333333333334
 40
1.0
 40
1.0
 40
1.0
 40
1.0
 10
-7.6151
 20
28.8506
 30
0.0
 10
-7.6151
 20
28.8506
 30
0.0
 10
-7.6151
 20
29.0891
 30
0.0
 10
-7.6151
 20
29.0891
 30
0.0
 10
-7.6151
 20
29.0891
 30
0.0
 10
-7.6151
 20
29.0891
 30
0.0
 10
-6.3075
 20
29.0891
 30
0.0
 10
-6.3075
 20
29.0891
 30
0.0
 10
-6.3075
 20
29.0891
 30
0.0
 10
-6.3075
 20
29.0891
 30
0.0
 10
-6.3075
 20
28.8962
 30
0.0
 10
-6.3075
 20
28.8962
 30
0.0
 10
-6.3075
 20
28.8962
 30
0.0
 10
-6.4359
 20
28.7594
 30
0.0
 10
-6.5634
 20
28.5773
 30
0.0
 10
-6.6899
 20
28.3506
 30
0.0
 10
-6.6899
 20
28.3506
 30
0.0
 10
-6.816
 20
28.1239
 30
0.0
 10
-6.9138
 20
27.8901
 30
0.0
 10
-6.9825
 20
27.6507
 30
0.0
 10
-6.9825
 20
27.6507
 30
0.0
 10
-7.0323
 20
27.4814
 30
0.0
 10
-7.0638
 20
27.2965
 30
0.0
 10
-7.0775
 20
27.0952
 30
0.0
 10
-7.0775
 20
27.0952
 30
0.0
 10
-7.0775
 20
27.0952
 30
0.0
 10
-7.3324
 20
27.0952
 30
0.0
 10
-7.3324
 20
27.0952
 30
0.0
 10
-7.3324
 20
27.0952
 30
0.0
 10
-7.3296
 20
27.2542
 30
0.0
 10
-7.2986
 20
27.4461
 30
0.0
 10
-7.2388
 20
27.6714
 30
0.0
 10
-7.2388
 20
27.6714
 30
0.0
 10
-7.1791
 20
27.8962
 30
0.0
 10
-7.0935
 20
28.1135
 30
0.0
 10
-6.982
 20
28.3224
 30
0.0
 10
-6.982
 20
28.3224
 30
0.0
 10
-6.8701
 20
28.5312
 30
0.0
 10
-6.7515
 20
28.7076
 30
0.0
 10
-6.6255
 20
28.8506
 30
0.0
 10
-6.6255
 20
28.8506
 30
0.0
 10
-6.6255
 20
28.8506
 30
0.0
 10
-7.6151
 20
28.8506
 30
0.0
 10
-7.6151
 20
28.8506
 30
0.0
  0
SPLINE
  5
D9
330
1F
100
AcDbEntity
  8
VRSTVA_1
 62
   250
100
AcDbSpline
210
0.0
220
0.0
230
1.0
 70
    11
 71
     3
 72
    92
 73
    88
 74
     0
 42
0.0000000001
 43
0.0000000001
 40
0.0
 40
0.0
 40
0.0
 40
0.0
 40
0.0434782608695652
 40
0.0434782608695652
 40
0.0434782608695652
 40
0.0434782608695652
 40
0.0869565217391304
 40
0.0869565217391304
 40
0.0869565217391304
 40
0.0869565217391304
 40
0.1304347826086956
 40
0.1304347826086956
 40
0.1304347826086956
 40
0.1304347826086956
 40
0.1739130434782609
 40
0.1739130434782609
 40
0.1739130434782609
 40
0.1739130434782609
 40
0.2173913043478261
 40
0.2173913043478261
 40
0.2173913043478261
 40
0.2173913043478261
 40
0.2608695652173913
 40
0.2608695652173913
 40
0.2608695652173913
 40
0.2608695652173913
 40
0.3043478260869565
 40
0.3043478260869565
 40
0.3043478260869565
 40
0.3043478260869565
 40
0.3478260869565217
 40
0.3478260869565217
 40
0.3478260869565217
 40
0.3478260869565217
 40
0.391304347826087
 40
0.391304347826087
 40
0.391304347826087
 40
0.391304347826087
 40
0.4347826086956522
 40
0.4347826086956522
 40
0.4347826086956522
 40
0.4347826086956522
 40
0.4782608695652174
 40
0.4782608695652174
 40
0.4782608695652174
 40
0.4782608695652174
 40
0.5217391304347826
 40
0.5217391304347826
 40
0.5217391304347826
 40
0.5217391304347826
 40
0.5652173913043478
 40
0.5652173913043478
 40
0.5652173913043478
 40
0.5652173913043478
 40
0.6086956521739131
 40
0.6086956521739131
 40
0.6086956521739131
 40
0.6086956521739131
 40
0.6521739130434783
 40
0.6521739130434783
 40
0.6521739130434783
 40
0.6521739130434783
 40
0.6956521739130435
 40
0.6956521739130435
 40
0.6956521739130435
 40
0.6956521739130435
 40
0.7391304347826086
 40
0.7391304347826086
 40
0.7391304347826086
 40
0.7391304347826086
 40
0.782608695652174
 40
0.782608695652174
 40
0.782608695652174
 40
0.782608695652174
 40
0.8260869565217391
 40
0.8260869565217391
 40
0.8260869565217391
 40
0.8260869565217391
 40
0.8695652173913043
 40
0.8695652173913043
 40
0.8695652173913043
 40
0.8695652173913043
 40
0.9130434782608695
 40
0.9130434782608695
 40
0.9130434782608695
 40
0.9130434782608695
 40
1.0
 40
1.0
 40
1.0
 40
1.0
 10
-4.7581
 20
27.3337
 30
0.0
 10
-4.7581
 20
27.3337
 30
0.0
 10
-4.7581
 20
27.0952
 30
0.0
 10
-4.7581
 20
27.0952
 30
0.0
 10
-4.7581
 20
27.0952
 30
0.0
 10
-4.7581
 20
27.0952
 30
0.0
 10
-6.0935
 20
27.0952
 30
0.0
 10
-6.0935
 20
27.0952
 30
0.0
 10
-6.0935
 20
27.0952
 30
0.0
 10
-6.0954
 20
27.1549
 30
0.0
 10
-6.086
 20
27.2123
 30
0.0
 10
-6.0648
 20
27.2674
 30
0.0
 10
-6.0648
 20
27.2674
 30
0.0
 10
-6.0309
 20
27.3586
 30
0.0
 10
-5.9764
 20
27.448
 30
0.0
 10
-5.9016
 20
27.5364
 30
0.0
 10
-5.9016
 20
27.5364
 30
0.0
 10
-5.8263
 20
27.6244
 30
0.0
 10
-5.7181
 20
27.7264
 30
0.0
 10
-5.577
 20
27.8421
 30
0.0
 10
-5.577
 20
27.8421
 30
0.0
 10
-5.3574
 20
28.0223
 30
0.0
 10
-5.2087
 20
28.1648
 30
0.0
 10
-5.1316
 20
28.2702
 30
0.0
 10
-5.1316
 20
28.2702
 30
0.0
 10
-5.0545
 20
28.3751
 30
0.0
 10
-5.0159
 20
28.4748
 30
0.0
 10
-5.0159
 20
28.5684
 30
0.0
 10
-5.0159
 20
28.5684
 30
0.0
 10
-5.0159
 20
28.6667
 30
0.0
 10
-5.0512
 20
28.7495
 30
0.0
 10
-5.1212
 20
28.8172
 30
0.0
 10
-5.1212
 20
28.8172
 30
0.0
 10
-5.1918
 20
28.8845
 30
0.0
 10
-5.2835
 20
28.9183
 30
0.0
 10
-5.3964
 20
28.9183
 30
0.0
 10
-5.3964
 20
28.9183
 30
0.0
 10
-5.5159
 20
28.9183
 30
0.0
 10
-5.6114
 20
28.8826
 30
0.0
 10
-5.6829
 20
28.8106
 30
0.0
 10
-5.6829
 20
28.8106
 30
0.0
 10
-5.7548
 20
28.7391
 30
0.0
 10
-5.791
 20
28.6399
 30
0.0
 10
-5.792
 20
28.5134
 30
0.0
 10
-5.792
 20
28.5134
 30
0.0
 10
-5.792
 20
28.5134
 30
0.0
 10
-6.0469
 20
28.5392
 30
0.0
 10
-6.0469
 20
28.5392
 30
0.0
 10
-6.0469
 20
28.5392
 30
0.0
 10
-6.0295
 20
28.7297
 30
0.0
 10
-5.9637
 20
28.8746
 30
0.0
 10
-5.8498
 20
28.9743
 30
0.0
 10
-5.8498
 20
28.9743
 30
0.0
 10
-5.736
 20
29.074
 30
0.0
 10
-5.5827
 20
29.1239
 30
0.0
 10
-5.3908
 20
29.1239
 30
0.0
 10
-5.3908
 20
29.1239
 30
0.0
 10
-5.197
 20
29.1239
 30
0.0
 10
-5.0436
 20
29.0698
 30
0.0
 10
-4.9307
 20
28.9626
 30
0.0
 10
-4.9307
 20
28.9626
 30
0.0
 10
-4.8174
 20
28.8548
 30
0.0
 10
-4.7609
 20
28.7217
 30
0.0
 10
-4.7609
 20
28.5627
 30
0.0
 10
-4.7609
 20
28.5627
 30
0.0
 10
-4.7609
 20
28.4818
 30
0.0
 10
-4.7774
 20
28.4023
 30
0.0
 10
-4.8108
 20
28.3243
 30
0.0
 10
-4.8108
 20
28.3243
 30
0.0
 10
-4.8437
 20
28.2462
 30
0.0
 10
-4.8988
 20
28.1639
 30
0.0
 10
-4.9754
 20
28.0778
 30
0.0
 10
-4.9754
 20
28.0778
 30
0.0
 10
-5.0521
 20
27.9912
 30
0.0
 10
-5.1796
 20
27.8727
 30
0.0
 10
-5.3578
 20
27.7222
 30
0.0
 10
-5.3578
 20
27.7222
 30
0.0
 10
-5.5065
 20
27.5971
 30
0.0
 10
-5.602
 20
27.5124
 30
0.0
 10
-5.6443
 20
27.4677
 30
0.0
 10
-5.6443
 20
27.4677
 30
0.0
 10
-5.6866
 20
27.4235
 30
0.0
 10
-5.7214
 20
27.3788
 30
0.0
 10
-5.7492
 20
27.3337
 30
0.0
 10
-5.7492
 20
27.3337
 30
0.0
 10
-5.7492
 20
27.3337
 30
0.0
 10
-4.7581
 20
27.3337
 30
0.0
 10
-4.7581
 20
27.3337
 30
0.0
  0
SPLINE
  5
DA
330
1F
100
AcDbEntity
  8
VRSTVA_1
 62
   250
100
AcDbSpline
210
0.0
220
0.0
230
1.0
 70
    11
 71
     3
 72
    20
 73
    16
 74
     0
 42
0.0000000001
 43
0.0000000001
 40
0.0
 40
0.0
 40
0.0
 40
0.0
 40
0.2
 40
0.2
 40
0.2
 40
0.2
 40
0.4
 40
0.4
 40
0.4
 40
0.4
 40
0.6
 40
0.6
 40
0.6
 40
0.6
 40
1.0
 40
1.0
 40
1.0
 40
1.0
 10
4.9578
 20
26.9197
 30
0.0
 10
4.9578
 20
26.9197
 30
0.0
 10
7.9578
 20
26.4963
 30
0.0
 10
7.9578
 20
26.4963
 30
0.0
 10
7.9578
 20
26.4963
 30
0.0
 10
7.9578
 20
26.4963
 30
0.0
 10
7.9578
 20
26.4022
 30
0.0
 10
7.9578
 20
26.4022
 30
0.0
 10
7.9578
 20
26.4022
 30
0.0
 10
7.9578
 20
26.4022
 30
0.0
 10
4.9578
 20
25.9507
 30
0.0
 10
4.9578
 20
25.9507
 30
0.0
 10
4.9578
 20
25.9507
 30
0.0
 10
4.9578
 20
25.9507
 30
0.0
 10
4.9578
 20
26.9197
 30
0.0
 10
4.9578
 20
26.9197
 30
0.0
  0
SPLINE
  5
DB
330
1F
100
AcDbEntity
  8
VRSTVA_1
 62
   250
100
AcDbSpline
210
0.0
220
0.0
230
1.0
 70
    11
 71
     3
 72
    20
 73
    16
 74
     0
 42
0.0000000001
 43
0.0000000001
 40
0.0
 40
0.0
 40
0.0
 40
0.0
 40
0.2
 40
0.2
 40
0.2
 40
0.2
 40
0.4
 40
0.4
 40
0.4
 40
0.4
 40
0.6
 40
0.6
 40
0.6
 40
0.6
 40
1.0
 40
1.0
 40
1.0
 40
1.0
 10
-19.7934
 20
25.9915
 30
0.0
 10
-19.7934
 20
25.9915
 30
0.0
 10
-22.7934
 20
26.4149
 30
0.0
 10
-22.7934
 20
26.4149
 30
0.0
 10
-22.7934
 20
26.4149
 30
0.0
 10
-22.7934
 20
26.4149
 30
0.0
 10
-22.7934
 20
26.5089
 30
0.0
 10
-22.7934
 20
26.5089
 30
0.0
 10
-22.7934
 20
26.5089
 30
0.0
 10
-22.7934
 20
26.5089
 30
0.0
 10
-19.7934
 20
26.9605
 30
0.0
 10
-19.7934
 20
26.9605
 30
0.0
 10
-19.7934
 20
26.9605
 30
0.0
 10
-19.7934
 20
26.9605
 30
0.0
 10
-19.7934
 20
25.9915
 30
0.0
 10
-19.7934
 20
25.9915
 30
0.0
  0
SPLINE
  5
DC
330
1F
100
AcDbEntity
  8
VRSTVA_1
 62
   250
100
AcDbSpline
210
0.0
220
0.0
230
1.0
 70
    11
 71
     3
 72
    20
 73
    16
 74
     0
 42
0.0000000001
 43
0.0000000001
 40
0.0
 40
0.0
 40
0.0
 40
0.0
 40
0.2
 40
0.2
 40
0.2
 40
0.2
 40
0.4
 40
0.4
 40
0.4
 40
0.4
 40
0.6
 40
0.6
 40
0.6
 40
0.6
 40
1.0
 40
1.0
 40
1.0
 40
1.0
 10
-37.6872
 20
0.1967
 30
0.0
 10
-37.6872
 20
0.1967
 30
0.0
 10
-37.2638
 20
3.1968
 30
0.0
 10
-37.2638
 20
3.1968
 30
0.0
 10
-37.2638
 20
3.1968
 30
0.0
 10
-37.2638
 20
3.1968
 30
0.0
 10
-37.1698
 20
3.1968
 30
0.0
 10
-37.1698
 20
3.1968
 30
0.0
 10
-37.1698
 20
3.1968
 30
0.0
 10
-37.1698
 20
3.1968
 30
0.0
 10
-36.7182
 20
0.1967
 30
0.0
 10
-36.7182
 20
0.1967
 30
0.0
 10
-36.7182
 20
0.1967
 30
0.0
 10
-36.7182
 20
0.1967
 30
0.0
 10
-37.6872
 20
0.1967
 30
0.0
 10
-37.6872
 20
0.1967
 30
0.0
  0
SPLINE
  5
DD
330
1F
100
AcDbEntity
  8
VRSTVA_1
 62
   250
100
AcDbSpline
210
0.0
220
0.0
230
1.0
 70
    11
 71
     3
 72
    20
 73
    16
 74
     0
 42
0.0000000001
 43
0.0000000001
 40
0.0
 40
0.0
 40
0.0
 40
0.0
 40
0.2
 40
0.2
 40
0.2
 40
0.2
 40
0.4
 40
0.4
 40
0.4
 40
0.4
 40
0.6
 40
0.6
 40
0.6
 40
0.6
 40
1.0
 40
1.0
 40
1.0
 40
1.0
 10
-36.7182
 20
-26.0813
 30
0.0
 10
-36.7182
 20
-26.0813
 30
0.0
 10
-37.1416
 20
-29.0813
 30
0.0
 10
-37.1416
 20
-29.0813
 30
0.0
 10
-37.1416
 20
-29.0813
 30
0.0
 10
-37.1416
 20
-29.0813
 30
0.0
 10
-37.2356
 20
-29.0813
 30
0.0
 10
-37.2356
 20
-29.0813
 30
0.0
 10
-37.2356
 20
-29.0813
 30
0.0
 10
-37.2356
 20
-29.0813
 30
0.0
 10
-37.6872
 20
-26.0813
 30
0.0
 10
-37.6872
 20
-26.0813
 30
0.0
 10
-37.6872
 20
-26.0813
 30
0.0
 10
-37.6872
 20
-26.0813
 30
0.0
 10
-36.7182
 20
-26.0813
 30
0.0
 10
-36.7182
 20
-26.0813
 30
0.0
  0
SPLINE
  5
DE
330
1F
100
AcDbEntity
  8
VRSTVA_1
 62
   250
100
AcDbSpline
210
0.0
220
0.0
230
1.0
 70
    11
 71
     3
 72
    48
 73
    44
 74
     0
 42
0.0000000001
 43
0.0000000001
 40
0.0
 40
0.0
 40
0.0
 40
0.0
 40
0.0833333333333333
 40
0.0833333333333333
 40
0.0833333333333333
 40
0.0833333333333333
 40
0.1666666666666667
 40
0.1666666666666667
 40
0.1666666666666667
 40
0.1666666666666667
 40
0.25
 40
0.25
 40
0.25
 40
0.25
 40
0.3333333333333333
 40
0.3333333333333333
 40
0.3333333333333333
 40
0.3333333333333333
 40
0.4166666666666667
 40
0.4166666666666667
 40
0.4166666666666667
 40
0.4166666666666667
 40
0.5
 40
0.5
 40
0.5
 40
0.5
 40
0.5833333333333334
 40
0.5833333333333334
 40
0.5833333333333334
 40
0.5833333333333334
 40
0.6666666666666666
 40
0.6666666666666666
 40
0.6666666666666666
 40
0.6666666666666666
 40
0.75
 40
0.75
 40
0.75
 40
0.75
 40
0.8333333333333334
 40
0.8333333333333334
 40
0.8333333333333334
 40
0.8333333333333334
 40
1.0
 40
1.0
 40
1.0
 40
1.0
 10
-39.6316
 20
-14.8892
 30
0.0
 10
-39.6316
 20
-14.8892
 30
0.0
 10
-39.8701
 20
-14.8892
 30
0.0
 10
-39.8701
 20
-14.8892
 30
0.0
 10
-39.8701
 20
-14.8892
 30
0.0
 10
-39.8701
 20
-14.8892
 30
0.0
 10
-39.8701
 20
-13.5816
 30
0.0
 10
-39.8701
 20
-13.5816
 30
0.0
 10
-39.8701
 20
-13.5816
 30
0.0
 10
-39.8701
 20
-13.5816
 30
0.0
 10
-39.6773
 20
-13.5816
 30
0.0
 10
-39.6773
 20
-13.5816
 30
0.0
 10
-39.6773
 20
-13.5816
 30
0.0
 10
-39.5404
 20
-13.7101
 30
0.0
 10
-39.3584
 20
-13.8375
 30
0.0
 10
-39.1317
 20
-13.964
 30
0.0
 10
-39.1317
 20
-13.964
 30
0.0
 10
-38.905
 20
-14.0901
 30
0.0
 10
-38.6712
 20
-14.1879
 30
0.0
 10
-38.4318
 20
-14.2566
 30
0.0
 10
-38.4318
 20
-14.2566
 30
0.0
 10
-38.2625
 20
-14.3065
 30
0.0
 10
-38.0776
 20
-14.338
 30
0.0
 10
-37.8763
 20
-14.3516
 30
0.0
 10
-37.8763
 20
-14.3516
 30
0.0
 10
-37.8763
 20
-14.3516
 30
0.0
 10
-37.8763
 20
-14.6065
 30
0.0
 10
-37.8763
 20
-14.6065
 30
0.0
 10
-37.8763
 20
-14.6065
 30
0.0
 10
-38.0353
 20
-14.6037
 30
0.0
 10
-38.2272
 20
-14.5727
 30
0.0
 10
-38.4525
 20
-14.5129
 30
0.0
 10
-38.4525
 20
-14.5129
 30
0.0
 10
-38.6773
 20
-14.4532
 30
0.0
 10
-38.8946
 20
-14.3676
 30
0.0
 10
-39.1034
 20
-14.2561
 30
0.0
 10
-39.1034
 20
-14.2561
 30
0.0
 10
-39.3123
 20
-14.1442
 30
0.0
 10
-39.4887
 20
-14.0257
 30
0.0
 10
-39.6316
 20
-13.8996
 30
0.0
 10
-39.6316
 20
-13.8996
 30
0.0
 10
-39.6316
 20
-13.8996
 30
0.0
 10
-39.6316
 20
-14.8892
 30
0.0
 10
-39.6316
 20
-14.8892
 30
0.0
  0
SPLINE
  5
DF
330
1F
100
AcDbEntity
  8
VRSTVA_1
 62
   250
100
AcDbSpline
210
0.0
220
0.0
230
1.0
 70
    11
 71
     3
 72
    92
 73
    88
 74
     0
 42
0.0000000001
 43
0.0000000001
 40
0.0
 40
0.0
 40
0.0
 40
0.0
 40
0.0434782608695652
 40
0.0434782608695652
 40
0.0434782608695652
 40
0.0434782608695652
 40
0.0869565217391304
 40
0.0869565217391304
 40
0.0869565217391304
 40
0.0869565217391304
 40
0.1304347826086956
 40
0.1304347826086956
 40
0.1304347826086956
 40
0.1304347826086956
 40
0.1739130434782609
 40
0.1739130434782609
 40
0.1739130434782609
 40
0.1739130434782609
 40
0.2173913043478261
 40
0.2173913043478261
 40
0.2173913043478261
 40
0.2173913043478261
 40
0.2608695652173913
 40
0.2608695652173913
 40
0.2608695652173913
 40
0.2608695652173913
 40
0.3043478260869565
 40
0.3043478260869565
 40
0.3043478260869565
 40
0.3043478260869565
 40
0.3478260869565217
 40
0.3478260869565217
 40
0.3478260869565217
 40
0.3478260869565217
 40
0.391304347826087
 40
0.391304347826087
 40
0.391304347826087
 40
0.391304347826087
 40
0.4347826086956522
 40
0.4347826086956522
 40
0.4347826086956522
 40
0.4347826086956522
 40
0.4782608695652174
 40
0.4782608695652174
 40
0.4782608695652174
 40
0.4782608695652174
 40
0.5217391304347826
 40
0.5217391304347826
 40
0.5217391304347826
 40
0.5217391304347826
 40
0.5652173913043478
 40
0.5652173913043478
 40
0.5652173913043478
 40
0.5652173913043478
 40
0.6086956521739131
 40
0.6086956521739131
 40
0.6086956521739131
 40
0.6086956521739131
 40
0.6521739130434783
 40
0.6521739130434783
 40
0.6521739130434783
 40
0.6521739130434783
 40
0.6956521739130435
 40
0.6956521739130435
 40
0.6956521739130435
 40
0.6956521739130435
 40
0.7391304347826086
 40
0.7391304347826086
 40
0.7391304347826086
 40
0.7391304347826086
 40
0.782608695652174
 40
0.782608695652174
 40
0.782608695652174
 40
0.782608695652174
 40
0.8260869565217391
 40
0.8260869565217391
 40
0.8260869565217391
 40
0.8260869565217391
 40
0.8695652173913043
 40
0.8695652173913043
 40
0.8695652173913043
 40
0.8695652173913043
 40
0.9130434782608695
 40
0.9130434782608695
 40
0.9130434782608695
 40
0.9130434782608695
 40
1.0
 40
1.0
 40
1.0
 40
1.0
 10
-38.1148
 20
-12.0323
 30
0.0
 10
-38.1148
 20
-12.0323
 30
0.0
 10
-37.8763
 20
-12.0323
 30
0.0
 10
-37.8763
 20
-12.0323
 30
0.0
 10
-37.8763
 20
-12.0323
 30
0.0
 10
-37.8763
 20
-12.0323
 30
0.0
 10
-37.8763
 20
-13.3676
 30
0.0
 10
-37.8763
 20
-13.3676
 30
0.0
 10
-37.8763
 20
-13.3676
 30
0.0
 10
-37.936
 20
-13.3695
 30
0.0
 10
-37.9934
 20
-13.3601
 30
0.0
 10
-38.0484
 20
-13.3389
 30
0.0
 10
-38.0484
 20
-13.3389
 30
0.0
 10
-38.1397
 20
-13.305
 30
0.0
 10
-38.2291
 20
-13.2505
 30
0.0
 10
-38.3175
 20
-13.1757
 30
0.0
 10
-38.3175
 20
-13.1757
 30
0.0
 10
-38.4054
 20
-13.1004
 30
0.0
 10
-38.5075
 20
-12.9923
 30
0.0
 10
-38.6232
 20
-12.8512
 30
0.0
 10
-38.6232
 20
-12.8512
 30
0.0
 10
-38.8034
 20
-12.6315
 30
0.0
 10
-38.9459
 20
-12.4829
 30
0.0
 10
-39.0512
 20
-12.4057
 30
0.0
 10
-39.0512
 20
-12.4057
 30
0.0
 10
-39.1561
 20
-12.3286
 30
0.0
 10
-39.2558
 20
-12.29
 30
0.0
 10
-39.3494
 20
-12.29
 30
0.0
 10
-39.3494
 20
-12.29
 30
0.0
 10
-39.4477
 20
-12.29
 30
0.0
 10
-39.5305
 20
-12.3253
 30
0.0
 10
-39.5983
 20
-12.3954
 30
0.0
 10
-39.5983
 20
-12.3954
 30
0.0
 10
-39.6655
 20
-12.4659
 30
0.0
 10
-39.6994
 20
-12.5577
 30
0.0
 10
-39.6994
 20
-12.6705
 30
0.0
 10
-39.6994
 20
-12.6705
 30
0.0
 10
-39.6994
 20
-12.79
 30
0.0
 10
-39.6636
 20
-12.8855
 30
0.0
 10
-39.5917
 20
-12.957
 30
0.0
 10
-39.5917
 20
-12.957
 30
0.0
 10
-39.5202
 20
-13.0289
 30
0.0
 10
-39.4209
 20
-13.0652
 30
0.0
 10
-39.2944
 20
-13.0661
 30
0.0
 10
-39.2944
 20
-13.0661
 30
0.0
 10
-39.2944
 20
-13.0661
 30
0.0
 10
-39.3203
 20
-13.321
 30
0.0
 10
-39.3203
 20
-13.321
 30
0.0
 10
-39.3203
 20
-13.321
 30
0.0
 10
-39.5108
 20
-13.3036
 30
0.0
 10
-39.6556
 20
-13.2378
 30
0.0
 10
-39.7553
 20
-13.124
 30
0.0
 10
-39.7553
 20
-13.124
 30
0.0
 10
-39.8551
 20
-13.0101
 30
0.0
 10
-39.9049
 20
-12.8568
 30
0.0
 10
-39.9049
 20
-12.6649
 30
0.0
 10
-39.9049
 20
-12.6649
 30
0.0
 10
-39.9049
 20
-12.4711
 30
0.0
 10
-39.8508
 20
-12.3178
 30
0.0
 10
-39.7436
 20
-12.2049
 30
0.0
 10
-39.7436
 20
-12.2049
 30
0.0
 10
-39.6359
 20
-12.0915
 30
0.0
 10
-39.5028
 20
-12.0351
 30
0.0
 10
-39.3438
 20
-12.0351
 30
0.0
 10
-39.3438
 20
-12.0351
 30
0.0
 10
-39.2629
 20
-12.0351
 30
0.0
 10
-39.1834
 20
-12.0516
 30
0.0
 10
-39.1053
 20
-12.085
 30
0.0
 10
-39.1053
 20
-12.085
 30
0.0
 10
-39.0272
 20
-12.1179
 30
0.0
 10
-38.9449
 20
-12.1729
 30
0.0
 10
-38.8589
 20
-12.2496
 30
0.0
 10
-38.8589
 20
-12.2496
 30
0.0
 10
-38.7723
 20
-12.3262
 30
0.0
 10
-38.6538
 20
-12.4537
 30
0.0
 10
-38.5033
 20
-12.632
 30
0.0
 10
-38.5033
 20
-12.632
 30
0.0
 10
-38.3782
 20
-12.7806
 30
0.0
 10
-38.2935
 20
-12.8761
 30
0.0
 10
-38.2488
 20
-12.9184
 30
0.0
 10
-38.2488
 20
-12.9184
 30
0.0
 10
-38.2046
 20
-12.9607
 30
0.0
 10
-38.1599
 20
-12.9955
 30
0.0
 10
-38.1148
 20
-13.0233
 30
0.0
 10
-38.1148
 20
-13.0233
 30
0.0
 10
-38.1148
 20
-13.0233
 30
0.0
 10
-38.1148
 20
-12.0323
 30
0.0
 10
-38.1148
 20
-12.0323
 30
0.0
  0
SPLINE
  5
E0
330
1F
100
AcDbEntity
  8
VRSTVA_1
 62
   250
100
AcDbSpline
210
0.0
220
0.0
230
1.0
 70
    24
 71
     3
 72
     8
 73
     4
 74
     0
 42
0.0000000001
 43
0.0000000001
 40
0.0
 40
0.0
 40
0.0
 40
0.0
 40
1.0
 40
1.0
 40
1.0
 40
1.0
 10
2.2491
 20
18.0785
 30
0.0
 10
2.2491
 20
18.0785
 30
0.0
 10
-16.9797
 20
18.0785
 30
0.0
 10
-16.9797
 20
18.0785
 30
0.0
  0
SPLINE
  5
E1
330
1F
100
AcDbEntity
  8
VRSTVA_1
 62
   250
100
AcDbSpline
210
0.0
220
0.0
230
1.0
 70
    11
 71
     3
 72
   120
 73
   116
 74
     0
 42
0.0000000001
 43
0.0000000001
 40
0.0
 40
0.0
 40
0.0
 40
0.0
 40
0.0333333333333333
 40
0.0333333333333333
 40
0.0333333333333333
 40
0.0333333333333333
 40
0.0666666666666667
 40
0.0666666666666667
 40
0.0666666666666667
 40
0.0666666666666667
 40
0.1
 40
0.1
 40
0.1
 40
0.1
 40
0.1333333333333333
 40
0.1333333333333333
 40
0.1333333333333333
 40
0.1333333333333333
 40
0.1666666666666667
 40
0.1666666666666667
 40
0.1666666666666667
 40
0.1666666666666667
 40
0.2
 40
0.2
 40
0.2
 40
0.2
 40
0.2333333333333333
 40
0.2333333333333333
 40
0.2333333333333333
 40
0.2333333333333333
 40
0.2666666666666667
 40
0.2666666666666667
 40
0.2666666666666667
 40
0.2666666666666667
 40
0.3
 40
0.3
 40
0.3
 40
0.3
 40
0.3333333333333333
 40
0.3333333333333333
 40
0.3333333333333333
 40
0.3333333333333333
 40
0.3666666666666666
 40
0.3666666666666666
 40
0.3666666666666666
 40
0.3666666666666666
 40
0.4
 40
0.4
 40
0.4
 40
0.4
 40
0.4333333333333333
 40
0.4333333333333333
 40
0.4333333333333333
 40
0.4333333333333333
 40
0.4666666666666667
 40
0.4666666666666667
 40
0.4666666666666667
 40
0.4666666666666667
 40
0.5
 40
0.5
 40
0.5
 40
0.5
 40
0.5333333333333333
 40
0.5333333333333333
 40
0.5333333333333333
 40
0.5333333333333333
 40
0.5666666666666667
 40
0.5666666666666667
 40
0.5666666666666667
 40
0.5666666666666667
 40
0.6
 40
0.6
 40
0.6
 40
0.6
 40
0.6333333333333333
 40
0.6333333333333333
 40
0.6333333333333333
 40
0.6333333333333333
 40
0.6666666666666666
 40
0.6666666666666666
 40
0.6666666666666666
 40
0.6666666666666666
 40
0.7
 40
0.7
 40
0.7
 40
0.7
 40
0.7333333333333333
 40
0.7333333333333333
 40
0.7333333333333333
 40
0.7333333333333333
 40
0.7666666666666667
 40
0.7666666666666667
 40
0.7666666666666667
 40
0.7666666666666667
 40
0.8
 40
0.8
 40
0.8
 40
0.8
 40
0.8333333333333334
 40
0.8333333333333334
 40
0.8333333333333334
 40
0.8333333333333334
 40
0.8666666666666667
 40
0.8666666666666667
 40
0.8666666666666667
 40
0.8666666666666667
 40
0.9
 40
0.9
 40
0.9
 40
0.9
 40
0.9333333333333333
 40
0.9333333333333333
 40
0.9333333333333333
 40
0.9333333333333333
 40
1.0
 40
1.0
 40
1.0
 40
1.0
 10
-13.6376
 20
19.8906
 30
0.0
 10
-13.6376
 20
19.8906
 30
0.0
 10
-13.6376
 20
20.1272
 30
0.0
 10
-13.6376
 20
20.1272
 30
0.0
 10
-13.6376
 20
20.1272
 30
0.0
 10
-13.6376
 20
20.1272
 30
0.0
 10
-12.782
 20
20.1286
 30
0.0
 10
-12.782
 20
20.1286
 30
0.0
 10
-12.782
 20
20.1286
 30
0.0
 10
-12.782
 20
20.1286
 30
0.0
 10
-12.782
 20
19.3793
 30
0.0
 10
-12.782
 20
19.3793
 30
0.0
 10
-12.782
 20
19.3793
 30
0.0
 10
-12.9132
 20
19.2744
 30
0.0
 10
-13.0487
 20
19.1958
 30
0.0
 10
-13.1884
 20
19.1427
 30
0.0
 10
-13.1884
 20
19.1427
 30
0.0
 10
-13.3281
 20
19.09
 30
0.0
 10
-13.4715
 20
19.0637
 30
0.0
 10
-13.6183
 20
19.0637
 30
0.0
 10
-13.6183
 20
19.0637
 30
0.0
 10
-13.8168
 20
19.0637
 30
0.0
 10
-13.9974
 20
19.106
 30
0.0
 10
-14.1592
 20
19.1911
 30
0.0
 10
-14.1592
 20
19.1911
 30
0.0
 10
-14.3215
 20
19.2758
 30
0.0
 10
-14.4438
 20
19.399
 30
0.0
 10
-14.5266
 20
19.5594
 30
0.0
 10
-14.5266
 20
19.5594
 30
0.0
 10
-14.6094
 20
19.7203
 30
0.0
 10
-14.6508
 20
19.9
 30
0.0
 10
-14.6508
 20
20.0985
 30
0.0
 10
-14.6508
 20
20.0985
 30
0.0
 10
-14.6508
 20
20.2951
 30
0.0
 10
-14.6094
 20
20.4785
 30
0.0
 10
-14.527
 20
20.6488
 30
0.0
 10
-14.527
 20
20.6488
 30
0.0
 10
-14.4452
 20
20.8195
 30
0.0
 10
-14.3267
 20
20.9461
 30
0.0
 10
-14.1724
 20
21.0289
 30
0.0
 10
-14.1724
 20
21.0289
 30
0.0
 10
-14.0181
 20
21.1112
 30
0.0
 10
-13.8403
 20
21.1526
 30
0.0
 10
-13.639
 20
21.1526
 30
0.0
 10
-13.639
 20
21.1526
 30
0.0
 10
-13.4932
 20
21.1526
 30
0.0
 10
-13.361
 20
21.129
 30
0.0
 10
-13.2429
 20
21.0815
 30
0.0
 10
-13.2429
 20
21.0815
 30
0.0
 10
-13.1249
 20
21.0345
 30
0.0
 10
-13.0322
 20
20.9686
 30
0.0
 10
-12.9654
 20
20.884
 30
0.0
 10
-12.9654
 20
20.884
 30
0.0
 10
-12.8982
 20
20.7993
 30
0.0
 10
-12.8474
 20
20.6893
 30
0.0
 10
-12.8121
 20
20.5533
 30
0.0
 10
-12.8121
 20
20.5533
 30
0.0
 10
-12.8121
 20
20.5533
 30
0.0
 10
-13.0534
 20
20.487
 30
0.0
 10
-13.0534
 20
20.487
 30
0.0
 10
-13.0534
 20
20.487
 30
0.0
 10
-13.084
 20
20.59
 30
0.0
 10
-13.1216
 20
20.6709
 30
0.0
 10
-13.1663
 20
20.7297
 30
0.0
 10
-13.1663
 20
20.7297
 30
0.0
 10
-13.2114
 20
20.7885
 30
0.0
 10
-13.2759
 20
20.8355
 30
0.0
 10
-13.3596
 20
20.8708
 30
0.0
 10
-13.3596
 20
20.8708
 30
0.0
 10
-13.4429
 20
20.9061
 30
0.0
 10
-13.536
 20
20.924
 30
0.0
 10
-13.6376
 20
20.924
 30
0.0
 10
-13.6376
 20
20.924
 30
0.0
 10
-13.7599
 20
20.924
 30
0.0
 10
-13.8657
 20
20.9051
 30
0.0
 10
-13.9546
 20
20.868
 30
0.0
 10
-13.9546
 20
20.868
 30
0.0
 10
-14.044
 20
20.8308
 30
0.0
 10
-14.1155
 20
20.7819
 30
0.0
 10
-14.1705
 20
20.7212
 30
0.0
 10
-14.1705
 20
20.7212
 30
0.0
 10
-14.2251
 20
20.6606
 30
0.0
 10
-14.2674
 20
20.5942
 30
0.0
 10
-14.298
 20
20.5213
 30
0.0
 10
-14.298
 20
20.5213
 30
0.0
 10
-14.3492
 20
20.3967
 30
0.0
 10
-14.3751
 20
20.2612
 30
0.0
 10
-14.3751
 20
20.1149
 30
0.0
 10
-14.3751
 20
20.1149
 30
0.0
 10
-14.3751
 20
19.9348
 30
0.0
 10
-14.3441
 20
19.7843
 30
0.0
 10
-14.282
 20
19.6629
 30
0.0
 10
-14.282
 20
19.6629
 30
0.0
 10
-14.2199
 20
19.5416
 30
0.0
 10
-14.1296
 20
19.4517
 30
0.0
 10
-14.0111
 20
19.3929
 30
0.0
 10
-14.0111
 20
19.3929
 30
0.0
 10
-13.8925
 20
19.3341
 30
0.0
 10
-13.7669
 20
19.3045
 30
0.0
 10
-13.6338
 20
19.3045
 30
0.0
 10
-13.6338
 20
19.3045
 30
0.0
 10
-13.5176
 20
19.3045
 30
0.0
 10
-13.4048
 20
19.3271
 30
0.0
 10
-13.2947
 20
19.3718
 30
0.0
 10
-13.2947
 20
19.3718
 30
0.0
 10
-13.1841
 20
19.416
 30
0.0
 10
-13.1009
 20
19.4635
 30
0.0
 10
-13.044
 20
19.5143
 30
0.0
 10
-13.044
 20
19.5143
 30
0.0
 10
-13.044
 20
19.5143
 30
0.0
 10
-13.044
 20
19.8906
 30
0.0
 10
-13.044
 20
19.8906
 30
0.0
 10
-13.044
 20
19.8906
 30
0.0
 10
-13.044
 20
19.8906
 30
0.0
 10
-13.6376
 20
19.8906
 30
0.0
 10
-13.6376
 20
19.8906
 30
0.0
  0
SPLINE
  5
E2
330
1F
100
AcDbEntity
  8
VRSTVA_1
 62
   250
100
AcDbSpline
210
0.0
220
0.0
230
1.0
 70
    11
 71
     3
 72
    80
 73
    76
 74
     0
 42
0.0000000001
 43
0.0000000001
 40
0.0
 40
0.0
 40
0.0
 40
0.0
 40
0.05
 40
0.05
 40
0.05
 40
0.05
 40
0.1
 40
0.1
 40
0.1
 40
0.1
 40
0.15
 40
0.15
 40
0.15
 40
0.15
 40
0.2
 40
0.2
 40
0.2
 40
0.2
 40
0.25
 40
0.25
 40
0.25
 40
0.25
 40
0.3
 40
0.3
 40
0.3
 40
0.3
 40
0.35
 40
0.35
 40
0.35
 40
0.35
 40
0.4
 40
0.4
 40
0.4
 40
0.4
 40
0.45
 40
0.45
 40
0.45
 40
0.45
 40
0.5
 40
0.5
 40
0.5
 40
0.5
 40
0.55
 40
0.55
 40
0.55
 40
0.55
 40
0.6
 40
0.6
 40
0.6
 40
0.6
 40
0.65
 40
0.65
 40
0.65
 40
0.65
 40
0.7
 40
0.7
 40
0.7
 40
0.7
 40
0.75
 40
0.75
 40
0.75
 40
0.75
 40
0.8
 40
0.8
 40
0.8
 40
0.8
 40
0.85
 40
0.85
 40
0.85
 40
0.85
 40
0.9
 40
0.9
 40
0.9
 40
0.9
 40
1.0
 40
1.0
 40
1.0
 40
1.0
 10
-11.2016
 20
20.6234
 30
0.0
 10
-11.2016
 20
20.6234
 30
0.0
 10
-11.448
 20
20.6041
 30
0.0
 10
-11.448
 20
20.6041
 30
0.0
 10
-11.448
 20
20.6041
 30
0.0
 10
-11.4701
 20
20.7015
 30
0.0
 10
-11.5012
 20
20.7725
 30
0.0
 10
-11.5416
 20
20.8162
 30
0.0
 10
-11.5416
 20
20.8162
 30
0.0
 10
-11.6089
 20
20.8873
 30
0.0
 10
-11.6917
 20
20.9226
 30
0.0
 10
-11.79
 20
20.9226
 30
0.0
 10
-11.79
 20
20.9226
 30
0.0
 10
-11.869
 20
20.9226
 30
0.0
 10
-11.9381
 20
20.9004
 30
0.0
 10
-11.9979
 20
20.8562
 30
0.0
 10
-11.9979
 20
20.8562
 30
0.0
 10
-12.076
 20
20.7993
 30
0.0
 10
-12.1376
 20
20.7161
 30
0.0
 10
-12.1827
 20
20.6069
 30
0.0
 10
-12.1827
 20
20.6069
 30
0.0
 10
-12.2274
 20
20.4978
 30
0.0
 10
-12.2509
 20
20.3421
 30
0.0
 10
-12.2528
 20
20.1399
 30
0.0
 10
-12.2528
 20
20.1399
 30
0.0
 10
-12.1931
 20
20.2306
 30
0.0
 10
-12.1202
 20
20.2984
 30
0.0
 10
-12.0336
 20
20.3426
 30
0.0
 10
-12.0336
 20
20.3426
 30
0.0
 10
-11.9476
 20
20.3863
 30
0.0
 10
-11.8568
 20
20.4084
 30
0.0
 10
-11.7622
 20
20.4084
 30
0.0
 10
-11.7622
 20
20.4084
 30
0.0
 10
-11.5967
 20
20.4084
 30
0.0
 10
-11.456
 20
20.3478
 30
0.0
 10
-11.3398
 20
20.2259
 30
0.0
 10
-11.3398
 20
20.2259
 30
0.0
 10
-11.2237
 20
20.1041
 30
0.0
 10
-11.1653
 20
19.947
 30
0.0
 10
-11.1653
 20
19.7542
 30
0.0
 10
-11.1653
 20
19.7542
 30
0.0
 10
-11.1653
 20
19.6272
 30
0.0
 10
-11.1931
 20
19.5096
 30
0.0
 10
-11.2477
 20
19.4004
 30
0.0
 10
-11.2477
 20
19.4004
 30
0.0
 10
-11.3022
 20
19.2918
 30
0.0
 10
-11.3775
 20
19.2081
 30
0.0
 10
-11.473
 20
19.1502
 30
0.0
 10
-11.473
 20
19.1502
 30
0.0
 10
-11.5684
 20
19.0924
 30
0.0
 10
-11.6766
 20
19.0637
 30
0.0
 10
-11.798
 20
19.0637
 30
0.0
 10
-11.798
 20
19.0637
 30
0.0
 10
-12.0049
 20
19.0637
 30
0.0
 10
-12.1733
 20
19.1394
 30
0.0
 10
-12.3036
 20
19.2918
 30
0.0
 10
-12.3036
 20
19.2918
 30
0.0
 10
-12.4344
 20
19.4437
 30
0.0
 10
-12.4993
 20
19.6944
 30
0.0
 10
-12.4993
 20
20.0434
 30
0.0
 10
-12.4993
 20
20.0434
 30
0.0
 10
-12.4993
 20
20.4338
 30
0.0
 10
-12.4273
 20
20.7175
 30
0.0
 10
-12.2829
 20
20.8948
 30
0.0
 10
-12.2829
 20
20.8948
 30
0.0
 10
-12.1573
 20
21.0491
 30
0.0
 10
-11.988
 20
21.1267
 30
0.0
 10
-11.7745
 20
21.1267
 30
0.0
 10
-11.7745
 20
21.1267
 30
0.0
 10
-11.6159
 20
21.1267
 30
0.0
 10
-11.4857
 20
21.082
 30
0.0
 10
-11.3841
 20
20.9926
 30
0.0
 10
-11.3841
 20
20.9926
 30
0.0
 10
-11.2825
 20
20.9037
 30
0.0
 10
-11.2218
 20
20.7805
 30
0.0
 10
-11.2016
 20
20.6234
 30
0.0
  0
SPLINE
  5
E3
330
1F
100
AcDbEntity
  8
VRSTVA_1
 62
   250
100
AcDbSpline
210
0.0
220
0.0
230
1.0
 70
    11
 71
     3
 72
    40
 73
    36
 74
     0
 42
0.0000000001
 43
0.0000000001
 40
0.0
 40
0.0
 40
0.0
 40
0.0
 40
0.1
 40
0.1
 40
0.1
 40
0.1
 40
0.2
 40
0.2
 40
0.2
 40
0.2
 40
0.3
 40
0.3
 40
0.3
 40
0.3
 40
0.4
 40
0.4
 40
0.4
 40
0.4
 40
0.5
 40
0.5
 40
0.5
 40
0.5
 40
0.6
 40
0.6
 40
0.6
 40
0.6
 40
0.7
 40
0.7
 40
0.7
 40
0.7
 40
0.8
 40
0.8
 40
0.8
 40
0.8
 40
1.0
 40
1.0
 40
1.0
 40
1.0
 10
-12.2143
 20
19.7528
 30
0.0
 10
-12.2143
 20
19.6671
 30
0.0
 10
-12.1959
 20
19.5853
 30
0.0
 10
-12.1597
 20
19.5072
 30
0.0
 10
-12.1597
 20
19.5072
 30
0.0
 10
-12.1235
 20
19.4291
 30
0.0
 10
-12.0727
 20
19.3699
 30
0.0
 10
-12.0078
 20
19.329
 30
0.0
 10
-12.0078
 20
19.329
 30
0.0
 10
-11.9424
 20
19.288
 30
0.0
 10
-11.8737
 20
19.2673
 30
0.0
 10
-11.8022
 20
19.2673
 30
0.0
 10
-11.8022
 20
19.2673
 30
0.0
 10
-11.6973
 20
19.2673
 30
0.0
 10
-11.6075
 20
19.3097
 30
0.0
 10
-11.5322
 20
19.3943
 30
0.0
 10
-11.5322
 20
19.3943
 30
0.0
 10
-11.457
 20
19.479
 30
0.0
 10
-11.4193
 20
19.5938
 30
0.0
 10
-11.4193
 20
19.7386
 30
0.0
 10
-11.4193
 20
19.7386
 30
0.0
 10
-11.4193
 20
19.8783
 30
0.0
 10
-11.4565
 20
19.9884
 30
0.0
 10
-11.5308
 20
20.0688
 30
0.0
 10
-11.5308
 20
20.0688
 30
0.0
 10
-11.6051
 20
20.1493
 30
0.0
 10
-11.6987
 20
20.1893
 30
0.0
 10
-11.8116
 20
20.1893
 30
0.0
 10
-11.8116
 20
20.1893
 30
0.0
 10
-11.924
 20
20.1893
 30
0.0
 10
-12.0191
 20
20.1493
 30
0.0
 10
-12.0971
 20
20.0688
 30
0.0
 10
-12.0971
 20
20.0688
 30
0.0
 10
-12.1752
 20
19.9884
 30
0.0
 10
-12.2143
 20
19.883
 30
0.0
 10
-12.2143
 20
19.7528
 30
0.0
  0
SPLINE
  5
E4
330
1F
100
AcDbEntity
  8
VRSTVA_1
 62
   250
100
AcDbSpline
210
0.0
220
0.0
230
1.0
 70
    11
 71
     3
 72
    20
 73
    16
 74
     0
 42
0.0000000001
 43
0.0000000001
 40
0.0
 40
0.0
 40
0.0
 40
0.0
 40
0.2
 40
0.2
 40
0.2
 40
0.2
 40
0.4
 40
0.4
 40
0.4
 40
0.4
 40
0.6
 40
0.6
 40
0.6
 40
0.6
 40
1.0
 40
1.0
 40
1.0
 40
1.0
 10
-11.036
 20
19.0637
 30
0.0
 10
-11.036
 20
19.0637
 30
0.0
 10
-10.4504
 20
21.1526
 30
0.0
 10
-10.4504
 20
21.1526
 30
0.0
 10
-10.4504
 20
21.1526
 30
0.0
 10
-10.4504
 20
21.1526
 30
0.0
 10
-10.2519
 20
21.1526
 30
0.0
 10
-10.2519
 20
21.1526
 30
0.0
 10
-10.2519
 20
21.1526
 30
0.0
 10
-10.2519
 20
21.1526
 30
0.0
 10
-10.8361
 20
19.0637
 30
0.0
 10
-10.8361
 20
19.0637
 30
0.0
 10
-10.8361
 20
19.0637
 30
0.0
 10
-10.8361
 20
19.0637
 30
0.0
 10
-11.036
 20
19.0637
 30
0.0
 10
-11.036
 20
19.0637
 30
0.0
  0
SPLINE
  5
E5
330
1F
100
AcDbEntity
  8
VRSTVA_1
 62
   250
100
AcDbSpline
210
0.0
220
0.0
230
1.0
 70
    11
 71
     3
 72
    48
 73
    44
 74
     0
 42
0.0000000001
 43
0.0000000001
 40
0.0
 40
0.0
 40
0.0
 40
0.0
 40
0.0833333333333333
 40
0.0833333333333333
 40
0.0833333333333333
 40
0.0833333333333333
 40
0.1666666666666667
 40
0.1666666666666667
 40
0.1666666666666667
 40
0.1666666666666667
 40
0.25
 40
0.25
 40
0.25
 40
0.25
 40
0.3333333333333333
 40
0.3333333333333333
 40
0.3333333333333333
 40
0.3333333333333333
 40
0.4166666666666667
 40
0.4166666666666667
 40
0.4166666666666667
 40
0.4166666666666667
 40
0.5
 40
0.5
 40
0.5
 40
0.5
 40
0.5833333333333334
 40
0.5833333333333334
 40
0.5833333333333334
 40
0.5833333333333334
 40
0.6666666666666666
 40
0.6666666666666666
 40
0.6666666666666666
 40
0.6666666666666666
 40
0.75
 40
0.75
 40
0.75
 40
0.75
 40
0.8333333333333334
 40
0.8333333333333334
 40
0.8333333333333334
 40
0.8333333333333334
 40
1.0
 40
1.0
 40
1.0
 40
1.0
 10
-9.3399
 20
19.098
 30
0.0
 10
-9.3399
 20
19.098
 30
0.0
 10
-9.3399
 20
19.5815
 30
0.0
 10
-9.3399
 20
19.5815
 30
0.0
 10
-9.3399
 20
19.5815
 30
0.0
 10
-9.3399
 20
19.5815
 30
0.0
 10
-10.2162
 20
19.5815
 30
0.0
 10
-10.2162
 20
19.5815
 30
0.0
 10
-10.2162
 20
19.5815
 30
0.0
 10
-10.2162
 20
19.5815
 30
0.0
 10
-10.2162
 20
19.8092
 30
0.0
 10
-10.2162
 20
19.8092
 30
0.0
 10
-10.2162
 20
19.8092
 30
0.0
 10
-10.2162
 20
19.8092
 30
0.0
 10
-9.2942
 20
21.1182
 30
0.0
 10
-9.2942
 20
21.1182
 30
0.0
 10
-9.2942
 20
21.1182
 30
0.0
 10
-9.2942
 20
21.1182
 30
0.0
 10
-9.0915
 20
21.1182
 30
0.0
 10
-9.0915
 20
21.1182
 30
0.0
 10
-9.0915
 20
21.1182
 30
0.0
 10
-9.0915
 20
21.1182
 30
0.0
 10
-9.0915
 20
19.8092
 30
0.0
 10
-9.0915
 20
19.8092
 30
0.0
 10
-9.0915
 20
19.8092
 30
0.0
 10
-9.0915
 20
19.8092
 30
0.0
 10
-8.8187
 20
19.8092
 30
0.0
 10
-8.8187
 20
19.8092
 30
0.0
 10
-8.8187
 20
19.8092
 30
0.0
 10
-8.8187
 20
19.8092
 30
0.0
 10
-8.8187
 20
19.5815
 30
0.0
 10
-8.8187
 20
19.5815
 30
0.0
 10
-8.8187
 20
19.5815
 30
0.0
 10
-8.8187
 20
19.5815
 30
0.0
 10
-9.0915
 20
19.5815
 30
0.0
 10
-9.0915
 20
19.5815
 30
0.0
 10
-9.0915
 20
19.5815
 30
0.0
 10
-9.0915
 20
19.5815
 30
0.0
 10
-9.0915
 20
19.098
 30
0.0
 10
-9.0915
 20
19.098
 30
0.0
 10
-9.0915
 20
19.098
 30
0.0
 10
-9.0915
 20
19.098
 30
0.0
 10
-9.3399
 20
19.098
 30
0.0
 10
-9.3399
 20
19.098
 30
0.0
  0
SPLINE
  5
E6
330
1F
100
AcDbEntity
  8
VRSTVA_1
 62
   250
100
AcDbSpline
210
0.0
220
0.0
230
1.0
 70
    11
 71
     3
 72
    16
 73
    12
 74
     0
 42
0.0000000001
 43
0.0000000001
 40
0.0
 40
0.0
 40
0.0
 40
0.0
 40
0.25
 40
0.25
 40
0.25
 40
0.25
 40
0.5
 40
0.5
 40
0.5
 40
0.5
 40
1.0
 40
1.0
 40
1.0
 40
1.0
 10
-9.3399
 20
19.8092
 30
0.0
 10
-9.3399
 20
19.8092
 30
0.0
 10
-9.3399
 20
20.7198
 30
0.0
 10
-9.3399
 20
20.7198
 30
0.0
 10
-9.3399
 20
20.7198
 30
0.0
 10
-9.3399
 20
20.7198
 30
0.0
 10
-9.972
 20
19.8092
 30
0.0
 10
-9.972
 20
19.8092
 30
0.0
 10
-9.972
 20
19.8092
 30
0.0
 10
-9.972
 20
19.8092
 30
0.0
 10
-9.3399
 20
19.8092
 30
0.0
 10
-9.3399
 20
19.8092
 30
0.0
  0
SPLINE
  5
E7
330
1F
100
AcDbEntity
  8
VRSTVA_1
 62
   250
100
AcDbSpline
210
0.0
220
0.0
230
1.0
 70
    11
 71
     3
 72
    28
 73
    24
 74
     0
 42
0.0000000001
 43
0.0000000001
 40
0.0
 40
0.0
 40
0.0
 40
0.0
 40
0.1428571428571428
 40
0.1428571428571428
 40
0.1428571428571428
 40
0.1428571428571428
 40
0.2857142857142857
 40
0.2857142857142857
 40
0.2857142857142857
 40
0.2857142857142857
 40
0.4285714285714285
 40
0.4285714285714285
 40
0.4285714285714285
 40
0.4285714285714285
 40
0.5714285714285714
 40
0.5714285714285714
 40
0.5714285714285714
 40
0.5714285714285714
 40
0.7142857142857143
 40
0.7142857142857143
 40
0.7142857142857143
 40
0.7142857142857143
 40
1.0
 40
1.0
 40
1.0
 40
1.0
 10
-8.4838
 20
20.4028
 30
0.0
 10
-8.4838
 20
20.4028
 30
0.0
 10
-8.5529
 20
20.7876
 30
0.0
 10
-8.5529
 20
20.7876
 30
0.0
 10
-8.5529
 20
20.7876
 30
0.0
 10
-8.5529
 20
20.7876
 30
0.0
 10
-8.5529
 20
21.1182
 30
0.0
 10
-8.5529
 20
21.1182
 30
0.0
 10
-8.5529
 20
21.1182
 30
0.0
 10
-8.5529
 20
21.1182
 30
0.0
 10
-8.2703
 20
21.1182
 30
0.0
 10
-8.2703
 20
21.1182
 30
0.0
 10
-8.2703
 20
21.1182
 30
0.0
 10
-8.2703
 20
21.1182
 30
0.0
 10
-8.2703
 20
20.7876
 30
0.0
 10
-8.2703
 20
20.7876
 30
0.0
 10
-8.2703
 20
20.7876
 30
0.0
 10
-8.2703
 20
20.7876
 30
0.0
 10
-8.3323
 20
20.4028
 30
0.0
 10
-8.3323
 20
20.4028
 30
0.0
 10
-8.3323
 20
20.4028
 30
0.0
 10
-8.3323
 20
20.4028
 30
0.0
 10
-8.4838
 20
20.4028
 30
0.0
 10
-8.4838
 20
20.4028
 30
0.0
  0
SPLINE
  5
E8
330
1F
100
AcDbEntity
  8
VRSTVA_1
 62
   250
100
AcDbSpline
210
0.0
220
0.0
230
1.0
 70
    11
 71
     3
 72
    28
 73
    24
 74
     0
 42
0.0000000001
 43
0.0000000001
 40
0.0
 40
0.0
 40
0.0
 40
0.0
 40
0.1428571428571428
 40
0.1428571428571428
 40
0.1428571428571428
 40
0.1428571428571428
 40
0.2857142857142857
 40
0.2857142857142857
 40
0.2857142857142857
 40
0.2857142857142857
 40
0.4285714285714285
 40
0.4285714285714285
 40
0.4285714285714285
 40
0.4285714285714285
 40
0.5714285714285714
 40
0.5714285714285714
 40
0.5714285714285714
 40
0.5714285714285714
 40
0.7142857142857143
 40
0.7142857142857143
 40
0.7142857142857143
 40
0.7142857142857143
 40
1.0
 40
1.0
 40
1.0
 40
1.0
 10
-8.0275
 20
20.4028
 30
0.0
 10
-8.0275
 20
20.4028
 30
0.0
 10
-8.0953
 20
20.7876
 30
0.0
 10
-8.0953
 20
20.7876
 30
0.0
 10
-8.0953
 20
20.7876
 30
0.0
 10
-8.0953
 20
20.7876
 30
0.0
 10
-8.0953
 20
21.1182
 30
0.0
 10
-8.0953
 20
21.1182
 30
0.0
 10
-8.0953
 20
21.1182
 30
0.0
 10
-8.0953
 20
21.1182
 30
0.0
 10
-7.8126
 20
21.1182
 30
0.0
 10
-7.8126
 20
21.1182
 30
0.0
 10
-7.8126
 20
21.1182
 30
0.0
 10
-7.8126
 20
21.1182
 30
0.0
 10
-7.8126
 20
20.7876
 30
0.0
 10
-7.8126
 20
20.7876
 30
0.0
 10
-7.8126
 20
20.7876
 30
0.0
 10
-7.8126
 20
20.7876
 30
0.0
 10
-7.8789
 20
20.4028
 30
0.0
 10
-7.8789
 20
20.4028
 30
0.0
 10
-7.8789
 20
20.4028
 30
0.0
 10
-7.8789
 20
20.4028
 30
0.0
 10
-8.0275
 20
20.4028
 30
0.0
 10
-8.0275
 20
20.4028
 30
0.0
  0
SPLINE
  5
E9
330
1F
100
AcDbEntity
  8
VRSTVA_1
 62
   250
100
AcDbSpline
210
0.0
220
0.0
230
1.0
 70
    11
 71
     3
 72
    44
 73
    40
 74
     0
 42
0.0000000001
 43
0.0000000001
 40
0.0
 40
0.0
 40
0.0
 40
0.0
 40
0.0909090909090909
 40
0.0909090909090909
 40
0.0909090909090909
 40
0.0909090909090909
 40
0.1818181818181818
 40
0.1818181818181818
 40
0.1818181818181818
 40
0.1818181818181818
 40
0.2727272727272727
 40
0.2727272727272727
 40
0.2727272727272727
 40
0.2727272727272727
 40
0.3636363636363636
 40
0.3636363636363636
 40
0.3636363636363636
 40
0.3636363636363636
 40
0.4545454545454545
 40
0.4545454545454545
 40
0.4545454545454545
 40
0.4545454545454545
 40
0.5454545454545454
 40
0.5454545454545454
 40
0.5454545454545454
 40
0.5454545454545454
 40
0.6363636363636364
 40
0.6363636363636364
 40
0.6363636363636364
 40
0.6363636363636364
 40
0.7272727272727273
 40
0.7272727272727273
 40
0.7272727272727273
 40
0.7272727272727273
 40
0.8181818181818182
 40
0.8181818181818182
 40
0.8181818181818182
 40
0.8181818181818182
 40
1.0
 40
1.0
 40
1.0
 40
1.0
 10
-6.2364
 20
18.5039
 30
0.0
 10
-6.3733
 20
18.6766
 30
0.0
 10
-6.489
 20
18.8788
 30
0.0
 10
-6.5835
 20
19.1102
 30
0.0
 10
-6.5835
 20
19.1102
 30
0.0
 10
-6.678
 20
19.3421
 30
0.0
 10
-6.7256
 20
19.5815
 30
0.0
 10
-6.7256
 20
19.8299
 30
0.0
 10
-6.7256
 20
19.8299
 30
0.0
 10
-6.7256
 20
20.0486
 30
0.0
 10
-6.6903
 20
20.2579
 30
0.0
 10
-6.6193
 20
20.4583
 30
0.0
 10
-6.6193
 20
20.4583
 30
0.0
 10
-6.5365
 20
20.6907
 30
0.0
 10
-6.409
 20
20.9221
 30
0.0
 10
-6.2364
 20
21.1526
 30
0.0
 10
-6.2364
 20
21.1526
 30
0.0
 10
-6.2364
 20
21.1526
 30
0.0
 10
-6.0586
 20
21.1526
 30
0.0
 10
-6.0586
 20
21.1526
 30
0.0
 10
-6.0586
 20
21.1526
 30
0.0
 10
-6.1696
 20
20.9616
 30
0.0
 10
-6.243
 20
20.8252
 30
0.0
 10
-6.2787
 20
20.7433
 30
0.0
 10
-6.2787
 20
20.7433
 30
0.0
 10
-6.3352
 20
20.6168
 30
0.0
 10
-6.3789
 20
20.4842
 30
0.0
 10
-6.4114
 20
20.3464
 30
0.0
 10
-6.4114
 20
20.3464
 30
0.0
 10
-6.4509
 20
20.1747
 30
0.0
 10
-6.4706
 20
20.002
 30
0.0
 10
-6.4706
 20
19.8285
 30
0.0
 10
-6.4706
 20
19.8285
 30
0.0
 10
-6.4706
 20
19.3863
 30
0.0
 10
-6.3333
 20
18.9451
 30
0.0
 10
-6.0586
 20
18.5039
 30
0.0
 10
-6.0586
 20
18.5039
 30
0.0
 10
-6.0586
 20
18.5039
 30
0.0
 10
-6.2364
 20
18.5039
 30
0.0
 10
-6.2364
 20
18.5039
 30
0.0
  0
SPLINE
  5
EA
330
1F
100
AcDbEntity
  8
VRSTVA_1
 62
   250
100
AcDbSpline
210
0.0
220
0.0
230
1.0
 70
    11
 71
     3
 72
    84
 73
    80
 74
     0
 42
0.0000000001
 43
0.0000000001
 40
0.0
 40
0.0
 40
0.0
 40
0.0
 40
0.0476190476190476
 40
0.0476190476190476
 40
0.0476190476190476
 40
0.0476190476190476
 40
0.0952380952380952
 40
0.0952380952380952
 40
0.0952380952380952
 40
0.0952380952380952
 40
0.1428571428571428
 40
0.1428571428571428
 40
0.1428571428571428
 40
0.1428571428571428
 40
0.1904761904761905
 40
0.1904761904761905
 40
0.1904761904761905
 40
0.1904761904761905
 40
0.2380952380952381
 40
0.2380952380952381
 40
0.2380952380952381
 40
0.2380952380952381
 40
0.2857142857142857
 40
0.2857142857142857
 40
0.2857142857142857
 40
0.2857142857142857
 40
0.3333333333333333
 40
0.3333333333333333
 40
0.3333333333333333
 40
0.3333333333333333
 40
0.3809523809523809
 40
0.3809523809523809
 40
0.3809523809523809
 40
0.3809523809523809
 40
0.4285714285714285
 40
0.4285714285714285
 40
0.4285714285714285
 40
0.4285714285714285
 40
0.4761904761904762
 40
0.4761904761904762
 40
0.4761904761904762
 40
0.4761904761904762
 40
0.5238095238095238
 40
0.5238095238095238
 40
0.5238095238095238
 40
0.5238095238095238
 40
0.5714285714285714
 40
0.5714285714285714
 40
0.5714285714285714
 40
0.5714285714285714
 40
0.6190476190476191
 40
0.6190476190476191
 40
0.6190476190476191
 40
0.6190476190476191
 40
0.6666666666666666
 40
0.6666666666666666
 40
0.6666666666666666
 40
0.6666666666666666
 40
0.7142857142857143
 40
0.7142857142857143
 40
0.7142857142857143
 40
0.7142857142857143
 40
0.7619047619047619
 40
0.7619047619047619
 40
0.7619047619047619
 40
0.7619047619047619
 40
0.8095238095238095
 40
0.8095238095238095
 40
0.8095238095238095
 40
0.8095238095238095
 40
0.8571428571428571
 40
0.8571428571428571
 40
0.8571428571428571
 40
0.8571428571428571
 40
0.9047619047619048
 40
0.9047619047619048
 40
0.9047619047619048
 40
0.9047619047619048
 40
1.0
 40
1.0
 40
1.0
 40
1.0
 10
-4.234
 20
20.9334
 30
0.0
 10
-4.234
 20
20.9334
 30
0.0
 10
-4.0026
 20
21.1925
 30
0.0
 10
-4.0026
 20
21.1925
 30
0.0
 10
-4.0026
 20
21.1925
 30
0.0
 10
-4.0026
 20
21.1925
 30
0.0
 10
-3.8662
 20
21.0768
 30
0.0
 10
-3.8662
 20
21.0768
 30
0.0
 10
-3.8662
 20
21.0768
 30
0.0
 10
-3.8662
 20
21.0768
 30
0.0
 10
-4.1084
 20
20.804
 30
0.0
 10
-4.1084
 20
20.804
 30
0.0
 10
-4.1084
 20
20.804
 30
0.0
 10
-4.0294
 20
20.6864
 30
0.0
 10
-3.9763
 20
20.5834
 30
0.0
 10
-3.9485
 20
20.4955
 30
0.0
 10
-3.9485
 20
20.4955
 30
0.0
 10
-3.9118
 20
20.3797
 30
0.0
 10
-3.8935
 20
20.2499
 30
0.0
 10
-3.8935
 20
20.1069
 30
0.0
 10
-3.8935
 20
20.1069
 30
0.0
 10
-3.8935
 20
19.9
 30
0.0
 10
-3.9353
 20
19.7156
 30
0.0
 10
-4.0191
 20
19.5543
 30
0.0
 10
-4.0191
 20
19.5543
 30
0.0
 10
-4.1028
 20
19.3924
 30
0.0
 10
-4.2199
 20
19.2702
 30
0.0
 10
-4.3709
 20
19.1874
 30
0.0
 10
-4.3709
 20
19.1874
 30
0.0
 10
-4.5224
 20
19.1051
 30
0.0
 10
-4.6827
 20
19.0637
 30
0.0
 10
-4.8525
 20
19.0637
 30
0.0
 10
-4.8525
 20
19.0637
 30
0.0
 10
-4.9795
 20
19.0637
 30
0.0
 10
-5.0943
 20
19.0815
 30
0.0
 10
-5.1973
 20
19.1173
 30
0.0
 10
-5.1973
 20
19.1173
 30
0.0
 10
-5.2763
 20
19.145
 30
0.0
 10
-5.3685
 20
19.1977
 30
0.0
 10
-5.4744
 20
19.2758
 30
0.0
 10
-5.4744
 20
19.2758
 30
0.0
 10
-5.4744
 20
19.2758
 30
0.0
 10
-5.7058
 20
19.0166
 30
0.0
 10
-5.7058
 20
19.0166
 30
0.0
 10
-5.7058
 20
19.0166
 30
0.0
 10
-5.7058
 20
19.0166
 30
0.0
 10
-5.8422
 20
19.1323
 30
0.0
 10
-5.8422
 20
19.1323
 30
0.0
 10
-5.8422
 20
19.1323
 30
0.0
 10
-5.8422
 20
19.1323
 30
0.0
 10
-5.5995
 20
19.4037
 30
0.0
 10
-5.5995
 20
19.4037
 30
0.0
 10
-5.5995
 20
19.4037
 30
0.0
 10
-5.6898
 20
19.5406
 30
0.0
 10
-5.75
 20
19.6577
 30
0.0
 10
-5.7801
 20
19.7546
 30
0.0
 10
-5.7801
 20
19.7546
 30
0.0
 10
-5.8102
 20
19.8515
 30
0.0
 10
-5.8257
 20
19.9682
 30
0.0
 10
-5.8257
 20
20.1041
 30
0.0
 10
-5.8257
 20
20.1041
 30
0.0
 10
-5.8257
 20
20.3115
 30
0.0
 10
-5.7843
 20
20.4964
 30
0.0
 10
-5.7016
 20
20.6587
 30
0.0
 10
-5.7016
 20
20.6587
 30
0.0
 10
-5.6188
 20
20.821
 30
0.0
 10
-5.5031
 20
20.9437
 30
0.0
 10
-5.3535
 20
21.0274
 30
0.0
 10
-5.3535
 20
21.0274
 30
0.0
 10
-5.2044
 20
21.1107
 30
0.0
 10
-5.0383
 20
21.1526
 30
0.0
 10
-4.8554
 20
21.1526
 30
0.0
 10
-4.8554
 20
21.1526
 30
0.0
 10
-4.7321
 20
21.1526
 30
0.0
 10
-4.6244
 20
21.1366
 30
0.0
 10
-4.5322
 20
21.1036
 30
0.0
 10
-4.5322
 20
21.1036
 30
0.0
 10
-4.44
 20
21.0712
 30
0.0
 10
-4.3403
 20
21.0143
 30
0.0
 10
-4.234
 20
20.9334
 30
0.0
  0
SPLINE
  5
EB
330
1F
100
AcDbEntity
  8
VRSTVA_1
 62
   250
100
AcDbSpline
210
0.0
220
0.0
230
1.0
 70
    11
 71
     3
 72
    32
 73
    28
 74
     0
 42
0.0000000001
 43
0.0000000001
 40
0.0
 40
0.0
 40
0.0
 40
0.0
 40
0.125
 40
0.125
 40
0.125
 40
0.125
 40
0.25
 40
0.25
 40
0.25
 40
0.25
 40
0.375
 40
0.375
 40
0.375
 40
0.375
 40
0.5
 40
0.5
 40
0.5
 40
0.5
 40
0.625
 40
0.625
 40
0.625
 40
0.625
 40
0.75
 40
0.75
 40
0.75
 40
0.75
 40
1.0
 40
1.0
 40
1.0
 40
1.0
 10
-4.3991
 20
20.7476
 30
0.0
 10
-4.4857
 20
20.8153
 30
0.0
 10
-4.5614
 20
20.8619
 30
0.0
 10
-4.6258
 20
20.8868
 30
0.0
 10
-4.6258
 20
20.8868
 30
0.0
 10
-4.6907
 20
20.9113
 30
0.0
 10
-4.7669
 20
20.924
 30
0.0
 10
-4.854
 20
20.924
 30
0.0
 10
-4.854
 20
20.924
 30
0.0
 10
-5.0553
 20
20.924
 30
0.0
 10
-5.2213
 20
20.8558
 30
0.0
 10
-5.353
 20
20.7194
 30
0.0
 10
-5.353
 20
20.7194
 30
0.0
 10
-5.4843
 20
20.5829
 30
0.0
 10
-5.5501
 20
20.3793
 30
0.0
 10
-5.5501
 20
20.1079
 30
0.0
 10
-5.5501
 20
20.1079
 30
0.0
 10
-5.5501
 20
20.0016
 30
0.0
 10
-5.5398
 20
19.907
 30
0.0
 10
-5.5195
 20
19.8242
 30
0.0
 10
-5.5195
 20
19.8242
 30
0.0
 10
-5.5049
 20
19.7626
 30
0.0
 10
-5.4744
 20
19.6869
 30
0.0
 10
-5.4273
 20
19.5971
 30
0.0
 10
-5.4273
 20
19.5971
 30
0.0
 10
-5.4273
 20
19.5971
 30
0.0
 10
-4.3991
 20
20.7476
 30
0.0
 10
-4.3991
 20
20.7476
 30
0.0
  0
SPLINE
  5
EC
330
1F
100
AcDbEntity
  8
VRSTVA_1
 62
   250
100
AcDbSpline
210
0.0
220
0.0
230
1.0
 70
    11
 71
     3
 72
    28
 73
    24
 74
     0
 42
0.0000000001
 43
0.0000000001
 40
0.0
 40
0.0
 40
0.0
 40
0.0
 40
0.1428571428571428
 40
0.1428571428571428
 40
0.1428571428571428
 40
0.1428571428571428
 40
0.2857142857142857
 40
0.2857142857142857
 40
0.2857142857142857
 40
0.2857142857142857
 40
0.4285714285714285
 40
0.4285714285714285
 40
0.4285714285714285
 40
0.4285714285714285
 40
0.5714285714285714
 40
0.5714285714285714
 40
0.5714285714285714
 40
0.5714285714285714
 40
0.7142857142857143
 40
0.7142857142857143
 40
0.7142857142857143
 40
0.7142857142857143
 40
1.0
 40
1.0
 40
1.0
 40
1.0
 10
-4.2862
 20
20.6055
 30
0.0
 10
-4.2862
 20
20.6055
 30
0.0
 10
-5.3102
 20
19.4592
 30
0.0
 10
-5.3102
 20
19.4592
 30
0.0
 10
-5.3102
 20
19.4592
 30
0.0
 10
-5.2397
 20
19.4014
 30
0.0
 10
-5.1743
 20
19.3609
 30
0.0
 10
-5.1145
 20
19.3379
 30
0.0
 10
-5.1145
 20
19.3379
 30
0.0
 10
-5.0365
 20
19.3073
 30
0.0
 10
-4.9518
 20
19.2923
 30
0.0
 10
-4.861
 20
19.2923
 30
0.0
 10
-4.861
 20
19.2923
 30
0.0
 10
-4.6606
 20
19.2923
 30
0.0
 10
-4.4955
 20
19.3628
 30
0.0
 10
-4.3648
 20
19.5044
 30
0.0
 10
-4.3648
 20
19.5044
 30
0.0
 10
-4.2345
 20
19.646
 30
0.0
 10
-4.1691
 20
19.8445
 30
0.0
 10
-4.1691
 20
20.0999
 30
0.0
 10
-4.1691
 20
20.0999
 30
0.0
 10
-4.1691
 20
20.2908
 30
0.0
 10
-4.2081
 20
20.4597
 30
0.0
 10
-4.2862
 20
20.6055
 30
0.0
  0
SPLINE
  5
ED
330
1F
100
AcDbEntity
  8
VRSTVA_1
 62
   250
100
AcDbSpline
210
0.0
220
0.0
230
1.0
 70
    11
 71
     3
 72
    48
 73
    44
 74
     0
 42
0.0000000001
 43
0.0000000001
 40
0.0
 40
0.0
 40
0.0
 40
0.0
 40
0.0833333333333333
 40
0.0833333333333333
 40
0.0833333333333333
 40
0.0833333333333333
 40
0.1666666666666667
 40
0.1666666666666667
 40
0.1666666666666667
 40
0.1666666666666667
 40
0.25
 40
0.25
 40
0.25
 40
0.25
 40
0.3333333333333333
 40
0.3333333333333333
 40
0.3333333333333333
 40
0.3333333333333333
 40
0.4166666666666667
 40
0.4166666666666667
 40
0.4166666666666667
 40
0.4166666666666667
 40
0.5
 40
0.5
 40
0.5
 40
0.5
 40
0.5833333333333334
 40
0.5833333333333334
 40
0.5833333333333334
 40
0.5833333333333334
 40
0.6666666666666666
 40
0.6666666666666666
 40
0.6666666666666666
 40
0.6666666666666666
 40
0.75
 40
0.75
 40
0.75
 40
0.75
 40
0.8333333333333334
 40
0.8333333333333334
 40
0.8333333333333334
 40
0.8333333333333334
 40
1.0
 40
1.0
 40
1.0
 40
1.0
 10
-2.8493
 20
19.098
 30
0.0
 10
-2.8493
 20
19.098
 30
0.0
 10
-2.8493
 20
19.5815
 30
0.0
 10
-2.8493
 20
19.5815
 30
0.0
 10
-2.8493
 20
19.5815
 30
0.0
 10
-2.8493
 20
19.5815
 30
0.0
 10
-3.7256
 20
19.5815
 30
0.0
 10
-3.7256
 20
19.5815
 30
0.0
 10
-3.7256
 20
19.5815
 30
0.0
 10
-3.7256
 20
19.5815
 30
0.0
 10
-3.7256
 20
19.8092
 30
0.0
 10
-3.7256
 20
19.8092
 30
0.0
 10
-3.7256
 20
19.8092
 30
0.0
 10
-3.7256
 20
19.8092
 30
0.0
 10
-2.8036
 20
21.1182
 30
0.0
 10
-2.8036
 20
21.1182
 30
0.0
 10
-2.8036
 20
21.1182
 30
0.0
 10
-2.8036
 20
21.1182
 30
0.0
 10
-2.6009
 20
21.1182
 30
0.0
 10
-2.6009
 20
21.1182
 30
0.0
 10
-2.6009
 20
21.1182
 30
0.0
 10
-2.6009
 20
21.1182
 30
0.0
 10
-2.6009
 20
19.8092
 30
0.0
 10
-2.6009
 20
19.8092
 30
0.0
 10
-2.6009
 20
19.8092
 30
0.0
 10
-2.6009
 20
19.8092
 30
0.0
 10
-2.3281
 20
19.8092
 30
0.0
 10
-2.3281
 20
19.8092
 30
0.0
 10
-2.3281
 20
19.8092
 30
0.0
 10
-2.3281
 20
19.8092
 30
0.0
 10
-2.3281
 20
19.5815
 30
0.0
 10
-2.3281
 20
19.5815
 30
0.0
 10
-2.3281
 20
19.5815
 30
0.0
 10
-2.3281
 20
19.5815
 30
0.0
 10
-2.6009
 20
19.5815
 30
0.0
 10
-2.6009
 20
19.5815
 30
0.0
 10
-2.6009
 20
19.5815
 30
0.0
 10
-2.6009
 20
19.5815
 30
0.0
 10
-2.6009
 20
19.098
 30
0.0
 10
-2.6009
 20
19.098
 30
0.0
 10
-2.6009
 20
19.098
 30
0.0
 10
-2.6009
 20
19.098
 30
0.0
 10
-2.8493
 20
19.098
 30
0.0
 10
-2.8493
 20
19.098
 30
0.0
  0
SPLINE
  5
EE
330
1F
100
AcDbEntity
  8
VRSTVA_1
 62
   250
100
AcDbSpline
210
0.0
220
0.0
230
1.0
 70
    11
 71
     3
 72
    16
 73
    12
 74
     0
 42
0.0000000001
 43
0.0000000001
 40
0.0
 40
0.0
 40
0.0
 40
0.0
 40
0.25
 40
0.25
 40
0.25
 40
0.25
 40
0.5
 40
0.5
 40
0.5
 40
0.5
 40
1.0
 40
1.0
 40
1.0
 40
1.0
 10
-2.8493
 20
19.8092
 30
0.0
 10
-2.8493
 20
19.8092
 30
0.0
 10
-2.8493
 20
20.7198
 30
0.0
 10
-2.8493
 20
20.7198
 30
0.0
 10
-2.8493
 20
20.7198
 30
0.0
 10
-2.8493
 20
20.7198
 30
0.0
 10
-3.4814
 20
19.8092
 30
0.0
 10
-3.4814
 20
19.8092
 30
0.0
 10
-3.4814
 20
19.8092
 30
0.0
 10
-3.4814
 20
19.8092
 30
0.0
 10
-2.8493
 20
19.8092
 30
0.0
 10
-2.8493
 20
19.8092
 30
0.0
  0
SPLINE
  5
EF
330
1F
100
AcDbEntity
  8
VRSTVA_1
 62
   250
100
AcDbSpline
210
0.0
220
0.0
230
1.0
 70
    11
 71
     3
 72
    68
 73
    64
 74
     0
 42
0.0000000001
 43
0.0000000001
 40
0.0
 40
0.0
 40
0.0
 40
0.0
 40
0.0588235294117647
 40
0.0588235294117647
 40
0.0588235294117647
 40
0.0588235294117647
 40
0.1176470588235294
 40
0.1176470588235294
 40
0.1176470588235294
 40
0.1176470588235294
 40
0.1764705882352941
 40
0.1764705882352941
 40
0.1764705882352941
 40
0.1764705882352941
 40
0.2352941176470588
 40
0.2352941176470588
 40
0.2352941176470588
 40
0.2352941176470588
 40
0.2941176470588235
 40
0.2941176470588235
 40
0.2941176470588235
 40
0.2941176470588235
 40
0.3529411764705883
 40
0.3529411764705883
 40
0.3529411764705883
 40
0.3529411764705883
 40
0.4117647058823529
 40
0.4117647058823529
 40
0.4117647058823529
 40
0.4117647058823529
 40
0.4705882352941176
 40
0.4705882352941176
 40
0.4705882352941176
 40
0.4705882352941176
 40
0.5294117647058824
 40
0.5294117647058824
 40
0.5294117647058824
 40
0.5294117647058824
 40
0.5882352941176471
 40
0.5882352941176471
 40
0.5882352941176471
 40
0.5882352941176471
 40
0.6470588235294118
 40
0.6470588235294118
 40
0.6470588235294118
 40
0.6470588235294118
 40
0.7058823529411765
 40
0.7058823529411765
 40
0.7058823529411765
 40
0.7058823529411765
 40
0.7647058823529411
 40
0.7647058823529411
 40
0.7647058823529411
 40
0.7647058823529411
 40
0.8235294117647058
 40
0.8235294117647058
 40
0.8235294117647058
 40
0.8235294117647058
 40
0.8823529411764706
 40
0.8823529411764706
 40
0.8823529411764706
 40
0.8823529411764706
 40
1.0
 40
1.0
 40
1.0
 40
1.0
 10
-1.6926
 20
20.1935
 30
0.0
 10
-1.7957
 20
20.2311
 30
0.0
 10
-1.8719
 20
20.2847
 30
0.0
 10
-1.9217
 20
20.3548
 30
0.0
 10
-1.9217
 20
20.3548
 30
0.0
 10
-1.9711
 20
20.4244
 30
0.0
 10
-1.996
 20
20.5082
 30
0.0
 10
-1.996
 20
20.6055
 30
0.0
 10
-1.996
 20
20.6055
 30
0.0
 10
-1.996
 20
20.7527
 30
0.0
 10
-1.9433
 20
20.876
 30
0.0
 10
-1.8375
 20
20.9762
 30
0.0
 10
-1.8375
 20
20.9762
 30
0.0
 10
-1.7317
 20
21.0764
 30
0.0
 10
-1.5915
 20
21.1267
 30
0.0
 10
-1.4161
 20
21.1267
 30
0.0
 10
-1.4161
 20
21.1267
 30
0.0
 10
-1.2397
 20
21.1267
 30
0.0
 10
-1.0976
 20
21.0754
 30
0.0
 10
-0.9899
 20
20.9729
 30
0.0
 10
-0.9899
 20
20.9729
 30
0.0
 10
-0.8827
 20
20.8703
 30
0.0
 10
-0.829
 20
20.7457
 30
0.0
 10
-0.829
 20
20.5985
 30
0.0
 10
-0.829
 20
20.5985
 30
0.0
 10
-0.829
 20
20.5049
 30
0.0
 10
-0.8535
 20
20.4235
 30
0.0
 10
-0.9024
 20
20.3539
 30
0.0
 10
-0.9024
 20
20.3539
 30
0.0
 10
-0.9518
 20
20.2847
 30
0.0
 10
-1.0261
 20
20.2311
 30
0.0
 10
-1.1263
 20
20.1935
 30
0.0
 10
-1.1263
 20
20.1935
 30
0.0
 10
-1.0026
 20
20.153
 30
0.0
 10
-0.9081
 20
20.0881
 30
0.0
 10
-0.8432
 20
19.9978
 30
0.0
 10
-0.8432
 20
19.9978
 30
0.0
 10
-0.7787
 20
19.908
 30
0.0
 10
-0.7463
 20
19.8003
 30
0.0
 10
-0.7463
 20
19.6756
 30
0.0
 10
-0.7463
 20
19.6756
 30
0.0
 10
-0.7463
 20
19.5025
 30
0.0
 10
-0.8074
 20
19.3576
 30
0.0
 10
-0.9292
 20
19.2401
 30
0.0
 10
-0.9292
 20
19.2401
 30
0.0
 10
-1.0515
 20
19.1225
 30
0.0
 10
-1.2124
 20
19.0637
 30
0.0
 10
-1.4118
 20
19.0637
 30
0.0
 10
-1.4118
 20
19.0637
 30
0.0
 10
-1.6113
 20
19.0637
 30
0.0
 10
-1.7717
 20
19.1225
 30
0.0
 10
-1.894
 20
19.2405
 30
0.0
 10
-1.894
 20
19.2405
 30
0.0
 10
-2.0163
 20
19.3586
 30
0.0
 10
-2.0774
 20
19.5058
 30
0.0
 10
-2.0774
 20
19.6822
 30
0.0
 10
-2.0774
 20
19.6822
 30
0.0
 10
-2.0774
 20
19.8134
 30
0.0
 10
-2.044
 20
19.9235
 30
0.0
 10
-1.9772
 20
20.0124
 30
0.0
 10
-1.9772
 20
20.0124
 30
0.0
 10
-1.9109
 20
20.1008
 30
0.0
 10
-1.8159
 20
20.1615
 30
0.0
 10
-1.6926
 20
20.1935
 30
0.0
  0
SPLINE
  5
F0
330
1F
100
AcDbEntity
  8
VRSTVA_1
 62
   250
100
AcDbSpline
210
0.0
220
0.0
230
1.0
 70
    11
 71
     3
 72
    36
 73
    32
 74
     0
 42
0.0000000001
 43
0.0000000001
 40
0.0
 40
0.0
 40
0.0
 40
0.0
 40
0.1111111111111111
 40
0.1111111111111111
 40
0.1111111111111111
 40
0.1111111111111111
 40
0.2222222222222222
 40
0.2222222222222222
 40
0.2222222222222222
 40
0.2222222222222222
 40
0.3333333333333333
 40
0.3333333333333333
 40
0.3333333333333333
 40
0.3333333333333333
 40
0.4444444444444444
 40
0.4444444444444444
 40
0.4444444444444444
 40
0.4444444444444444
 40
0.5555555555555556
 40
0.5555555555555556
 40
0.5555555555555556
 40
0.5555555555555556
 40
0.6666666666666666
 40
0.6666666666666666
 40
0.6666666666666666
 40
0.6666666666666666
 40
0.7777777777777778
 40
0.7777777777777778
 40
0.7777777777777778
 40
0.7777777777777778
 40
1.0
 40
1.0
 40
1.0
 40
1.0
 10
-1.7425
 20
20.614
 30
0.0
 10
-1.7425
 20
20.5185
 30
0.0
 10
-1.7115
 20
20.4404
 30
0.0
 10
-1.6503
 20
20.3797
 30
0.0
 10
-1.6503
 20
20.3797
 30
0.0
 10
-1.5887
 20
20.3191
 30
0.0
 10
-1.5087
 20
20.2885
 30
0.0
 10
-1.4104
 20
20.2885
 30
0.0
 10
-1.4104
 20
20.2885
 30
0.0
 10
-1.3149
 20
20.2885
 30
0.0
 10
-1.2364
 20
20.3186
 30
0.0
 10
-1.1752
 20
20.3788
 30
0.0
 10
-1.1752
 20
20.3788
 30
0.0
 10
-1.1141
 20
20.439
 30
0.0
 10
-1.084
 20
20.5129
 30
0.0
 10
-1.084
 20
20.5999
 30
0.0
 10
-1.084
 20
20.5999
 30
0.0
 10
-1.084
 20
20.6911
 30
0.0
 10
-1.115
 20
20.7673
 30
0.0
 10
-1.1781
 20
20.8294
 30
0.0
 10
-1.1781
 20
20.8294
 30
0.0
 10
-1.2411
 20
20.8915
 30
0.0
 10
-1.3192
 20
20.9226
 30
0.0
 10
-1.4132
 20
20.9226
 30
0.0
 10
-1.4132
 20
20.9226
 30
0.0
 10
-1.5078
 20
20.9226
 30
0.0
 10
-1.5863
 20
20.892
 30
0.0
 10
-1.6489
 20
20.8318
 30
0.0
 10
-1.6489
 20
20.8318
 30
0.0
 10
-1.7115
 20
20.7711
 30
0.0
 10
-1.7425
 20
20.6982
 30
0.0
 10
-1.7425
 20
20.614
 30
0.0
  0
SPLINE
  5
F1
330
1F
100
AcDbEntity
  8
VRSTVA_1
 62
   250
100
AcDbSpline
210
0.0
220
0.0
230
1.0
 70
    11
 71
     3
 72
    40
 73
    36
 74
     0
 42
0.0000000001
 43
0.0000000001
 40
0.0
 40
0.0
 40
0.0
 40
0.0
 40
0.1
 40
0.1
 40
0.1
 40
0.1
 40
0.2
 40
0.2
 40
0.2
 40
0.2
 40
0.3
 40
0.3
 40
0.3
 40
0.3
 40
0.4
 40
0.4
 40
0.4
 40
0.4
 40
0.5
 40
0.5
 40
0.5
 40
0.5
 40
0.6
 40
0.6
 40
0.6
 40
0.6
 40
0.7
 40
0.7
 40
0.7
 40
0.7
 40
0.8
 40
0.8
 40
0.8
 40
0.8
 40
1.0
 40
1.0
 40
1.0
 40
1.0
 10
-1.8225
 20
19.6808
 30
0.0
 10
-1.8225
 20
19.6102
 30
0.0
 10
-1.8055
 20
19.5416
 30
0.0
 10
-1.7721
 20
19.4757
 30
0.0
 10
-1.7721
 20
19.4757
 30
0.0
 10
-1.7387
 20
19.4094
 30
0.0
 10
-1.6889
 20
19.3581
 30
0.0
 10
-1.6226
 20
19.3219
 30
0.0
 10
-1.6226
 20
19.3219
 30
0.0
 10
-1.5562
 20
19.2857
 30
0.0
 10
-1.4852
 20
19.2673
 30
0.0
 10
-1.409
 20
19.2673
 30
0.0
 10
-1.409
 20
19.2673
 30
0.0
 10
-1.2905
 20
19.2673
 30
0.0
 10
-1.1926
 20
19.3054
 30
0.0
 10
-1.1155
 20
19.3821
 30
0.0
 10
-1.1155
 20
19.3821
 30
0.0
 10
-1.0384
 20
19.4583
 30
0.0
 10
-0.9998
 20
19.5552
 30
0.0
 10
-0.9998
 20
19.6728
 30
0.0
 10
-0.9998
 20
19.6728
 30
0.0
 10
-0.9998
 20
19.7923
 30
0.0
 10
-1.0393
 20
19.891
 30
0.0
 10
-1.1188
 20
19.9691
 30
0.0
 10
-1.1188
 20
19.9691
 30
0.0
 10
-1.1983
 20
20.0472
 30
0.0
 10
-1.298
 20
20.0862
 30
0.0
 10
-1.4175
 20
20.0862
 30
0.0
 10
-1.4175
 20
20.0862
 30
0.0
 10
-1.5341
 20
20.0862
 30
0.0
 10
-1.6306
 20
20.0477
 30
0.0
 10
-1.7072
 20
19.9705
 30
0.0
 10
-1.7072
 20
19.9705
 30
0.0
 10
-1.7839
 20
19.8929
 30
0.0
 10
-1.8225
 20
19.7965
 30
0.0
 10
-1.8225
 20
19.6808
 30
0.0
  0
SPLINE
  5
F2
330
1F
100
AcDbEntity
  8
VRSTVA_1
 62
   250
100
AcDbSpline
210
0.0
220
0.0
230
1.0
 70
    11
 71
     3
 72
    44
 73
    40
 74
     0
 42
0.0000000001
 43
0.0000000001
 40
0.0
 40
0.0
 40
0.0
 40
0.0
 40
0.0909090909090909
 40
0.0909090909090909
 40
0.0909090909090909
 40
0.0909090909090909
 40
0.1818181818181818
 40
0.1818181818181818
 40
0.1818181818181818
 40
0.1818181818181818
 40
0.2727272727272727
 40
0.2727272727272727
 40
0.2727272727272727
 40
0.2727272727272727
 40
0.3636363636363636
 40
0.3636363636363636
 40
0.3636363636363636
 40
0.3636363636363636
 40
0.4545454545454545
 40
0.4545454545454545
 40
0.4545454545454545
 40
0.4545454545454545
 40
0.5454545454545454
 40
0.5454545454545454
 40
0.5454545454545454
 40
0.5454545454545454
 40
0.6363636363636364
 40
0.6363636363636364
 40
0.6363636363636364
 40
0.6363636363636364
 40
0.7272727272727273
 40
0.7272727272727273
 40
0.7272727272727273
 40
0.7272727272727273
 40
0.8181818181818182
 40
0.8181818181818182
 40
0.8181818181818182
 40
0.8181818181818182
 40
1.0
 40
1.0
 40
1.0
 40
1.0
 10
-0.2736
 20
18.5039
 30
0.0
 10
-0.2736
 20
18.5039
 30
0.0
 10
-0.4514
 20
18.5039
 30
0.0
 10
-0.4514
 20
18.5039
 30
0.0
 10
-0.4514
 20
18.5039
 30
0.0
 10
-0.1767
 20
18.9451
 30
0.0
 10
-0.0393
 20
19.3863
 30
0.0
 10
-0.0393
 20
19.8285
 30
0.0
 10
-0.0393
 20
19.8285
 30
0.0
 10
-0.0393
 20
20.0011
 30
0.0
 10
-0.0591
 20
20.1723
 30
0.0
 10
-0.0986
 20
20.3426
 30
0.0
 10
-0.0986
 20
20.3426
 30
0.0
 10
-0.1296
 20
20.4799
 30
0.0
 10
-0.1734
 20
20.6126
 30
0.0
 10
-0.2293
 20
20.7391
 30
0.0
 10
-0.2293
 20
20.7391
 30
0.0
 10
-0.2651
 20
20.8219
 30
0.0
 10
-0.3389
 20
20.9597
 30
0.0
 10
-0.4514
 20
21.1526
 30
0.0
 10
-0.4514
 20
21.1526
 30
0.0
 10
-0.4514
 20
21.1526
 30
0.0
 10
-0.2736
 20
21.1526
 30
0.0
 10
-0.2736
 20
21.1526
 30
0.0
 10
-0.2736
 20
21.1526
 30
0.0
 10
-0.1009
 20
20.9221
 30
0.0
 10
0.027
 20
20.6907
 30
0.0
 10
0.1098
 20
20.4583
 30
0.0
 10
0.1098
 20
20.4583
 30
0.0
 10
0.1803
 20
20.2579
 30
0.0
 10
0.2156
 20
20.0486
 30
0.0
 10
0.2156
 20
19.8299
 30
0.0
 10
0.2156
 20
19.8299
 30
0.0
 10
0.2156
 20
19.5815
 30
0.0
 10
0.1681
 20
19.3421
 30
0.0
 10
0.0731
 20
19.1102
 30
0.0
 10
0.0731
 20
19.1102
 30
0.0
 10
-0.0219
 20
18.8788
 30
0.0
 10
-0.1376
 20
18.6766
 30
0.0
 10
-0.2736
 20
18.5039
 30
0.0
  0
SPLINE
  5
F3
330
1F
100
AcDbEntity
  8
VRSTVA_1
 62
   250
100
AcDbSpline
210
0.0
220
0.0
230
1.0
 70
    11
 71
     3
 72
    20
 73
    16
 74
     0
 42
0.0000000001
 43
0.0000000001
 40
0.0
 40
0.0
 40
0.0
 40
0.0
 40
0.2
 40
0.2
 40
0.2
 40
0.2
 40
0.4
 40
0.4
 40
0.4
 40
0.4
 40
0.6
 40
0.6
 40
0.6
 40
0.6
 40
1.0
 40
1.0
 40
1.0
 40
1.0
 10
-0.296
 20
18.5298
 30
0.0
 10
-0.296
 20
18.5298
 30
0.0
 10
2.704
 20
18.1064
 30
0.0
 10
2.704
 20
18.1064
 30
0.0
 10
2.704
 20
18.1064
 30
0.0
 10
2.704
 20
18.1064
 30
0.0
 10
2.704
 20
18.0124
 30
0.0
 10
2.704
 20
18.0124
 30
0.0
 10
2.704
 20
18.0124
 30
0.0
 10
2.704
 20
18.0124
 30
0.0
 10
-0.296
 20
17.5609
 30
0.0
 10
-0.296
 20
17.5609
 30
0.0
 10
-0.296
 20
17.5609
 30
0.0
 10
-0.296
 20
17.5609
 30
0.0
 10
-0.296
 20
18.5298
 30
0.0
 10
-0.296
 20
18.5298
 30
0.0
  0
SPLINE
  5
F4
330
1F
100
AcDbEntity
  8
VRSTVA_1
 62
   250
100
AcDbSpline
210
0.0
220
0.0
230
1.0
 70
    11
 71
     3
 72
    20
 73
    16
 74
     0
 42
0.0000000001
 43
0.0000000001
 40
0.0
 40
0.0
 40
0.0
 40
0.0
 40
0.2
 40
0.2
 40
0.2
 40
0.2
 40
0.4
 40
0.4
 40
0.4
 40
0.4
 40
0.6
 40
0.6
 40
0.6
 40
0.6
 40
1.0
 40
1.0
 40
1.0
 40
1.0
 10
-14.3336
 20
17.5855
 30
0.0
 10
-14.3336
 20
17.5855
 30
0.0
 10
-17.3336
 20
18.0089
 30
0.0
 10
-17.3336
 20
18.0089
 30
0.0
 10
-17.3336
 20
18.0089
 30
0.0
 10
-17.3336
 20
18.0089
 30
0.0
 10
-17.3336
 20
18.1029
 30
0.0
 10
-17.3336
 20
18.1029
 30
0.0
 10
-17.3336
 20
18.1029
 30
0.0
 10
-17.3336
 20
18.1029
 30
0.0
 10
-14.3336
 20
18.5545
 30
0.0
 10
-14.3336
 20
18.5545
 30
0.0
 10
-14.3336
 20
18.5545
 30
0.0
 10
-14.3336
 20
18.5545
 30
0.0
 10
-14.3336
 20
17.5855
 30
0.0
 10
-14.3336
 20
17.5855
 30
0.0
  0
SPLINE
  5
F5
330
1F
100
AcDbEntity
  8
VRSTVA_1
 62
   250
100
AcDbSpline
210
0.0
220
0.0
230
1.0
 70
    24
 71
     3
 72
     8
 73
     4
 74
     0
 42
0.0000000001
 43
0.0000000001
 40
0.0
 40
0.0
 40
0.0
 40
0.0
 40
1.0
 40
1.0
 40
1.0
 40
1.0
 10
28.9458
 20
-9.0437
 30
0.0
 10
28.9458
 20
-9.0437
 30
0.0
 10
28.9458
 20
-24.0177
 30
0.0
 10
28.9458
 20
-24.0177
 30
0.0
  0
SPLINE
  5
F6
330
1F
100
AcDbEntity
  8
VRSTVA_1
 62
   250
100
AcDbSpline
210
0.0
220
0.0
230
1.0
 70
    11
 71
     3
 72
    84
 73
    80
 74
     0
 42
0.0000000001
 43
0.0000000001
 40
0.0
 40
0.0
 40
0.0
 40
0.0
 40
0.0476190476190476
 40
0.0476190476190476
 40
0.0476190476190476
 40
0.0476190476190476
 40
0.0952380952380952
 40
0.0952380952380952
 40
0.0952380952380952
 40
0.0952380952380952
 40
0.1428571428571428
 40
0.1428571428571428
 40
0.1428571428571428
 40
0.1428571428571428
 40
0.1904761904761905
 40
0.1904761904761905
 40
0.1904761904761905
 40
0.1904761904761905
 40
0.2380952380952381
 40
0.2380952380952381
 40
0.2380952380952381
 40
0.2380952380952381
 40
0.2857142857142857
 40
0.2857142857142857
 40
0.2857142857142857
 40
0.2857142857142857
 40
0.3333333333333333
 40
0.3333333333333333
 40
0.3333333333333333
 40
0.3333333333333333
 40
0.3809523809523809
 40
0.3809523809523809
 40
0.3809523809523809
 40
0.3809523809523809
 40
0.4285714285714285
 40
0.4285714285714285
 40
0.4285714285714285
 40
0.4285714285714285
 40
0.4761904761904762
 40
0.4761904761904762
 40
0.4761904761904762
 40
0.4761904761904762
 40
0.5238095238095238
 40
0.5238095238095238
 40
0.5238095238095238
 40
0.5238095238095238
 40
0.5714285714285714
 40
0.5714285714285714
 40
0.5714285714285714
 40
0.5714285714285714
 40
0.6190476190476191
 40
0.6190476190476191
 40
0.6190476190476191
 40
0.6190476190476191
 40
0.6666666666666666
 40
0.6666666666666666
 40
0.6666666666666666
 40
0.6666666666666666
 40
0.7142857142857143
 40
0.7142857142857143
 40
0.7142857142857143
 40
0.7142857142857143
 40
0.7619047619047619
 40
0.7619047619047619
 40
0.7619047619047619
 40
0.7619047619047619
 40
0.8095238095238095
 40
0.8095238095238095
 40
0.8095238095238095
 40
0.8095238095238095
 40
0.8571428571428571
 40
0.8571428571428571
 40
0.8571428571428571
 40
0.8571428571428571
 40
0.9047619047619048
 40
0.9047619047619048
 40
0.9047619047619048
 40
0.9047619047619048
 40
1.0
 40
1.0
 40
1.0
 40
1.0
 10
26.4912
 20
-18.1812
 30
0.0
 10
26.4912
 20
-18.1812
 30
0.0
 10
26.2321
 20
-17.9498
 30
0.0
 10
26.2321
 20
-17.9498
 30
0.0
 10
26.2321
 20
-17.9498
 30
0.0
 10
26.2321
 20
-17.9498
 30
0.0
 10
26.3478
 20
-17.8134
 30
0.0
 10
26.3478
 20
-17.8134
 30
0.0
 10
26.3478
 20
-17.8134
 30
0.0
 10
26.3478
 20
-17.8134
 30
0.0
 10
26.6206
 20
-18.0556
 30
0.0
 10
26.6206
 20
-18.0556
 30
0.0
 10
26.6206
 20
-18.0556
 30
0.0
 10
26.7382
 20
-17.9766
 30
0.0
 10
26.8412
 20
-17.9235
 30
0.0
 10
26.9291
 20
-17.8957
 30
0.0
 10
26.9291
 20
-17.8957
 30
0.0
 10
27.0449
 20
-17.859
 30
0.0
 10
27.1747
 20
-17.8407
 30
0.0
 10
27.3177
 20
-17.8407
 30
0.0
 10
27.3177
 20
-17.8407
 30
0.0
 10
27.5246
 20
-17.8407
 30
0.0
 10
27.709
 20
-17.8825
 30
0.0
 10
27.8703
 20
-17.9663
 30
0.0
 10
27.8703
 20
-17.9663
 30
0.0
 10
28.0322
 20
-18.05
 30
0.0
 10
28.1544
 20
-18.1671
 30
0.0
 10
28.2372
 20
-18.3181
 30
0.0
 10
28.2372
 20
-18.3181
 30
0.0
 10
28.3195
 20
-18.4696
 30
0.0
 10
28.3609
 20
-18.6299
 30
0.0
 10
28.3609
 20
-18.7997
 30
0.0
 10
28.3609
 20
-18.7997
 30
0.0
 10
28.3609
 20
-18.9267
 30
0.0
 10
28.3431
 20
-19.0415
 30
0.0
 10
28.3073
 20
-19.1445
 30
0.0
 10
28.3073
 20
-19.1445
 30
0.0
 10
28.2796
 20
-19.2235
 30
0.0
 10
28.2269
 20
-19.3157
 30
0.0
 10
28.1488
 20
-19.4216
 30
0.0
 10
28.1488
 20
-19.4216
 30
0.0
 10
28.1488
 20
-19.4216
 30
0.0
 10
28.408
 20
-19.653
 30
0.0
 10
28.408
 20
-19.653
 30
0.0
 10
28.408
 20
-19.653
 30
0.0
 10
28.408
 20
-19.653
 30
0.0
 10
28.2923
 20
-19.7894
 30
0.0
 10
28.2923
 20
-19.7894
 30
0.0
 10
28.2923
 20
-19.7894
 30
0.0
 10
28.2923
 20
-19.7894
 30
0.0
 10
28.0209
 20
-19.5467
 30
0.0
 10
28.0209
 20
-19.5467
 30
0.0
 10
28.0209
 20
-19.5467
 30
0.0
 10
27.884
 20
-19.637
 30
0.0
 10
27.7669
 20
-19.6972
 30
0.0
 10
27.67
 20
-19.7273
 30
0.0
 10
27.67
 20
-19.7273
 30
0.0
 10
27.5731
 20
-19.7574
 30
0.0
 10
27.4564
 20
-19.7729
 30
0.0
 10
27.3205
 20
-19.7729
 30
0.0
 10
27.3205
 20
-19.7729
 30
0.0
 10
27.1131
 20
-19.7729
 30
0.0
 10
26.9282
 20
-19.7315
 30
0.0
 10
26.7659
 20
-19.6488
 30
0.0
 10
26.7659
 20
-19.6488
 30
0.0
 10
26.6036
 20
-19.566
 30
0.0
 10
26.4809
 20
-19.4503
 30
0.0
 10
26.3972
 20
-19.3007
 30
0.0
 10
26.3972
 20
-19.3007
 30
0.0
 10
26.3139
 20
-19.1516
 30
0.0
 10
26.272
 20
-18.9855
 30
0.0
 10
26.272
 20
-18.8026
 30
0.0
 10
26.272
 20
-18.8026
 30
0.0
 10
26.272
 20
-18.6793
 30
0.0
 10
26.288
 20
-18.5716
 30
0.0
 10
26.321
 20
-18.4794
 30
0.0
 10
26.321
 20
-18.4794
 30
0.0
 10
26.3534
 20
-18.3872
 30
0.0
 10
26.4103
 20
-18.2875
 30
0.0
 10
26.4912
 20
-18.1812
 30
0.0
  0
SPLINE
  5
F7
330
1F
100
AcDbEntity
  8
VRSTVA_1
 62
   250
100
AcDbSpline
210
0.0
220
0.0
230
1.0
 70
    11
 71
     3
 72
    32
 73
    28
 74
     0
 42
0.0000000001
 43
0.0000000001
 40
0.0
 40
0.0
 40
0.0
 40
0.0
 40
0.125
 40
0.125
 40
0.125
 40
0.125
 40
0.25
 40
0.25
 40
0.25
 40
0.25
 40
0.375
 40
0.375
 40
0.375
 40
0.375
 40
0.5
 40
0.5
 40
0.5
 40
0.5
 40
0.625
 40
0.625
 40
0.625
 40
0.625
 40
0.75
 40
0.75
 40
0.75
 40
0.75
 40
1.0
 40
1.0
 40
1.0
 40
1.0
 10
26.677
 20
-18.3463
 30
0.0
 10
26.6093
 20
-18.4329
 30
0.0
 10
26.5627
 20
-18.5086
 30
0.0
 10
26.5378
 20
-18.573
 30
0.0
 10
26.5378
 20
-18.573
 30
0.0
 10
26.5133
 20
-18.6379
 30
0.0
 10
26.5006
 20
-18.7141
 30
0.0
 10
26.5006
 20
-18.8012
 30
0.0
 10
26.5006
 20
-18.8012
 30
0.0
 10
26.5006
 20
-19.0025
 30
0.0
 10
26.5688
 20
-19.1685
 30
0.0
 10
26.7052
 20
-19.3002
 30
0.0
 10
26.7052
 20
-19.3002
 30
0.0
 10
26.8417
 20
-19.4315
 30
0.0
 10
27.0453
 20
-19.4973
 30
0.0
 10
27.3167
 20
-19.4973
 30
0.0
 10
27.3167
 20
-19.4973
 30
0.0
 10
27.423
 20
-19.4973
 30
0.0
 10
27.5176
 20
-19.487
 30
0.0
 10
27.6004
 20
-19.4667
 30
0.0
 10
27.6004
 20
-19.4667
 30
0.0
 10
27.662
 20
-19.4521
 30
0.0
 10
27.7377
 20
-19.4216
 30
0.0
 10
27.8275
 20
-19.3745
 30
0.0
 10
27.8275
 20
-19.3745
 30
0.0
 10
27.8275
 20
-19.3745
 30
0.0
 10
26.677
 20
-18.3463
 30
0.0
 10
26.677
 20
-18.3463
 30
0.0
  0
SPLINE
  5
F8
330
1F
100
AcDbEntity
  8
VRSTVA_1
 62
   250
100
AcDbSpline
210
0.0
220
0.0
230
1.0
 70
    11
 71
     3
 72
    28
 73
    24
 74
     0
 42
0.0000000001
 43
0.0000000001
 40
0.0
 40
0.0
 40
0.0
 40
0.0
 40
0.1428571428571428
 40
0.1428571428571428
 40
0.1428571428571428
 40
0.1428571428571428
 40
0.2857142857142857
 40
0.2857142857142857
 40
0.2857142857142857
 40
0.2857142857142857
 40
0.4285714285714285
 40
0.4285714285714285
 40
0.4285714285714285
 40
0.4285714285714285
 40
0.5714285714285714
 40
0.5714285714285714
 40
0.5714285714285714
 40
0.5714285714285714
 40
0.7142857142857143
 40
0.7142857142857143
 40
0.7142857142857143
 40
0.7142857142857143
 40
1.0
 40
1.0
 40
1.0
 40
1.0
 10
26.8191
 20
-18.2334
 30
0.0
 10
26.8191
 20
-18.2334
 30
0.0
 10
27.9654
 20
-19.2574
 30
0.0
 10
27.9654
 20
-19.2574
 30
0.0
 10
27.9654
 20
-19.2574
 30
0.0
 10
28.0232
 20
-19.1869
 30
0.0
 10
28.0637
 20
-19.1215
 30
0.0
 10
28.0867
 20
-19.0617
 30
0.0
 10
28.0867
 20
-19.0617
 30
0.0
 10
28.1173
 20
-18.9837
 30
0.0
 10
28.1323
 20
-18.899
 30
0.0
 10
28.1323
 20
-18.8082
 30
0.0
 10
28.1323
 20
-18.8082
 30
0.0
 10
28.1323
 20
-18.6078
 30
0.0
 10
28.0618
 20
-18.4427
 30
0.0
 10
27.9202
 20
-18.312
 30
0.0
 10
27.9202
 20
-18.312
 30
0.0
 10
27.7786
 20
-18.1817
 30
0.0
 10
27.5801
 20
-18.1163
 30
0.0
 10
27.3247
 20
-18.1163
 30
0.0
 10
27.3247
 20
-18.1163
 30
0.0
 10
27.1338
 20
-18.1163
 30
0.0
 10
26.9649
 20
-18.1553
 30
0.0
 10
26.8191
 20
-18.2334
 30
0.0
  0
SPLINE
  5
F9
330
1F
100
AcDbEntity
  8
VRSTVA_1
 62
   250
100
AcDbSpline
210
0.0
220
0.0
230
1.0
 70
    11
 71
     3
 72
    48
 73
    44
 74
     0
 42
0.0000000001
 43
0.0000000001
 40
0.0
 40
0.0
 40
0.0
 40
0.0
 40
0.0833333333333333
 40
0.0833333333333333
 40
0.0833333333333333
 40
0.0833333333333333
 40
0.1666666666666667
 40
0.1666666666666667
 40
0.1666666666666667
 40
0.1666666666666667
 40
0.25
 40
0.25
 40
0.25
 40
0.25
 40
0.3333333333333333
 40
0.3333333333333333
 40
0.3333333333333333
 40
0.3333333333333333
 40
0.4166666666666667
 40
0.4166666666666667
 40
0.4166666666666667
 40
0.4166666666666667
 40
0.5
 40
0.5
 40
0.5
 40
0.5
 40
0.5833333333333334
 40
0.5833333333333334
 40
0.5833333333333334
 40
0.5833333333333334
 40
0.6666666666666666
 40
0.6666666666666666
 40
0.6666666666666666
 40
0.6666666666666666
 40
0.75
 40
0.75
 40
0.75
 40
0.75
 40
0.8333333333333334
 40
0.8333333333333334
 40
0.8333333333333334
 40
0.8333333333333334
 40
1.0
 40
1.0
 40
1.0
 40
1.0
 10
28.3266
 20
-16.7965
 30
0.0
 10
28.3266
 20
-16.7965
 30
0.0
 10
27.8431
 20
-16.7965
 30
0.0
 10
27.8431
 20
-16.7965
 30
0.0
 10
27.8431
 20
-16.7965
 30
0.0
 10
27.8431
 20
-16.7965
 30
0.0
 10
27.8431
 20
-17.6728
 30
0.0
 10
27.8431
 20
-17.6728
 30
0.0
 10
27.8431
 20
-17.6728
 30
0.0
 10
27.8431
 20
-17.6728
 30
0.0
 10
27.6154
 20
-17.6728
 30
0.0
 10
27.6154
 20
-17.6728
 30
0.0
 10
27.6154
 20
-17.6728
 30
0.0
 10
27.6154
 20
-17.6728
 30
0.0
 10
26.3064
 20
-16.7508
 30
0.0
 10
26.3064
 20
-16.7508
 30
0.0
 10
26.3064
 20
-16.7508
 30
0.0
 10
26.3064
 20
-16.7508
 30
0.0
 10
26.3064
 20
-16.5481
 30
0.0
 10
26.3064
 20
-16.5481
 30
0.0
 10
26.3064
 20
-16.5481
 30
0.0
 10
26.3064
 20
-16.5481
 30
0.0
 10
27.6154
 20
-16.5481
 30
0.0
 10
27.6154
 20
-16.5481
 30
0.0
 10
27.6154
 20
-16.5481
 30
0.0
 10
27.6154
 20
-16.5481
 30
0.0
 10
27.6154
 20
-16.2753
 30
0.0
 10
27.6154
 20
-16.2753
 30
0.0
 10
27.6154
 20
-16.2753
 30
0.0
 10
27.6154
 20
-16.2753
 30
0.0
 10
27.8431
 20
-16.2753
 30
0.0
 10
27.8431
 20
-16.2753
 30
0.0
 10
27.8431
 20
-16.2753
 30
0.0
 10
27.8431
 20
-16.2753
 30
0.0
 10
27.8431
 20
-16.5481
 30
0.0
 10
27.8431
 20
-16.5481
 30
0.0
 10
27.8431
 20
-16.5481
 30
0.0
 10
27.8431
 20
-16.5481
 30
0.0
 10
28.3266
 20
-16.5481
 30
0.0
 10
28.3266
 20
-16.5481
 30
0.0
 10
28.3266
 20
-16.5481
 30
0.0
 10
28.3266
 20
-16.5481
 30
0.0
 10
28.3266
 20
-16.7965
 30
0.0
 10
28.3266
 20
-16.7965
 30
0.0
  0
SPLINE
  5
FA
330
1F
100
AcDbEntity
  8
VRSTVA_1
 62
   250
100
AcDbSpline
210
0.0
220
0.0
230
1.0
 70
    11
 71
     3
 72
    16
 73
    12
 74
     0
 42
0.0000000001
 43
0.0000000001
 40
0.0
 40
0.0
 40
0.0
 40
0.0
 40
0.25
 40
0.25
 40
0.25
 40
0.25
 40
0.5
 40
0.5
 40
0.5
 40
0.5
 40
1.0
 40
1.0
 40
1.0
 40
1.0
 10
27.6154
 20
-16.7965
 30
0.0
 10
27.6154
 20
-16.7965
 30
0.0
 10
26.7048
 20
-16.7965
 30
0.0
 10
26.7048
 20
-16.7965
 30
0.0
 10
26.7048
 20
-16.7965
 30
0.0
 10
26.7048
 20
-16.7965
 30
0.0
 10
27.6154
 20
-17.4286
 30
0.0
 10
27.6154
 20
-17.4286
 30
0.0
 10
27.6154
 20
-17.4286
 30
0.0
 10
27.6154
 20
-17.4286
 30
0.0
 10
27.6154
 20
-16.7965
 30
0.0
 10
27.6154
 20
-16.7965
 30
0.0
  0
SPLINE
  5
FB
330
1F
100
AcDbEntity
  8
VRSTVA_1
 62
   250
100
AcDbSpline
210
0.0
220
0.0
230
1.0
 70
    11
 71
     3
 72
    52
 73
    48
 74
     0
 42
0.0000000001
 43
0.0000000001
 40
0.0
 40
0.0
 40
0.0
 40
0.0
 40
0.0769230769230769
 40
0.0769230769230769
 40
0.0769230769230769
 40
0.0769230769230769
 40
0.1538461538461539
 40
0.1538461538461539
 40
0.1538461538461539
 40
0.1538461538461539
 40
0.2307692307692308
 40
0.2307692307692308
 40
0.2307692307692308
 40
0.2307692307692308
 40
0.3076923076923077
 40
0.3076923076923077
 40
0.3076923076923077
 40
0.3076923076923077
 40
0.3846153846153846
 40
0.3846153846153846
 40
0.3846153846153846
 40
0.3846153846153846
 40
0.4615384615384616
 40
0.4615384615384616
 40
0.4615384615384616
 40
0.4615384615384616
 40
0.5384615384615384
 40
0.5384615384615384
 40
0.5384615384615384
 40
0.5384615384615384
 40
0.6153846153846154
 40
0.6153846153846154
 40
0.6153846153846154
 40
0.6153846153846154
 40
0.6923076923076923
 40
0.6923076923076923
 40
0.6923076923076923
 40
0.6923076923076923
 40
0.7692307692307693
 40
0.7692307692307693
 40
0.7692307692307693
 40
0.7692307692307693
 40
0.8461538461538461
 40
0.8461538461538461
 40
0.8461538461538461
 40
0.8461538461538461
 40
1.0
 40
1.0
 40
1.0
 40
1.0
 10
27.3304
 20
-16.0218
 30
0.0
 10
27.0914
 20
-16.0218
 30
0.0
 10
26.899
 20
-15.9973
 30
0.0
 10
26.7537
 20
-15.9479
 30
0.0
 10
26.7537
 20
-15.9479
 30
0.0
 10
26.6079
 20
-15.899
 30
0.0
 10
26.4955
 20
-15.8256
 30
0.0
 10
26.4164
 20
-15.7287
 30
0.0
 10
26.4164
 20
-15.7287
 30
0.0
 10
26.3374
 20
-15.6318
 30
0.0
 10
26.2979
 20
-15.51
 30
0.0
 10
26.2979
 20
-15.3633
 30
0.0
 10
26.2979
 20
-15.3633
 30
0.0
 10
26.2979
 20
-15.2546
 30
0.0
 10
26.32
 20
-15.1596
 30
0.0
 10
26.3638
 20
-15.0778
 30
0.0
 10
26.3638
 20
-15.0778
 30
0.0
 10
26.407
 20
-14.9959
 30
0.0
 10
26.4701
 20
-14.9286
 30
0.0
 10
26.5524
 20
-14.875
 30
0.0
 10
26.5524
 20
-14.875
 30
0.0
 10
26.6347
 20
-14.8219
 30
0.0
 10
26.7349
 20
-14.78
 30
0.0
 10
26.8529
 20
-14.7499
 30
0.0
 10
26.8529
 20
-14.7499
 30
0.0
 10
26.971
 20
-14.7193
 30
0.0
 10
27.13
 20
-14.7043
 30
0.0
 10
27.3304
 20
-14.7043
 30
0.0
 10
27.3304
 20
-14.7043
 30
0.0
 10
27.5674
 20
-14.7043
 30
0.0
 10
27.7584
 20
-14.7287
 30
0.0
 10
27.9042
 20
-14.7772
 30
0.0
 10
27.9042
 20
-14.7772
 30
0.0
 10
28.05
 20
-14.8261
 30
0.0
 10
28.1624
 20
-14.899
 30
0.0
 10
28.2419
 20
-14.9959
 30
0.0
 10
28.2419
 20
-14.9959
 30
0.0
 10
28.3214
 20
-15.0928
 30
0.0
 10
28.3609
 20
-15.2151
 30
0.0
 10
28.3609
 20
-15.3633
 30
0.0
 10
28.3609
 20
-15.3633
 30
0.0
 10
28.3609
 20
-15.558
 30
0.0
 10
28.2913
 20
-15.7109
 30
0.0
 10
28.1516
 20
-15.8219
 30
0.0
 10
28.1516
 20
-15.8219
 30
0.0
 10
27.9837
 20
-15.955
 30
0.0
 10
27.7095
 20
-16.0218
 30
0.0
 10
27.3304
 20
-16.0218
 30
0.0
  0
SPLINE
  5
FC
330
1F
100
AcDbEntity
  8
VRSTVA_1
 62
   250
100
AcDbSpline
210
0.0
220
0.0
230
1.0
 70
    11
 71
     3
 72
    36
 73
    32
 74
     0
 42
0.0000000001
 43
0.0000000001
 40
0.0
 40
0.0
 40
0.0
 40
0.0
 40
0.1111111111111111
 40
0.1111111111111111
 40
0.1111111111111111
 40
0.1111111111111111
 40
0.2222222222222222
 40
0.2222222222222222
 40
0.2222222222222222
 40
0.2222222222222222
 40
0.3333333333333333
 40
0.3333333333333333
 40
0.3333333333333333
 40
0.3333333333333333
 40
0.4444444444444444
 40
0.4444444444444444
 40
0.4444444444444444
 40
0.4444444444444444
 40
0.5555555555555556
 40
0.5555555555555556
 40
0.5555555555555556
 40
0.5555555555555556
 40
0.6666666666666666
 40
0.6666666666666666
 40
0.6666666666666666
 40
0.6666666666666666
 40
0.7777777777777778
 40
0.7777777777777778
 40
0.7777777777777778
 40
0.7777777777777778
 40
1.0
 40
1.0
 40
1.0
 40
1.0
 10
27.3304
 20
-15.7668
 30
0.0
 10
27.662
 20
-15.7668
 30
0.0
 10
27.8826
 20
-15.7278
 30
0.0
 10
27.9926
 20
-15.6502
 30
0.0
 10
27.9926
 20
-15.6502
 30
0.0
 10
28.1022
 20
-15.5726
 30
0.0
 10
28.1573
 20
-15.4771
 30
0.0
 10
28.1573
 20
-15.3633
 30
0.0
 10
28.1573
 20
-15.3633
 30
0.0
 10
28.1573
 20
-15.249
 30
0.0
 10
28.1018
 20
-15.1535
 30
0.0
 10
27.9917
 20
-15.0759
 30
0.0
 10
27.9917
 20
-15.0759
 30
0.0
 10
27.8816
 20
-14.9983
 30
0.0
 10
27.661
 20
-14.9592
 30
0.0
 10
27.3304
 20
-14.9592
 30
0.0
 10
27.3304
 20
-14.9592
 30
0.0
 10
26.9978
 20
-14.9592
 30
0.0
 10
26.7767
 20
-14.9983
 30
0.0
 10
26.6676
 20
-15.0759
 30
0.0
 10
26.6676
 20
-15.0759
 30
0.0
 10
26.558
 20
-15.1535
 30
0.0
 10
26.5035
 20
-15.2499
 30
0.0
 10
26.5035
 20
-15.3656
 30
0.0
 10
26.5035
 20
-15.3656
 30
0.0
 10
26.5035
 20
-15.4799
 30
0.0
 10
26.5519
 20
-15.5707
 30
0.0
 10
26.6483
 20
-15.6389
 30
0.0
 10
26.6483
 20
-15.6389
 30
0.0
 10
26.7711
 20
-15.724
 30
0.0
 10
26.9988
 20
-15.7668
 30
0.0
 10
27.3304
 20
-15.7668
 30
0.0
  0
SPLINE
  5
FD
330
1F
100
AcDbEntity
  8
VRSTVA_1
 62
   250
100
AcDbSpline
210
0.0
220
0.0
230
1.0
 70
    11
 71
     3
 72
    20
 73
    16
 74
     0
 42
0.0000000001
 43
0.0000000001
 40
0.0
 40
0.0
 40
0.0
 40
0.0
 40
0.2
 40
0.2
 40
0.2
 40
0.2
 40
0.4
 40
0.4
 40
0.4
 40
0.4
 40
0.6
 40
0.6
 40
0.6
 40
0.6
 40
1.0
 40
1.0
 40
1.0
 40
1.0
 10
28.4307
 20
-11.4876
 30
0.0
 10
28.4307
 20
-11.4876
 30
0.0
 10
28.8541
 20
-8.4876
 30
0.0
 10
28.8541
 20
-8.4876
 30
0.0
 10
28.8541
 20
-8.4876
 30
0.0
 10
28.8541
 20
-8.4876
 30
0.0
 10
28.9481
 20
-8.4876
 30
0.0
 10
28.9481
 20
-8.4876
 30
0.0
 10
28.9481
 20
-8.4876
 30
0.0
 10
28.9481
 20
-8.4876
 30
0.0
 10
29.3996
 20
-11.4876
 30
0.0
 10
29.3996
 20
-11.4876
 30
0.0
 10
29.3996
 20
-11.4876
 30
0.0
 10
29.3996
 20
-11.4876
 30
0.0
 10
28.4307
 20
-11.4876
 30
0.0
 10
28.4307
 20
-11.4876
 30
0.0
  0
SPLINE
  5
FE
330
1F
100
AcDbEntity
  8
VRSTVA_1
 62
   250
100
AcDbSpline
210
0.0
220
0.0
230
1.0
 70
    11
 71
     3
 72
    20
 73
    16
 74
     0
 42
0.0000000001
 43
0.0000000001
 40
0.0
 40
0.0
 40
0.0
 40
0.0
 40
0.2
 40
0.2
 40
0.2
 40
0.2
 40
0.4
 40
0.4
 40
0.4
 40
0.4
 40
0.6
 40
0.6
 40
0.6
 40
0.6
 40
1.0
 40
1.0
 40
1.0
 40
1.0
 10
29.4302
 20
-21.1622
 30
0.0
 10
29.4302
 20
-21.1622
 30
0.0
 10
29.0068
 20
-24.1622
 30
0.0
 10
29.0068
 20
-24.1622
 30
0.0
 10
29.0068
 20
-24.1622
 30
0.0
 10
29.0068
 20
-24.1622
 30
0.0
 10
28.9128
 20
-24.1622
 30
0.0
 10
28.9128
 20
-24.1622
 30
0.0
 10
28.9128
 20
-24.1622
 30
0.0
 10
28.9128
 20
-24.1622
 30
0.0
 10
28.4613
 20
-21.1622
 30
0.0
 10
28.4613
 20
-21.1622
 30
0.0
 10
28.4613
 20
-21.1622
 30
0.0
 10
28.4613
 20
-21.1622
 30
0.0
 10
29.4302
 20
-21.1622
 30
0.0
 10
29.4302
 20
-21.1622
 30
0.0
  0
ENDSEC
  0
SECTION
  2
OBJECTS
  0
DICTIONARY
  5
C
330
0
100
AcDbDictionary
  3
ACAD_GROUP
350
D
  3
ACAD_LAYOUT
350
1A
  3
ACAD_MATERIAL
350
3B
  3
ACAD_MLEADERSTYLE
350
121
  3
ACAD_MLINESTYLE
350
17
  3
ACAD_PLOTSETTINGS
350
19
  3
ACAD_VISUALSTYLE
350
2A
  3
ACDBHEADERROUNDTRIPXREC
350
FF
  3
ACDBVARIABLEDICTIONARY
350
11F
  0
DICTIONARY
  5
D
102
{ACAD_REACTORS
330
C
102
}
330
C
100
AcDbDictionary
  0
DICTIONARY
  5
1A
102
{ACAD_REACTORS
330
C
102
}
330
C
100
AcDbDictionary
  0
DICTIONARY
  5
3B
102
{ACAD_REACTORS
330
C
102
}
330
C
100
AcDbDictionary
  3
BYBLOCK
350
3D
  3
BYLAYER
350
3C
  3
GLOBAL
350
3E
  0
DICTIONARY
  5
121
102
{ACAD_REACTORS
330
C
102
}
330
C
100
AcDbDictionary
  0
DICTIONARY
  5
17
102
{ACAD_REACTORS
330
C
102
}
330
C
100
AcDbDictionary
  3
STANDARD
350
18
  0
DICTIONARY
  5
19
102
{ACAD_REACTORS
330
C
102
}
330
C
100
AcDbDictionary
  0
DICTIONARY
  5
2A
102
{ACAD_REACTORS
330
C
102
}
330
C
100
AcDbDictionary
  3
2DWIREFRAME
350
2F
  3
3D_HIDDEN
350
31
  3
3DWIREFRAME
350
30
  3
BASIC
350
32
  3
BRIGHTEN
350
36
  3
COLORCHANGE
350
3A
  3
CONCEPTUAL
350
34
  3
DIM
350
35
  3
FACEPATTERN
350
39
  3
FLAT
350
2B
  3
FLATWITHEDGES
350
2C
  3
GOURAUD
350
2D
  3
GOURAUDWITHEDGES
350
2E
  3
LINEPATTERN
350
38
  3
REALISTIC
350
33
  3
THICKEN
350
37
  0
DICTIONARY
  5
FF
102
{ACAD_REACTORS
330
C
102
}
330
C
100
AcDbDictionary
  3
CEPSNTYPE
350
108
  3
DIMSTYLEDATA
350
11E
  3
FINGERPRINTGUID
350
109
  3
HYPERLINKBASE
350
102
  3
INSUNITS
350
107
  3
LAYOUTDICT
350
104
  3
LWETCUNION
350
106
  3
PLOTSETDICT
350
105
  3
PSVPSCALE
350
10B
  3
PUCSBASE
350
10E
  3
PUCSORGBACK
350
114
  3
PUCSORGBOTTOM
350
110
  3
PUCSORGFRONT
350
113
  3
PUCSORGLEFT
350
111
  3
PUCSORGRIGHT
350
112
  3
PUCSORGTOP
350
10F
  3
PUCSORTHOREF
350
10C
  3
PUCSORTHOVIEW
350
10D
  3
STYLESHEET
350
103
  3
TSTACKALIGN
350
100
  3
TSTACKSIZE
350
101
  3
UCSBASE
350
117
  3
UCSORGBACK
350
11D
  3
UCSORGBOTTOM
350
119
  3
UCSORGFRONT
350
11C
  3
UCSORGLEFT
350
11A
  3
UCSORGRIGHT
350
11B
  3
UCSORGTOP
350
118
  3
UCSORTHOREF
350
115
  3
UCSORTHOVIEW
350
116
  3
VERSIONGUID
350
10A
  0
DICTIONARY
  5
11F
102
{ACAD_REACTORS
330
C
102
}
330
C
100
AcDbDictionary
  3
DIMASSOC
350
122
  3
HIDETEXT
350
123
  0
MATERIAL
  5
3D
102
{ACAD_REACTORS
330
3B
102
}
102
{ACAD_XDICTIONARY
360
126
102
}
330
3B
100
AcDbMaterial
  1
ByBlock
  0
MATERIAL
  5
3C
102
{ACAD_REACTORS
330
3B
102
}
102
{ACAD_XDICTIONARY
360
124
102
}
330
3B
100
AcDbMaterial
  1
ByLayer
  0
MATERIAL
  5
3E
102
{ACAD_REACTORS
330
3B
102
}
102
{ACAD_XDICTIONARY
360
128
102
}
330
3B
100
AcDbMaterial
  1
Global
  0
MLINESTYLE
  5
18
102
{ACAD_REACTORS
330
17
102
}
330
17
100
AcDbMlineStyle
  2
Standard
 70
     0
  3

 62
   256
 51
90.0
 52
90.0
 71
     2
 49
0.5
 62
   256
  6
BYLAYER
 49
-0.5
 62
   256
  6
BYLAYER
  0
ACAD_PROXY_OBJECT
  5
2F
102
{ACAD_REACTORS
330
2A
102
}
330
2A
100
AcDbProxyObject
 90
      499
 91
      501
 93
      436
310
42CC9915DA5C99599C985B595049028333333333333E3BF0000000000000FB0107901411070040501600405405064090741402480A0340
1001
ACAD
1000
AcDbSavedByObjectVersion
1070
     0
  0
ACAD_PROXY_OBJECT
  5
31
102
{ACAD_REACTORS
330
2A
102
}
330
2A
100
AcDbProxyObject
 90
      499
 91
      501
 93
      500
310
424CD108121A5919195B90640502408333333333333E3BF0000000000000FB01079024090700405020000000000001110200405405064090740C02480A0340
1001
ACAD
1000
AcDbSavedByObjectVersion
1070
     0
  0
ACAD_PROXY_OBJECT
  5
30
102
{ACAD_REACTORS
330
2A
102
}
330
2A
100
AcDbProxyObject
 90
      499
 91
      501
 93
      436
310
42CCD915DA5C99599C985B595059028333333333333E3BF0000000000000FB0107901411070040501600405405064090741402480A0340
1001
ACAD
1000
AcDbSavedByObjectVersion
1070
     0
  0
ACAD_PROXY_OBJECT
  5
32
102
{ACAD_REACTORS
330
2A
102
}
330
2A
100
AcDbProxyObject
 90
      499
 91
      501
 93
      388
310
4150985CDA58D07406404333333333333E3BF0000000000000FB0107A41107004050150841D405064090741402480A0350
1001
ACAD
1000
AcDbSavedByObjectVersion
1070
     0
  0
ACAD_PROXY_OBJECT
  5
36
102
{ACAD_REACTORS
330
2A
102
}
330
2A
100
AcDbProxyObject
 90
      499
 91
      501
 93
      428
310
42109C9A59DA1D195B90C409028333333333333E3BF0000000000000FB010790141107004050150841D405064090741402480A029950
1001
ACAD
1000
AcDbSavedByObjectVersion
1070
     0
  0
ACAD_PROXY_OBJECT
  5
3A
102
{ACAD_REACTORS
330
2A
102
}
330
2A
100
AcDbProxyObject
 90
      499
 91
      501
 93
      452
310
42D0DBDB1BDC90DA185B99D95104090240C333333333333E3BF0000000000000FB0108901411070040501508421405064090741402480A0350
1001
ACAD
1000
AcDbSavedByObjectVersion
1070
     0
  0
ACAD_PROXY_OBJECT
  5
34
102
{ACAD_REACTORS
330
2A
102
}
330
2A
100
AcDbProxyObject
 90
      499
 91
      501
 93
      500
310
4290DBDB98D95C1D1D585B10940D028333333333333E3BF0000000000000FB0107902409070040501000000000000111010841D405064090740C02480A0340
1001
ACAD
1000
AcDbSavedByObjectVersion
1070
     0
  0
ACAD_PROXY_OBJECT
  5
35
102
{ACAD_REACTORS
330
2A
102
}
330
2A
100
AcDbProxyObject
 90
      499
 91
      501
 93
      412
310
40D11A5B50B409028333333333333E3BF0000000000000FB010790141107004050150841D405064090741402480A02677FFFFFD0
1001
ACAD
1000
AcDbSavedByObjectVersion
1070
     0
  0
ACAD_PROXY_OBJECT
  5
39
102
{ACAD_REACTORS
330
2A
102
}
330
2A
100
AcDbProxyObject
 90
      499
 91
      501
 93
      444
310
42D19858D95C185D1D195C9B90F409028333333333333E3BF0000000000000FB010790141107004050150841D405064090741402480A0350
1001
ACAD
1000
AcDbSavedByObjectVersion
1070
     0
  0
ACAD_PROXY_OBJECT
  5
2B
102
{ACAD_REACTORS
330
2A
102
}
330
2A
100
AcDbProxyObject
 90
      499
 91
      501
 93
      388
310
41119B185D240901404333333333333E3BF0000000000000F9010740A41107004050150841D405064090741402480A1B50
1001
ACAD
1000
AcDbSavedByObjectVersion
1070
     0
  0
ACAD_PROXY_OBJECT
  5
2C
102
{ACAD_REACTORS
330
2A
102
}
330
2A
100
AcDbProxyObject
 90
      499
 91
      501
 93
      476
310
43519B185D15DA5D1A115919D95CD0140901404333333333333E3BF0000000000000F9010740901411070040501600405405064090741402480A1B50
1001
ACAD
1000
AcDbSavedByObjectVersion
1070
     0
  0
ACAD_PROXY_OBJECT
  5
2D
102
{ACAD_REACTORS
330
2A
102
}
330
2A
100
AcDbProxyObject
 90
      499
 91
      501
 93
      412
310
41D1DBDD5C985D5910240902404333333333333E3BF0000000000000F9010740A411070040501641D405064090741402480A1B50
1001
ACAD
1000
AcDbSavedByObjectVersion
1070
     0
  0
ACAD_PROXY_OBJECT
  5
2E
102
{ACAD_REACTORS
330
2A
102
}
330
2A
100
AcDbProxyObject
 90
      499
 91
      501
 93
      500
310
4411DBDD5C985D5915DA5D1A115919D95CD0340902404333333333333E3BF0000000000000F9010740901411070040501600405405064090741402480A1B50
1001
ACAD
1000
AcDbSavedByObjectVersion
1070
     0
  0
ACAD_PROXY_OBJECT
  5
38
102
{ACAD_REACTORS
330
2A
102
}
330
2A
100
AcDbProxyObject
 90
      499
 91
      501
 93
      444
310
42D31A5B995C185D1D195C9B90E409028333333333333E3BF0000000000000FB010790141107004050750841D405064090741402483A0350
1001
ACAD
1000
AcDbSavedByObjectVersion
1070
     0
  0
ACAD_PROXY_OBJECT
  5
33
102
{ACAD_REACTORS
330
2A
102
}
330
2A
100
AcDbProxyObject
 90
      499
 91
      501
 93
      420
310
425499585B1A5CDD1A58D08409028333333333333E3BF0000000000000FB01079019070040501508421405064090741402480A1B40
1001
ACAD
1000
AcDbSavedByObjectVersion
1070
     0
  0
ACAD_PROXY_OBJECT
  5
37
102
{ACAD_REACTORS
330
2A
102
}
330
2A
100
AcDbProxyObject
 90
      499
 91
      501
 93
      412
310
41D51A1A58DAD95B90D409028333333333333E3BF0000000000000FB010790141107004050150C41D405064090741402480A0350
1001
ACAD
1000
AcDbSavedByObjectVersion
1070
     0
  0
XRECORD
  5
108
102
{ACAD_REACTORS
330
FF
102
}
330
FF
100
AcDbXrecord
 90
        0
  0
XRECORD
  5
11E
102
{ACAD_REACTORS
330
FF
102
}
330
FF
100
AcDbXrecord
1000
DSTYLE
1002
{
1070
   340
340
11
1002
}
  0
XRECORD
  5
109
102
{ACAD_REACTORS
330
FF
102
}
330
FF
100
AcDbXrecord
  1
{D567273D-5375-4715-B3A8-E22A0D053AA0}
  0
XRECORD
  5
102
102
{ACAD_REACTORS
330
FF
102
}
330
FF
100
AcDbXrecord
  1

  0
XRECORD
  5
107
102
{ACAD_REACTORS
330
FF
102
}
330
FF
100
AcDbXrecord
 90
        4
  0
XRECORD
  5
104
102
{ACAD_REACTORS
330
FF
102
}
330
FF
100
AcDbXrecord
340
1A
  0
XRECORD
  5
106
102
{ACAD_REACTORS
330
FF
102
}
330
FF
100
AcDbXrecord
 90
    10781
  0
XRECORD
  5
105
102
{ACAD_REACTORS
330
FF
102
}
330
FF
100
AcDbXrecord
340
19
  0
XRECORD
  5
10B
102
{ACAD_REACTORS
330
FF
102
}
330
FF
100
AcDbXrecord
 40
0.0
  0
XRECORD
  5
10E
102
{ACAD_REACTORS
330
FF
102
}
330
FF
100
AcDbXrecord
340
0
  0
XRECORD
  5
114
102
{ACAD_REACTORS
330
FF
102
}
330
FF
100
AcDbXrecord
 10
0.0
 20
0.0
 30
0.0
  0
XRECORD
  5
110
102
{ACAD_REACTORS
330
FF
102
}
330
FF
100
AcDbXrecord
 10
0.0
 20
0.0
 30
0.0
  0
XRECORD
  5
113
102
{ACAD_REACTORS
330
FF
102
}
330
FF
100
AcDbXrecord
 10
0.0
 20
0.0
 30
0.0
  0
XRECORD
  5
111
102
{ACAD_REACTORS
330
FF
102
}
330
FF
100
AcDbXrecord
 10
0.0
 20
0.0
 30
0.0
  0
XRECORD
  5
112
102
{ACAD_REACTORS
330
FF
102
}
330
FF
100
AcDbXrecord
 10
0.0
 20
0.0
 30
0.0
  0
XRECORD
  5
10F
102
{ACAD_REACTORS
330
FF
102
}
330
FF
100
AcDbXrecord
 10
0.0
 20
0.0
 30
0.0
  0
XRECORD
  5
10C
102
{ACAD_REACTORS
330
FF
102
}
330
FF
100
AcDbXrecord
340
0
  0
XRECORD
  5
10D
102
{ACAD_REACTORS
330
FF
102
}
330
FF
100
AcDbXrecord
 70
     0
  0
XRECORD
  5
103
102
{ACAD_REACTORS
330
FF
102
}
330
FF
100
AcDbXrecord
  1

  0
XRECORD
  5
100
102
{ACAD_REACTORS
330
FF
102
}
330
FF
100
AcDbXrecord
 90
        1
  0
XRECORD
  5
101
102
{ACAD_REACTORS
330
FF
102
}
330
FF
100
AcDbXrecord
 90
       70
  0
XRECORD
  5
117
102
{ACAD_REACTORS
330
FF
102
}
330
FF
100
AcDbXrecord
340
0
  0
XRECORD
  5
11D
102
{ACAD_REACTORS
330
FF
102
}
330
FF
100
AcDbXrecord
 10
0.0
 20
0.0
 30
0.0
  0
XRECORD
  5
119
102
{ACAD_REACTORS
330
FF
102
}
330
FF
100
AcDbXrecord
 10
0.0
 20
0.0
 30
0.0
  0
XRECORD
  5
11C
102
{ACAD_REACTORS
330
FF
102
}
330
FF
100
AcDbXrecord
 10
0.0
 20
0.0
 30
0.0
  0
XRECORD
  5
11A
102
{ACAD_REACTORS
330
FF
102
}
330
FF
100
AcDbXrecord
 10
0.0
 20
0.0
 30
0.0
  0
XRECORD
  5
11B
102
{ACAD_REACTORS
330
FF
102
}
330
FF
100
AcDbXrecord
 10
0.0
 20
0.0
 30
0.0
  0
XRECORD
  5
118
102
{ACAD_REACTORS
330
FF
102
}
330
FF
100
AcDbXrecord
 10
0.0
 20
0.0
 30
0.0
  0
XRECORD
  5
115
102
{ACAD_REACTORS
330
FF
102
}
330
FF
100
AcDbXrecord
340
0
  0
XRECORD
  5
116
102
{ACAD_REACTORS
330
FF
102
}
330
FF
100
AcDbXrecord
 70
     0
  0
XRECORD
  5
10A
102
{ACAD_REACTORS
330
FF
102
}
330
FF
100
AcDbXrecord
  1
{FAEB1C32-E019-11D5-929B-00C0DF256EC4}
  0
DICTIONARYVAR
  5
122
102
{ACAD_REACTORS
330
11F
102
}
330
11F
100
DictionaryVariables
280
     0
  1
2
  0
DICTIONARYVAR
  5
123
102
{ACAD_REACTORS
330
11F
102
}
330
11F
100
DictionaryVariables
280
     0
  1
1
  0
DICTIONARY
  5
126
330
3D
100
AcDbDictionary
280
     1
  3
ACAD_XREC_ROUNDTRIP
360
127
  0
DICTIONARY
  5
124
330
3C
100
AcDbDictionary
280
     1
  3
ACAD_XREC_ROUNDTRIP
360
125
  0
DICTIONARY
  5
128
330
3E
100
AcDbDictionary
280
     1
  3
ACAD_XREC_ROUNDTRIP
360
129
  0
XRECORD
  5
127
102
{ACAD_REACTORS
330
126
102
}
330
126
100
AcDbXrecord
102
MATERIAL
148
0.0
149
0.0
149
0.0
 93
        0
 94
      127
282
     0
 72
     1
 77
     1
171
     1
175
     1
179
     1
273
     0
  0
XRECORD
  5
125
102
{ACAD_REACTORS
330
124
102
}
330
124
100
AcDbXrecord
102
MATERIAL
148
0.0
149
0.0
149
0.0
 93
        0
 94
      127
282
     0
 72
     1
 77
     1
171
     1
175
     1
179
     1
273
     0
  0
XRECORD
  5
129
102
{ACAD_REACTORS
330
128
102
}
330
128
100
AcDbXrecord
102
MATERIAL
148
0.0
149
0.0
149
0.0
 93
        0
 94
      127
282
     0
 72
     1
 77
     1
171
     1
175
     1
179
     1
273
     0
  0
ENDSEC
  0
EOF
