  0
SECTION
  2
HEADER
  9
$ACADVER
  1
AC1014
  9
$ACADMAINTVER
 70
     9
  9
$DWGCODEPAGE
  3
ANSI_1250
  9
$INSBASE
 10
0.0
 20
0.0
 30
0.0
  9
$EXTMIN
 10
-34.7135
 20
-29.2602
 30
0.0
  9
$EXTMAX
 10
34.7134
 20
29.1897
 30
0.0
  9
$LIMMIN
 10
0.0
 20
0.0
  9
$LIMMAX
 10
12.0
 20
9.0
  9
$ORTHOMODE
 70
     0
  9
$REGENMODE
 70
     1
  9
$FILLMODE
 70
     1
  9
$QTEXTMODE
 70
     0
  9
$MIRRTEXT
 70
     1
  9
$DRAGMODE
 70
     2
  9
$LTSCALE
 40
1.0
  9
$OSMODE
 70
    37
  9
$ATTMODE
 70
     1
  9
$TEXTSIZE
 40
0.2
  9
$TRACEWID
 40
0.05
  9
$TEXTSTYLE
  7
STANDARD
  9
$CLAYER
  8
0
  9
$CELTYPE
  6
BYLAYER
  9
$CECOLOR
 62
   256
  9
$CELTSCALE
 40
1.0
  9
$DELOBJ
 70
     1
  9
$DISPSILH
 70
     0
  9
$DIMSCALE
 40
1.0
  9
$DIMASZ
 40
0.18
  9
$DIMEXO
 40
0.0625
  9
$DIMDLI
 40
0.38
  9
$DIMRND
 40
0.0
  9
$DIMDLE
 40
0.0
  9
$DIMEXE
 40
0.18
  9
$DIMTP
 40
0.0
  9
$DIMTM
 40
0.0
  9
$DIMTXT
 40
0.18
  9
$DIMCEN
 40
0.09
  9
$DIMTSZ
 40
0.0
  9
$DIMTOL
 70
     0
  9
$DIMLIM
 70
     0
  9
$DIMTIH
 70
     1
  9
$DIMTOH
 70
     1
  9
$DIMSE1
 70
     0
  9
$DIMSE2
 70
     0
  9
$DIMTAD
 70
     0
  9
$DIMZIN
 70
     0
  9
$DIMBLK
  1

  9
$DIMASO
 70
     1
  9
$DIMSHO
 70
     1
  9
$DIMPOST
  1

  9
$DIMAPOST
  1

  9
$DIMALT
 70
     0
  9
$DIMALTD
 70
     2
  9
$DIMALTF
 40
25.4
  9
$DIMLFAC
 40
1.0
  9
$DIMTOFL
 70
     0
  9
$DIMTVP
 40
0.0
  9
$DIMTIX
 70
     0
  9
$DIMSOXD
 70
     0
  9
$DIMSAH
 70
     0
  9
$DIMBLK1
  1

  9
$DIMBLK2
  1

  9
$DIMSTYLE
  2
STANDARD
  9
$DIMCLRD
 70
     0
  9
$DIMCLRE
 70
     0
  9
$DIMCLRT
 70
     0
  9
$DIMTFAC
 40
1.0
  9
$DIMGAP
 40
0.09
  9
$DIMJUST
 70
     0
  9
$DIMSD1
 70
     0
  9
$DIMSD2
 70
     0
  9
$DIMTOLJ
 70
     1
  9
$DIMTZIN
 70
     0
  9
$DIMALTZ
 70
     0
  9
$DIMALTTZ
 70
     0
  9
$DIMFIT
 70
     3
  9
$DIMUPT
 70
     0
  9
$DIMUNIT
 70
     2
  9
$DIMDEC
 70
     4
  9
$DIMTDEC
 70
     4
  9
$DIMALTU
 70
     2
  9
$DIMALTTD
 70
     2
  9
$DIMTXSTY
  7
STANDARD
  9
$DIMAUNIT
 70
     0
  9
$LUNITS
 70
     2
  9
$LUPREC
 70
     4
  9
$SKETCHINC
 40
0.1
  9
$FILLETRAD
 40
0.5
  9
$AUNITS
 70
     0
  9
$AUPREC
 70
     0
  9
$MENU
  1
.
  9
$ELEVATION
 40
0.0
  9
$PELEVATION
 40
0.0
  9
$THICKNESS
 40
0.0
  9
$LIMCHECK
 70
     0
  9
$CHAMFERA
 40
0.5
  9
$CHAMFERB
 40
0.5
  9
$CHAMFERC
 40
1.0
  9
$CHAMFERD
 40
0.0
  9
$SKPOLY
 70
     0
  9
$TDCREATE
 40
2456240.624039884
  9
$TDUPDATE
 40
2456240.624039896
  9
$TDINDWG
 40
0.0000000116
  9
$TDUSRTIMER
 40
0.0000000116
  9
$USRTIMER
 70
     1
  9
$ANGBASE
 50
0.0
  9
$ANGDIR
 70
     0
  9
$PDMODE
 70
     0
  9
$PDSIZE
 40
0.0
  9
$PLINEWID
 40
0.0
  9
$COORDS
 70
     1
  9
$SPLFRAME
 70
     0
  9
$SPLINETYPE
 70
     6
  9
$SPLINESEGS
 70
     8
  9
$ATTDIA
 70
     0
  9
$ATTREQ
 70
     1
  9
$HANDLING
 70
     1
  9
$HANDSEED
  5
141
  9
$SURFTAB1
 70
     6
  9
$SURFTAB2
 70
     6
  9
$SURFTYPE
 70
     6
  9
$SURFU
 70
     6
  9
$SURFV
 70
     6
  9
$UCSNAME
  2

  9
$UCSORG
 10
0.0
 20
0.0
 30
0.0
  9
$UCSXDIR
 10
1.0
 20
0.0
 30
0.0
  9
$UCSYDIR
 10
0.0
 20
1.0
 30
0.0
  9
$PUCSNAME
  2

  9
$PUCSORG
 10
0.0
 20
0.0
 30
0.0
  9
$PUCSXDIR
 10
1.0
 20
0.0
 30
0.0
  9
$PUCSYDIR
 10
0.0
 20
1.0
 30
0.0
  9
$USERI1
 70
     0
  9
$USERI2
 70
     0
  9
$USERI3
 70
     0
  9
$USERI4
 70
     0
  9
$USERI5
 70
     0
  9
$USERR1
 40
0.0
  9
$USERR2
 40
0.0
  9
$USERR3
 40
0.0
  9
$USERR4
 40
0.0
  9
$USERR5
 40
0.0
  9
$WORLDVIEW
 70
     1
  9
$SHADEDGE
 70
     3
  9
$SHADEDIF
 70
    70
  9
$TILEMODE
 70
     1
  9
$MAXACTVP
 70
    64
  9
$PINSBASE
 10
0.0
 20
0.0
 30
0.0
  9
$PLIMCHECK
 70
     0
  9
$PEXTMIN
 10
1.000000000000000E+20
 20
1.000000000000000E+20
 30
1.000000000000000E+20
  9
$PEXTMAX
 10
-1.000000000000000E+20
 20
-1.000000000000000E+20
 30
-1.000000000000000E+20
  9
$PLIMMIN
 10
0.0
 20
0.0
  9
$PLIMMAX
 10
12.0
 20
9.0
  9
$UNITMODE
 70
     0
  9
$VISRETAIN
 70
     1
  9
$PLINEGEN
 70
     0
  9
$PSLTSCALE
 70
     1
  9
$TREEDEPTH
 70
  3020
  9
$PICKSTYLE
 70
     1
  9
$CMLSTYLE
  2
STANDARD
  9
$CMLJUST
 70
     0
  9
$CMLSCALE
 40
1.0
  9
$PROXYGRAPHICS
 70
     1
  9
$MEASUREMENT
 70
     0
  0
ENDSEC
  0
SECTION
  2
CLASSES
  0
CLASS
  1
ACDBDICTIONARYWDFLT
  2
AcDbDictionaryWithDefault
  3
ObjectDBX Classes
 90
        0
280
     0
281
     0
  0
CLASS
  1
VISUALSTYLE
  2
AcDbVisualStyle
  3
ObjectDBX Classes
 90
     4095
280
     0
281
     0
  0
CLASS
  1
MATERIAL
  2
AcDbMaterial
  3
ObjectDBX Classes
 90
     1153
280
     0
281
     0
  0
CLASS
  1
DICTIONARYVAR
  2
AcDbDictionaryVar
  3
ObjectDBX Classes
 90
        0
280
     0
281
     0
  0
CLASS
  1
XRECORD
  2
AcDbXrecord
  3
AutoCAD 2000
 90
        0
280
     0
281
     0
  0
CLASS
  1
LWPOLYLINE
  2
AcDbPolyline
  3
AutoCAD 2000
 90
        0
280
     0
281
     1
  0
CLASS
  1
HATCH
  2
AcDbHatch
  3
AutoCAD 2000
 90
        0
280
     0
281
     1
  0
CLASS
  1
ACDBPLACEHOLDER
  2
AcDbPlaceHolder
  3
ObjectDBX Classes
 90
        0
280
     0
281
     0
  0
CLASS
  1
LAYOUT
  2
AcDbLayout
  3
ObjectDBX Classes
 90
        0
280
     0
281
     0
  0
ENDSEC
  0
SECTION
  2
TABLES
  0
TABLE
  2
VPORT
  5
8
330
0
100
AcDbSymbolTable
 70
     1
  0
VPORT
  5
29
330
8
100
AcDbSymbolTableRecord
100
AcDbViewportTableRecord
  2
*ACTIVE
 70
     0
 10
0.0
 20
0.0
 11
1.0
 21
1.0
 12
10.42990654205607
 22
4.5
 13
0.0
 23
0.0
 14
0.5
 24
0.5
 15
0.5
 25
0.5
 16
0.0
 26
0.0
 36
1.0
 17
0.0
 27
0.0
 37
0.0
 40
9.0
 41
1.972972972850329
 42
50.0
 43
0.0
 44
0.0
 50
0.0
 51
0.0
 71
     0
 72
   100
 73
     1
 74
     3
 75
     0
 76
     0
 77
     0
 78
     0
  0
ENDTAB
  0
TABLE
  2
LTYPE
  5
5
330
0
100
AcDbSymbolTable
 70
     1
  0
LTYPE
  5
14
330
5
100
AcDbSymbolTableRecord
100
AcDbLinetypeTableRecord
  2
BYBLOCK
 70
     0
  3

 72
    65
 73
     0
 40
0.0
  0
LTYPE
  5
15
330
5
100
AcDbSymbolTableRecord
100
AcDbLinetypeTableRecord
  2
BYLAYER
 70
     0
  3

 72
    65
 73
     0
 40
0.0
  0
LTYPE
  5
16
330
5
100
AcDbSymbolTableRecord
100
AcDbLinetypeTableRecord
  2
CONTINUOUS
 70
     0
  3
Solid line
 72
    65
 73
     0
 40
0.0
  0
ENDTAB
  0
TABLE
  2
LAYER
  5
2
330
0
100
AcDbSymbolTable
 70
     2
  0
LAYER
  5
10
330
2
100
AcDbSymbolTableRecord
100
AcDbLayerTableRecord
  2
0
 70
     0
 62
     7
  6
CONTINUOUS
  0
LAYER
  5
40
330
2
100
AcDbSymbolTableRecord
100
AcDbLayerTableRecord
  2
VRSTVA_1
 70
     0
 62
     7
  6
CONTINUOUS
  0
ENDTAB
  0
TABLE
  2
STYLE
  5
3
330
0
100
AcDbSymbolTable
 70
     1
  0
STYLE
  5
11
330
3
100
AcDbSymbolTableRecord
100
AcDbTextStyleTableRecord
  2
STANDARD
 70
     0
 40
0.0
 41
1.0
 50
0.0
 71
     0
 42
0.2
  3
txt
  4

  0
ENDTAB
  0
TABLE
  2
VIEW
  5
6
330
0
100
AcDbSymbolTable
 70
     0
  0
ENDTAB
  0
TABLE
  2
UCS
  5
7
330
0
100
AcDbSymbolTable
 70
     0
  0
ENDTAB
  0
TABLE
  2
APPID
  5
9
330
0
100
AcDbSymbolTable
 70
     2
  0
APPID
  5
12
330
9
100
AcDbSymbolTableRecord
100
AcDbRegAppTableRecord
  2
ACAD
 70
     0
  0
APPID
  5
3F
330
9
100
AcDbSymbolTableRecord
100
AcDbRegAppTableRecord
  2
ODA
 70
     0
  0
ENDTAB
  0
TABLE
  2
DIMSTYLE
  5
A
330
0
100
AcDbSymbolTable
 70
     1
  0
DIMSTYLE
105
27
330
A
100
AcDbSymbolTableRecord
100
AcDbDimStyleTableRecord
  2
STANDARD
 70
     0
  3

  4

  5

  6

  7

 40
1.0
 41
0.18
 42
0.0625
 43
0.38
 44
0.18
 45
0.0
 46
0.0
 47
0.0
 48
0.0
140
0.18
141
0.09
142
0.0
143
25.4
144
1.0
145
0.0
146
1.0
147
0.09
 71
     0
 72
     0
 73
     1
 74
     1
 75
     0
 76
     0
 77
     0
 78
     0
170
     0
171
     2
172
     0
173
     0
174
     0
175
     0
176
     0
177
     0
178
     0
270
     2
271
     4
272
     4
273
     2
274
     2
340
11
275
     0
280
     0
281
     0
282
     0
283
     1
284
     0
285
     0
286
     0
287
     3
288
     0
  0
ENDTAB
  0
TABLE
  2
BLOCK_RECORD
  5
1
330
0
100
AcDbSymbolTable
 70
     1
  0
BLOCK_RECORD
  5
1F
330
1
100
AcDbSymbolTableRecord
100
AcDbBlockTableRecord
  2
*MODEL_SPACE
  0
BLOCK_RECORD
  5
1B
330
1
100
AcDbSymbolTableRecord
100
AcDbBlockTableRecord
  2
*PAPER_SPACE
  0
ENDTAB
  0
ENDSEC
  0
SECTION
  2
BLOCKS
  0
BLOCK
  5
20
330
1F
100
AcDbEntity
  8
0
100
AcDbBlockBegin
  2
*MODEL_SPACE
 70
     0
 10
0.0
 20
0.0
 30
0.0
  3
*MODEL_SPACE
  1

  0
ENDBLK
  5
21
330
1F
100
AcDbEntity
  8
0
100
AcDbBlockEnd
  0
BLOCK
  5
1C
330
1B
100
AcDbEntity
 67
     1
  8
0
100
AcDbBlockBegin
  2
*PAPER_SPACE
 70
     0
 10
0.0
 20
0.0
 30
0.0
  3
*PAPER_SPACE
  1

  0
ENDBLK
  5
1D
330
1B
100
AcDbEntity
 67
     1
  8
0
100
AcDbBlockEnd
  0
ENDSEC
  0
SECTION
  2
ENTITIES
  0
SPLINE
  5
41
330
1F
100
AcDbEntity
  8
VRSTVA_1
100
AcDbSpline
210
0.0
220
0.0
230
1.0
 70
     8
 71
     3
 72
    28
 73
    24
 74
     0
 42
0.0000000001
 43
0.0000000001
 40
0.0
 40
0.0
 40
0.0
 40
0.0
 40
0.1428571428571428
 40
0.1428571428571428
 40
0.1428571428571428
 40
0.1428571428571428
 40
0.2857142857142857
 40
0.2857142857142857
 40
0.2857142857142857
 40
0.2857142857142857
 40
0.4285714285714285
 40
0.4285714285714285
 40
0.4285714285714285
 40
0.4285714285714285
 40
0.5714285714285714
 40
0.5714285714285714
 40
0.5714285714285714
 40
0.5714285714285714
 40
0.7142857142857143
 40
0.7142857142857143
 40
0.7142857142857143
 40
0.7142857142857143
 40
1.0
 40
1.0
 40
1.0
 40
1.0
 10
27.7636
 20
-8.2664
 30
0.0
 10
27.7636
 20
-8.2664
 30
0.0
 10
27.7344
 20
-8.4252
 30
0.0
 10
27.7344
 20
-8.4252
 30
0.0
 10
27.7344
 20
-8.4252
 30
0.0
 10
27.7344
 20
-8.4252
 30
0.0
 10
27.6485
 20
-8.576
 30
0.0
 10
27.6485
 20
-8.576
 30
0.0
 10
27.6485
 20
-8.576
 30
0.0
 10
27.6485
 20
-8.576
 30
0.0
 10
27.5117
 20
-8.7076
 30
0.0
 10
27.5117
 20
-8.7076
 30
0.0
 10
27.5117
 20
-8.7076
 30
0.0
 10
27.5117
 20
-8.7076
 30
0.0
 10
27.3333
 20
-8.8099
 30
0.0
 10
27.3333
 20
-8.8099
 30
0.0
 10
27.3333
 20
-8.8099
 30
0.0
 10
27.3333
 20
-8.8099
 30
0.0
 10
27.1258
 20
-8.8747
 30
0.0
 10
27.1258
 20
-8.8747
 30
0.0
 10
27.1258
 20
-8.8747
 30
0.0
 10
27.1258
 20
-8.8747
 30
0.0
 10
26.9033
 20
-8.8969
 30
0.0
 10
26.9033
 20
-8.8969
 30
0.0
  0
SPLINE
  5
42
330
1F
100
AcDbEntity
  8
VRSTVA_1
100
AcDbSpline
210
0.0
220
0.0
230
1.0
 70
     8
 71
     3
 72
    28
 73
    24
 74
     0
 42
0.0000000001
 43
0.0000000001
 40
0.0
 40
0.0
 40
0.0
 40
0.0
 40
0.1428571428571428
 40
0.1428571428571428
 40
0.1428571428571428
 40
0.1428571428571428
 40
0.2857142857142857
 40
0.2857142857142857
 40
0.2857142857142857
 40
0.2857142857142857
 40
0.4285714285714285
 40
0.4285714285714285
 40
0.4285714285714285
 40
0.4285714285714285
 40
0.5714285714285714
 40
0.5714285714285714
 40
0.5714285714285714
 40
0.5714285714285714
 40
0.7142857142857143
 40
0.7142857142857143
 40
0.7142857142857143
 40
0.7142857142857143
 40
1.0
 40
1.0
 40
1.0
 40
1.0
 10
27.7636
 20
-8.4185
 30
0.0
 10
27.7636
 20
-8.4185
 30
0.0
 10
27.7347
 20
-8.5764
 30
0.0
 10
27.7347
 20
-8.5764
 30
0.0
 10
27.7347
 20
-8.5764
 30
0.0
 10
27.7347
 20
-8.5764
 30
0.0
 10
27.6475
 20
-8.7294
 30
0.0
 10
27.6475
 20
-8.7294
 30
0.0
 10
27.6475
 20
-8.7294
 30
0.0
 10
27.6475
 20
-8.7294
 30
0.0
 10
27.5113
 20
-8.8601
 30
0.0
 10
27.5113
 20
-8.8601
 30
0.0
 10
27.5113
 20
-8.8601
 30
0.0
 10
27.5113
 20
-8.8601
 30
0.0
 10
27.3346
 20
-8.9617
 30
0.0
 10
27.3346
 20
-8.9617
 30
0.0
 10
27.3346
 20
-8.9617
 30
0.0
 10
27.3346
 20
-8.9617
 30
0.0
 10
27.1244
 20
-9.0274
 30
0.0
 10
27.1244
 20
-9.0274
 30
0.0
 10
27.1244
 20
-9.0274
 30
0.0
 10
27.1244
 20
-9.0274
 30
0.0
 10
26.9033
 20
-9.0493
 30
0.0
 10
26.9033
 20
-9.0493
 30
0.0
  0
SPLINE
  5
43
330
1F
100
AcDbEntity
  8
VRSTVA_1
100
AcDbSpline
210
0.0
220
0.0
230
1.0
 70
     8
 71
     3
 72
    28
 73
    24
 74
     0
 42
0.0000000001
 43
0.0000000001
 40
0.0
 40
0.0
 40
0.0
 40
0.0
 40
0.1428571428571428
 40
0.1428571428571428
 40
0.1428571428571428
 40
0.1428571428571428
 40
0.2857142857142857
 40
0.2857142857142857
 40
0.2857142857142857
 40
0.2857142857142857
 40
0.4285714285714285
 40
0.4285714285714285
 40
0.4285714285714285
 40
0.4285714285714285
 40
0.5714285714285714
 40
0.5714285714285714
 40
0.5714285714285714
 40
0.5714285714285714
 40
0.7142857142857143
 40
0.7142857142857143
 40
0.7142857142857143
 40
0.7142857142857143
 40
1.0
 40
1.0
 40
1.0
 40
1.0
 10
27.7636
 20
-24.9954
 30
0.0
 10
27.7636
 20
-24.9954
 30
0.0
 10
27.7344
 20
-24.8367
 30
0.0
 10
27.7344
 20
-24.8367
 30
0.0
 10
27.7344
 20
-24.8367
 30
0.0
 10
27.7344
 20
-24.8367
 30
0.0
 10
27.6485
 20
-24.6859
 30
0.0
 10
27.6485
 20
-24.6859
 30
0.0
 10
27.6485
 20
-24.6859
 30
0.0
 10
27.6485
 20
-24.6859
 30
0.0
 10
27.5117
 20
-24.5542
 30
0.0
 10
27.5117
 20
-24.5542
 30
0.0
 10
27.5117
 20
-24.5542
 30
0.0
 10
27.5117
 20
-24.5542
 30
0.0
 10
27.3333
 20
-24.4519
 30
0.0
 10
27.3333
 20
-24.4519
 30
0.0
 10
27.3333
 20
-24.4519
 30
0.0
 10
27.3333
 20
-24.4519
 30
0.0
 10
27.1258
 20
-24.3871
 30
0.0
 10
27.1258
 20
-24.3871
 30
0.0
 10
27.1258
 20
-24.3871
 30
0.0
 10
27.1258
 20
-24.3871
 30
0.0
 10
26.9033
 20
-24.3649
 30
0.0
 10
26.9033
 20
-24.3649
 30
0.0
  0
SPLINE
  5
44
330
1F
100
AcDbEntity
  8
VRSTVA_1
100
AcDbSpline
210
0.0
220
0.0
230
1.0
 70
     8
 71
     3
 72
    48
 73
    44
 74
     0
 42
0.0000000001
 43
0.0000000001
 40
0.0
 40
0.0
 40
0.0
 40
0.0
 40
0.0833333333333333
 40
0.0833333333333333
 40
0.0833333333333333
 40
0.0833333333333333
 40
0.1666666666666667
 40
0.1666666666666667
 40
0.1666666666666667
 40
0.1666666666666667
 40
0.25
 40
0.25
 40
0.25
 40
0.25
 40
0.3333333333333333
 40
0.3333333333333333
 40
0.3333333333333333
 40
0.3333333333333333
 40
0.4166666666666667
 40
0.4166666666666667
 40
0.4166666666666667
 40
0.4166666666666667
 40
0.5
 40
0.5
 40
0.5
 40
0.5
 40
0.5833333333333334
 40
0.5833333333333334
 40
0.5833333333333334
 40
0.5833333333333334
 40
0.6666666666666666
 40
0.6666666666666666
 40
0.6666666666666666
 40
0.6666666666666666
 40
0.75
 40
0.75
 40
0.75
 40
0.75
 40
0.8333333333333334
 40
0.8333333333333334
 40
0.8333333333333334
 40
0.8333333333333334
 40
1.0
 40
1.0
 40
1.0
 40
1.0
 10
17.7814
 20
-26.0942
 30
0.0
 10
17.7814
 20
-26.0942
 30
0.0
 10
17.7956
 20
-26.0838
 30
0.0
 10
17.7956
 20
-26.0838
 30
0.0
 10
17.7956
 20
-26.0838
 30
0.0
 10
17.7956
 20
-26.0838
 30
0.0
 10
17.839
 20
-26.049
 30
0.0
 10
17.839
 20
-26.049
 30
0.0
 10
17.839
 20
-26.049
 30
0.0
 10
17.839
 20
-26.049
 30
0.0
 10
17.9081
 20
-25.9829
 30
0.0
 10
17.9081
 20
-25.9829
 30
0.0
 10
17.9081
 20
-25.9829
 30
0.0
 10
17.9081
 20
-25.9829
 30
0.0
 10
17.9926
 20
-25.8771
 30
0.0
 10
17.9926
 20
-25.8771
 30
0.0
 10
17.9926
 20
-25.8771
 30
0.0
 10
17.9926
 20
-25.8771
 30
0.0
 10
18.0739
 20
-25.729
 30
0.0
 10
18.0739
 20
-25.729
 30
0.0
 10
18.0739
 20
-25.729
 30
0.0
 10
18.0739
 20
-25.729
 30
0.0
 10
18.1337
 20
-25.5464
 30
0.0
 10
18.1337
 20
-25.5464
 30
0.0
 10
18.1337
 20
-25.5464
 30
0.0
 10
18.1337
 20
-25.5464
 30
0.0
 10
18.1625
 20
-25.3426
 30
0.0
 10
18.1625
 20
-25.3426
 30
0.0
 10
18.1625
 20
-25.3426
 30
0.0
 10
18.1625
 20
-25.3426
 30
0.0
 10
18.1596
 20
-25.1304
 30
0.0
 10
18.1596
 20
-25.1304
 30
0.0
 10
18.1596
 20
-25.1304
 30
0.0
 10
18.1596
 20
-25.1304
 30
0.0
 10
18.1283
 20
-24.9184
 30
0.0
 10
18.1283
 20
-24.9184
 30
0.0
 10
18.1283
 20
-24.9184
 30
0.0
 10
18.1283
 20
-24.9184
 30
0.0
 10
18.0732
 20
-24.7112
 30
0.0
 10
18.0732
 20
-24.7112
 30
0.0
 10
18.0732
 20
-24.7112
 30
0.0
 10
18.0732
 20
-24.7112
 30
0.0
 10
17.9978
 20
-24.5098
 30
0.0
 10
17.9978
 20
-24.5098
 30
0.0
  0
SPLINE
  5
45
330
1F
100
AcDbEntity
  8
VRSTVA_1
100
AcDbSpline
210
0.0
220
0.0
230
1.0
 70
     8
 71
     3
 72
    12
 73
     8
 74
     0
 42
0.0000000001
 43
0.0000000001
 40
0.0
 40
0.0
 40
0.0
 40
0.0
 40
0.3333333333333333
 40
0.3333333333333333
 40
0.3333333333333333
 40
0.3333333333333333
 40
1.0
 40
1.0
 40
1.0
 40
1.0
 10
17.5885
 20
-26.1399
 30
0.0
 10
17.5885
 20
-26.1399
 30
0.0
 10
17.5978
 20
-26.1315
 30
0.0
 10
17.5978
 20
-26.1315
 30
0.0
 10
17.5978
 20
-26.1315
 30
0.0
 10
17.5978
 20
-26.1315
 30
0.0
 10
17.6263
 20
-26.1035
 30
0.0
 10
17.6263
 20
-26.1035
 30
0.0
  0
SPLINE
  5
46
330
1F
100
AcDbEntity
  8
VRSTVA_1
100
AcDbSpline
210
0.0
220
0.0
230
1.0
 70
     8
 71
     3
 72
    40
 73
    36
 74
     0
 42
0.0000000001
 43
0.0000000001
 40
0.0
 40
0.0
 40
0.0
 40
0.0
 40
0.1
 40
0.1
 40
0.1
 40
0.1
 40
0.2
 40
0.2
 40
0.2
 40
0.2
 40
0.3
 40
0.3
 40
0.3
 40
0.3
 40
0.4
 40
0.4
 40
0.4
 40
0.4
 40
0.5
 40
0.5
 40
0.5
 40
0.5
 40
0.6
 40
0.6
 40
0.6
 40
0.6
 40
0.7
 40
0.7
 40
0.7
 40
0.7
 40
0.8
 40
0.8
 40
0.8
 40
0.8
 40
1.0
 40
1.0
 40
1.0
 40
1.0
 10
17.6263
 20
-26.1035
 30
0.0
 10
17.6263
 20
-26.1035
 30
0.0
 10
17.6703
 20
-26.0503
 30
0.0
 10
17.6703
 20
-26.0503
 30
0.0
 10
17.6703
 20
-26.0503
 30
0.0
 10
17.6703
 20
-26.0503
 30
0.0
 10
17.7214
 20
-25.9651
 30
0.0
 10
17.7214
 20
-25.9651
 30
0.0
 10
17.7214
 20
-25.9651
 30
0.0
 10
17.7214
 20
-25.9651
 30
0.0
 10
17.7658
 20
-25.8462
 30
0.0
 10
17.7658
 20
-25.8462
 30
0.0
 10
17.7658
 20
-25.8462
 30
0.0
 10
17.7658
 20
-25.8462
 30
0.0
 10
17.7909
 20
-25.6995
 30
0.0
 10
17.7909
 20
-25.6995
 30
0.0
 10
17.7909
 20
-25.6995
 30
0.0
 10
17.7909
 20
-25.6995
 30
0.0
 10
17.7911
 20
-25.5359
 30
0.0
 10
17.7911
 20
-25.5359
 30
0.0
 10
17.7911
 20
-25.5359
 30
0.0
 10
17.7911
 20
-25.5359
 30
0.0
 10
17.7669
 20
-25.3657
 30
0.0
 10
17.7669
 20
-25.3657
 30
0.0
 10
17.7669
 20
-25.3657
 30
0.0
 10
17.7669
 20
-25.3657
 30
0.0
 10
17.7218
 20
-25.1957
 30
0.0
 10
17.7218
 20
-25.1957
 30
0.0
 10
17.7218
 20
-25.1957
 30
0.0
 10
17.7218
 20
-25.1957
 30
0.0
 10
17.6596
 20
-25.0294
 30
0.0
 10
17.6596
 20
-25.0294
 30
0.0
 10
17.6596
 20
-25.0294
 30
0.0
 10
17.6596
 20
-25.0294
 30
0.0
 10
17.5827
 20
-24.868
 30
0.0
 10
17.5827
 20
-24.868
 30
0.0
  0
SPLINE
  5
47
330
1F
100
AcDbEntity
  8
VRSTVA_1
100
AcDbSpline
210
0.0
220
0.0
230
1.0
 70
     8
 71
     3
 72
    20
 73
    16
 74
     0
 42
0.0000000001
 43
0.0000000001
 40
0.0
 40
0.0
 40
0.0
 40
0.0
 40
0.2
 40
0.2
 40
0.2
 40
0.2
 40
0.4
 40
0.4
 40
0.4
 40
0.4
 40
0.6
 40
0.6
 40
0.6
 40
0.6
 40
1.0
 40
1.0
 40
1.0
 40
1.0
 10
17.5827
 20
-24.868
 30
0.0
 10
17.5827
 20
-24.868
 30
0.0
 10
17.6301
 20
-24.7417
 30
0.0
 10
17.6301
 20
-24.7417
 30
0.0
 10
17.6301
 20
-24.7417
 30
0.0
 10
17.6301
 20
-24.7417
 30
0.0
 10
17.7236
 20
-24.6313
 30
0.0
 10
17.7236
 20
-24.6313
 30
0.0
 10
17.7236
 20
-24.6313
 30
0.0
 10
17.7236
 20
-24.6313
 30
0.0
 10
17.8515
 20
-24.5507
 30
0.0
 10
17.8515
 20
-24.5507
 30
0.0
 10
17.8515
 20
-24.5507
 30
0.0
 10
17.8515
 20
-24.5507
 30
0.0
 10
17.9978
 20
-24.5098
 30
0.0
 10
17.9978
 20
-24.5098
 30
0.0
  0
SPLINE
  5
48
330
1F
100
AcDbEntity
  8
VRSTVA_1
100
AcDbSpline
210
0.0
220
0.0
230
1.0
 70
     8
 71
     3
 72
    28
 73
    24
 74
     0
 42
0.0000000001
 43
0.0000000001
 40
0.0
 40
0.0
 40
0.0
 40
0.0
 40
0.1428571428571428
 40
0.1428571428571428
 40
0.1428571428571428
 40
0.1428571428571428
 40
0.2857142857142857
 40
0.2857142857142857
 40
0.2857142857142857
 40
0.2857142857142857
 40
0.4285714285714285
 40
0.4285714285714285
 40
0.4285714285714285
 40
0.4285714285714285
 40
0.5714285714285714
 40
0.5714285714285714
 40
0.5714285714285714
 40
0.5714285714285714
 40
0.7142857142857143
 40
0.7142857142857143
 40
0.7142857142857143
 40
0.7142857142857143
 40
1.0
 40
1.0
 40
1.0
 40
1.0
 10
26.9033
 20
-28.2131
 30
0.0
 10
26.9033
 20
-28.2131
 30
0.0
 10
27.1248
 20
-28.2152
 30
0.0
 10
27.1248
 20
-28.2152
 30
0.0
 10
27.1248
 20
-28.2152
 30
0.0
 10
27.1248
 20
-28.2152
 30
0.0
 10
27.3346
 20
-28.2211
 30
0.0
 10
27.3346
 20
-28.2211
 30
0.0
 10
27.3346
 20
-28.2211
 30
0.0
 10
27.3346
 20
-28.2211
 30
0.0
 10
27.5112
 20
-28.2291
 30
0.0
 10
27.5112
 20
-28.2291
 30
0.0
 10
27.5112
 20
-28.2291
 30
0.0
 10
27.5112
 20
-28.2291
 30
0.0
 10
27.6476
 20
-28.237
 30
0.0
 10
27.6476
 20
-28.237
 30
0.0
 10
27.6476
 20
-28.237
 30
0.0
 10
27.6476
 20
-28.237
 30
0.0
 10
27.7347
 20
-28.2429
 30
0.0
 10
27.7347
 20
-28.2429
 30
0.0
 10
27.7347
 20
-28.2429
 30
0.0
 10
27.7347
 20
-28.2429
 30
0.0
 10
27.7636
 20
-28.245
 30
0.0
 10
27.7636
 20
-28.245
 30
0.0
  0
SPLINE
  5
49
330
1F
100
AcDbEntity
  8
VRSTVA_1
100
AcDbSpline
210
0.0
220
0.0
230
1.0
 70
     8
 71
     3
 72
    28
 73
    24
 74
     0
 42
0.0000000001
 43
0.0000000001
 40
0.0
 40
0.0
 40
0.0
 40
0.0
 40
0.1428571428571428
 40
0.1428571428571428
 40
0.1428571428571428
 40
0.1428571428571428
 40
0.2857142857142857
 40
0.2857142857142857
 40
0.2857142857142857
 40
0.2857142857142857
 40
0.4285714285714285
 40
0.4285714285714285
 40
0.4285714285714285
 40
0.4285714285714285
 40
0.5714285714285714
 40
0.5714285714285714
 40
0.5714285714285714
 40
0.5714285714285714
 40
0.7142857142857143
 40
0.7142857142857143
 40
0.7142857142857143
 40
0.7142857142857143
 40
1.0
 40
1.0
 40
1.0
 40
1.0
 10
26.9033
 20
-28.4288
 30
0.0
 10
26.9033
 20
-28.4288
 30
0.0
 10
27.1258
 20
-28.4309
 30
0.0
 10
27.1258
 20
-28.4309
 30
0.0
 10
27.1258
 20
-28.4309
 30
0.0
 10
27.1258
 20
-28.4309
 30
0.0
 10
27.3333
 20
-28.4366
 30
0.0
 10
27.3333
 20
-28.4366
 30
0.0
 10
27.3333
 20
-28.4366
 30
0.0
 10
27.3333
 20
-28.4366
 30
0.0
 10
27.5116
 20
-28.4444
 30
0.0
 10
27.5116
 20
-28.4444
 30
0.0
 10
27.5116
 20
-28.4444
 30
0.0
 10
27.5116
 20
-28.4444
 30
0.0
 10
27.6485
 20
-28.4523
 30
0.0
 10
27.6485
 20
-28.4523
 30
0.0
 10
27.6485
 20
-28.4523
 30
0.0
 10
27.6485
 20
-28.4523
 30
0.0
 10
27.7344
 20
-28.458
 30
0.0
 10
27.7344
 20
-28.458
 30
0.0
 10
27.7344
 20
-28.458
 30
0.0
 10
27.7344
 20
-28.458
 30
0.0
 10
27.7636
 20
-28.4601
 30
0.0
 10
27.7636
 20
-28.4601
 30
0.0
  0
SPLINE
  5
4A
330
1F
100
AcDbEntity
  8
VRSTVA_1
100
AcDbSpline
210
0.0
220
0.0
230
1.0
 70
     8
 71
     3
 72
    28
 73
    24
 74
     0
 42
0.0000000001
 43
0.0000000001
 40
0.0
 40
0.0
 40
0.0
 40
0.0
 40
0.1428571428571428
 40
0.1428571428571428
 40
0.1428571428571428
 40
0.1428571428571428
 40
0.2857142857142857
 40
0.2857142857142857
 40
0.2857142857142857
 40
0.2857142857142857
 40
0.4285714285714285
 40
0.4285714285714285
 40
0.4285714285714285
 40
0.4285714285714285
 40
0.5714285714285714
 40
0.5714285714285714
 40
0.5714285714285714
 40
0.5714285714285714
 40
0.7142857142857143
 40
0.7142857142857143
 40
0.7142857142857143
 40
0.7142857142857143
 40
1.0
 40
1.0
 40
1.0
 40
1.0
 10
26.9033
 20
-25.5816
 30
0.0
 10
26.9033
 20
-25.5816
 30
0.0
 10
27.1258
 20
-25.5624
 30
0.0
 10
27.1258
 20
-25.5624
 30
0.0
 10
27.1258
 20
-25.5624
 30
0.0
 10
27.1258
 20
-25.5624
 30
0.0
 10
27.3333
 20
-25.5057
 30
0.0
 10
27.3333
 20
-25.5057
 30
0.0
 10
27.3333
 20
-25.5057
 30
0.0
 10
27.3333
 20
-25.5057
 30
0.0
 10
27.5117
 20
-25.4145
 30
0.0
 10
27.5117
 20
-25.4145
 30
0.0
 10
27.5117
 20
-25.4145
 30
0.0
 10
27.5117
 20
-25.4145
 30
0.0
 10
27.6485
 20
-25.2939
 30
0.0
 10
27.6485
 20
-25.2939
 30
0.0
 10
27.6485
 20
-25.2939
 30
0.0
 10
27.6485
 20
-25.2939
 30
0.0
 10
27.7344
 20
-25.1512
 30
0.0
 10
27.7344
 20
-25.1512
 30
0.0
 10
27.7344
 20
-25.1512
 30
0.0
 10
27.7344
 20
-25.1512
 30
0.0
 10
27.7636
 20
-24.9954
 30
0.0
 10
27.7636
 20
-24.9954
 30
0.0
  0
SPLINE
  5
4B
330
1F
100
AcDbEntity
  8
VRSTVA_1
100
AcDbSpline
210
0.0
220
0.0
230
1.0
 70
     8
 71
     3
 72
    12
 73
     8
 74
     0
 42
0.0000000001
 43
0.0000000001
 40
0.0
 40
0.0
 40
0.0
 40
0.0
 40
0.3333333333333333
 40
0.3333333333333333
 40
0.3333333333333333
 40
0.3333333333333333
 40
1.0
 40
1.0
 40
1.0
 40
1.0
 10
17.7814
 20
-26.0942
 30
0.0
 10
17.7814
 20
-26.0942
 30
0.0
 10
17.6645
 20
-26.1104
 30
0.0
 10
17.6645
 20
-26.1104
 30
0.0
 10
17.6645
 20
-26.1104
 30
0.0
 10
17.6645
 20
-26.1104
 30
0.0
 10
17.5885
 20
-26.1399
 30
0.0
 10
17.5885
 20
-26.1399
 30
0.0
  0
SPLINE
  5
4C
330
1F
100
AcDbEntity
  8
VRSTVA_1
100
AcDbSpline
210
0.0
220
0.0
230
1.0
 70
     8
 71
     3
 72
    28
 73
    24
 74
     0
 42
0.0000000001
 43
0.0000000001
 40
0.0
 40
0.0
 40
0.0
 40
0.0
 40
0.1428571428571428
 40
0.1428571428571428
 40
0.1428571428571428
 40
0.1428571428571428
 40
0.2857142857142857
 40
0.2857142857142857
 40
0.2857142857142857
 40
0.2857142857142857
 40
0.4285714285714285
 40
0.4285714285714285
 40
0.4285714285714285
 40
0.4285714285714285
 40
0.5714285714285714
 40
0.5714285714285714
 40
0.5714285714285714
 40
0.5714285714285714
 40
0.7142857142857143
 40
0.7142857142857143
 40
0.7142857142857143
 40
0.7142857142857143
 40
1.0
 40
1.0
 40
1.0
 40
1.0
 10
18.3002
 20
-6.7374
 30
0.0
 10
18.3002
 20
-6.7374
 30
0.0
 10
18.3017
 20
-6.772
 30
0.0
 10
18.3017
 20
-6.772
 30
0.0
 10
18.3017
 20
-6.772
 30
0.0
 10
18.3017
 20
-6.772
 30
0.0
 10
18.339
 20
-6.9157
 30
0.0
 10
18.339
 20
-6.9157
 30
0.0
 10
18.339
 20
-6.9157
 30
0.0
 10
18.339
 20
-6.9157
 30
0.0
 10
18.4229
 20
-7.0382
 30
0.0
 10
18.4229
 20
-7.0382
 30
0.0
 10
18.4229
 20
-7.0382
 30
0.0
 10
18.4229
 20
-7.0382
 30
0.0
 10
18.5435
 20
-7.1248
 30
0.0
 10
18.5435
 20
-7.1248
 30
0.0
 10
18.5435
 20
-7.1248
 30
0.0
 10
18.5435
 20
-7.1248
 30
0.0
 10
18.6863
 20
-7.1653
 30
0.0
 10
18.6863
 20
-7.1653
 30
0.0
 10
18.6863
 20
-7.1653
 30
0.0
 10
18.6863
 20
-7.1653
 30
0.0
 10
18.7304
 20
-7.1675
 30
0.0
 10
18.7304
 20
-7.1675
 30
0.0
  0
SPLINE
  5
4D
330
1F
100
AcDbEntity
  8
VRSTVA_1
100
AcDbSpline
210
0.0
220
0.0
230
1.0
 70
     8
 71
     3
 72
    28
 73
    24
 74
     0
 42
0.0000000001
 43
0.0000000001
 40
0.0
 40
0.0
 40
0.0
 40
0.0
 40
0.1428571428571428
 40
0.1428571428571428
 40
0.1428571428571428
 40
0.1428571428571428
 40
0.2857142857142857
 40
0.2857142857142857
 40
0.2857142857142857
 40
0.2857142857142857
 40
0.4285714285714285
 40
0.4285714285714285
 40
0.4285714285714285
 40
0.4285714285714285
 40
0.5714285714285714
 40
0.5714285714285714
 40
0.5714285714285714
 40
0.5714285714285714
 40
0.7142857142857143
 40
0.7142857142857143
 40
0.7142857142857143
 40
0.7142857142857143
 40
1.0
 40
1.0
 40
1.0
 40
1.0
 10
26.9033
 20
-24.2124
 30
0.0
 10
26.9033
 20
-24.2124
 30
0.0
 10
27.1248
 20
-24.2344
 30
0.0
 10
27.1248
 20
-24.2344
 30
0.0
 10
27.1248
 20
-24.2344
 30
0.0
 10
27.1248
 20
-24.2344
 30
0.0
 10
27.3346
 20
-24.3
 30
0.0
 10
27.3346
 20
-24.3
 30
0.0
 10
27.3346
 20
-24.3
 30
0.0
 10
27.3346
 20
-24.3
 30
0.0
 10
27.5112
 20
-24.4016
 30
0.0
 10
27.5112
 20
-24.4016
 30
0.0
 10
27.5112
 20
-24.4016
 30
0.0
 10
27.5112
 20
-24.4016
 30
0.0
 10
27.6476
 20
-24.5325
 30
0.0
 10
27.6476
 20
-24.5325
 30
0.0
 10
27.6476
 20
-24.5325
 30
0.0
 10
27.6476
 20
-24.5325
 30
0.0
 10
27.7347
 20
-24.6853
 30
0.0
 10
27.7347
 20
-24.6853
 30
0.0
 10
27.7347
 20
-24.6853
 30
0.0
 10
27.7347
 20
-24.6853
 30
0.0
 10
27.7636
 20
-24.8432
 30
0.0
 10
27.7636
 20
-24.8432
 30
0.0
  0
SPLINE
  5
4E
330
1F
100
AcDbEntity
  8
VRSTVA_1
100
AcDbSpline
210
0.0
220
0.0
230
1.0
 70
     8
 71
     3
 72
    68
 73
    64
 74
     0
 42
0.0000000001
 43
0.0000000001
 40
0.0
 40
0.0
 40
0.0
 40
0.0
 40
0.0588235294117647
 40
0.0588235294117647
 40
0.0588235294117647
 40
0.0588235294117647
 40
0.1176470588235294
 40
0.1176470588235294
 40
0.1176470588235294
 40
0.1176470588235294
 40
0.1764705882352941
 40
0.1764705882352941
 40
0.1764705882352941
 40
0.1764705882352941
 40
0.2352941176470588
 40
0.2352941176470588
 40
0.2352941176470588
 40
0.2352941176470588
 40
0.2941176470588235
 40
0.2941176470588235
 40
0.2941176470588235
 40
0.2941176470588235
 40
0.3529411764705883
 40
0.3529411764705883
 40
0.3529411764705883
 40
0.3529411764705883
 40
0.4117647058823529
 40
0.4117647058823529
 40
0.4117647058823529
 40
0.4117647058823529
 40
0.4705882352941176
 40
0.4705882352941176
 40
0.4705882352941176
 40
0.4705882352941176
 40
0.5294117647058824
 40
0.5294117647058824
 40
0.5294117647058824
 40
0.5294117647058824
 40
0.5882352941176471
 40
0.5882352941176471
 40
0.5882352941176471
 40
0.5882352941176471
 40
0.6470588235294118
 40
0.6470588235294118
 40
0.6470588235294118
 40
0.6470588235294118
 40
0.7058823529411765
 40
0.7058823529411765
 40
0.7058823529411765
 40
0.7058823529411765
 40
0.7647058823529411
 40
0.7647058823529411
 40
0.7647058823529411
 40
0.7647058823529411
 40
0.8235294117647058
 40
0.8235294117647058
 40
0.8235294117647058
 40
0.8235294117647058
 40
0.8823529411764706
 40
0.8823529411764706
 40
0.8823529411764706
 40
0.8823529411764706
 40
1.0
 40
1.0
 40
1.0
 40
1.0
 10
17.5827
 20
-24.868
 30
0.0
 10
17.5827
 20
-24.868
 30
0.0
 10
17.1962
 20
-23.8501
 30
0.0
 10
17.1962
 20
-23.8501
 30
0.0
 10
17.1962
 20
-23.8501
 30
0.0
 10
17.1962
 20
-23.8501
 30
0.0
 10
16.7906
 20
-22.6261
 30
0.0
 10
16.7906
 20
-22.6261
 30
0.0
 10
16.7906
 20
-22.6261
 30
0.0
 10
16.7906
 20
-22.6261
 30
0.0
 10
16.4185
 20
-21.2574
 30
0.0
 10
16.4185
 20
-21.2574
 30
0.0
 10
16.4185
 20
-21.2574
 30
0.0
 10
16.4185
 20
-21.2574
 30
0.0
 10
16.1235
 20
-19.8062
 30
0.0
 10
16.1235
 20
-19.8062
 30
0.0
 10
16.1235
 20
-19.8062
 30
0.0
 10
16.1235
 20
-19.8062
 30
0.0
 10
15.9321
 20
-18.3153
 30
0.0
 10
15.9321
 20
-18.3153
 30
0.0
 10
15.9321
 20
-18.3153
 30
0.0
 10
15.9321
 20
-18.3153
 30
0.0
 10
15.8575
 20
-16.8141
 30
0.0
 10
15.8575
 20
-16.8141
 30
0.0
 10
15.8575
 20
-16.8141
 30
0.0
 10
15.8575
 20
-16.8141
 30
0.0
 10
15.9029
 20
-15.3127
 30
0.0
 10
15.9029
 20
-15.3127
 30
0.0
 10
15.9029
 20
-15.3127
 30
0.0
 10
15.9029
 20
-15.3127
 30
0.0
 10
16.0663
 20
-13.818
 30
0.0
 10
16.0663
 20
-13.818
 30
0.0
 10
16.0663
 20
-13.818
 30
0.0
 10
16.0663
 20
-13.818
 30
0.0
 10
16.3379
 20
-12.3538
 30
0.0
 10
16.3379
 20
-12.3538
 30
0.0
 10
16.3379
 20
-12.3538
 30
0.0
 10
16.3379
 20
-12.3538
 30
0.0
 10
16.6945
 20
-10.96
 30
0.0
 10
16.6945
 20
-10.96
 30
0.0
 10
16.6945
 20
-10.96
 30
0.0
 10
16.6945
 20
-10.96
 30
0.0
 10
17.0968
 20
-9.6941
 30
0.0
 10
17.0968
 20
-9.6941
 30
0.0
 10
17.0968
 20
-9.6941
 30
0.0
 10
17.0968
 20
-9.6941
 30
0.0
 10
17.4928
 20
-8.6209
 30
0.0
 10
17.4928
 20
-8.6209
 30
0.0
 10
17.4928
 20
-8.6209
 30
0.0
 10
17.4928
 20
-8.6209
 30
0.0
 10
17.8333
 20
-7.7869
 30
0.0
 10
17.8333
 20
-7.7869
 30
0.0
 10
17.8333
 20
-7.7869
 30
0.0
 10
17.8333
 20
-7.7869
 30
0.0
 10
18.0896
 20
-7.1993
 30
0.0
 10
18.0896
 20
-7.1993
 30
0.0
 10
18.0896
 20
-7.1993
 30
0.0
 10
18.0896
 20
-7.1993
 30
0.0
 10
18.2474
 20
-6.8516
 30
0.0
 10
18.2474
 20
-6.8516
 30
0.0
 10
18.2474
 20
-6.8516
 30
0.0
 10
18.2474
 20
-6.8516
 30
0.0
 10
18.3002
 20
-6.7374
 30
0.0
 10
18.3002
 20
-6.7374
 30
0.0
  0
SPLINE
  5
4F
330
1F
100
AcDbEntity
  8
VRSTVA_1
100
AcDbSpline
210
0.0
220
0.0
230
1.0
 70
     8
 71
     3
 72
    68
 73
    64
 74
     0
 42
0.0000000001
 43
0.0000000001
 40
0.0
 40
0.0
 40
0.0
 40
0.0
 40
0.0588235294117647
 40
0.0588235294117647
 40
0.0588235294117647
 40
0.0588235294117647
 40
0.1176470588235294
 40
0.1176470588235294
 40
0.1176470588235294
 40
0.1176470588235294
 40
0.1764705882352941
 40
0.1764705882352941
 40
0.1764705882352941
 40
0.1764705882352941
 40
0.2352941176470588
 40
0.2352941176470588
 40
0.2352941176470588
 40
0.2352941176470588
 40
0.2941176470588235
 40
0.2941176470588235
 40
0.2941176470588235
 40
0.2941176470588235
 40
0.3529411764705883
 40
0.3529411764705883
 40
0.3529411764705883
 40
0.3529411764705883
 40
0.4117647058823529
 40
0.4117647058823529
 40
0.4117647058823529
 40
0.4117647058823529
 40
0.4705882352941176
 40
0.4705882352941176
 40
0.4705882352941176
 40
0.4705882352941176
 40
0.5294117647058824
 40
0.5294117647058824
 40
0.5294117647058824
 40
0.5294117647058824
 40
0.5882352941176471
 40
0.5882352941176471
 40
0.5882352941176471
 40
0.5882352941176471
 40
0.6470588235294118
 40
0.6470588235294118
 40
0.6470588235294118
 40
0.6470588235294118
 40
0.7058823529411765
 40
0.7058823529411765
 40
0.7058823529411765
 40
0.7058823529411765
 40
0.7647058823529411
 40
0.7647058823529411
 40
0.7647058823529411
 40
0.7647058823529411
 40
0.8235294117647058
 40
0.8235294117647058
 40
0.8235294117647058
 40
0.8235294117647058
 40
0.8823529411764706
 40
0.8823529411764706
 40
0.8823529411764706
 40
0.8823529411764706
 40
1.0
 40
1.0
 40
1.0
 40
1.0
 10
17.9978
 20
-24.5098
 30
0.0
 10
17.9978
 20
-24.5098
 30
0.0
 10
17.6026
 20
-23.5348
 30
0.0
 10
17.6026
 20
-23.5348
 30
0.0
 10
17.6026
 20
-23.5348
 30
0.0
 10
17.6026
 20
-23.5348
 30
0.0
 10
17.1885
 20
-22.3639
 30
0.0
 10
17.1885
 20
-22.3639
 30
0.0
 10
17.1885
 20
-22.3639
 30
0.0
 10
17.1885
 20
-22.3639
 30
0.0
 10
16.8087
 20
-21.0548
 30
0.0
 10
16.8087
 20
-21.0548
 30
0.0
 10
16.8087
 20
-21.0548
 30
0.0
 10
16.8087
 20
-21.0548
 30
0.0
 10
16.5075
 20
-19.6668
 30
0.0
 10
16.5075
 20
-19.6668
 30
0.0
 10
16.5075
 20
-19.6668
 30
0.0
 10
16.5075
 20
-19.6668
 30
0.0
 10
16.3123
 20
-18.2408
 30
0.0
 10
16.3123
 20
-18.2408
 30
0.0
 10
16.3123
 20
-18.2408
 30
0.0
 10
16.3123
 20
-18.2408
 30
0.0
 10
16.2362
 20
-16.8052
 30
0.0
 10
16.2362
 20
-16.8052
 30
0.0
 10
16.2362
 20
-16.8052
 30
0.0
 10
16.2362
 20
-16.8052
 30
0.0
 10
16.2826
 20
-15.3691
 30
0.0
 10
16.2826
 20
-15.3691
 30
0.0
 10
16.2826
 20
-15.3691
 30
0.0
 10
16.2826
 20
-15.3691
 30
0.0
 10
16.4495
 20
-13.9397
 30
0.0
 10
16.4495
 20
-13.9397
 30
0.0
 10
16.4495
 20
-13.9397
 30
0.0
 10
16.4495
 20
-13.9397
 30
0.0
 10
16.7268
 20
-12.5393
 30
0.0
 10
16.7268
 20
-12.5393
 30
0.0
 10
16.7268
 20
-12.5393
 30
0.0
 10
16.7268
 20
-12.5393
 30
0.0
 10
17.0909
 20
-11.2063
 30
0.0
 10
17.0909
 20
-11.2063
 30
0.0
 10
17.0909
 20
-11.2063
 30
0.0
 10
17.0909
 20
-11.2063
 30
0.0
 10
17.5016
 20
-9.9957
 30
0.0
 10
17.5016
 20
-9.9957
 30
0.0
 10
17.5016
 20
-9.9957
 30
0.0
 10
17.5016
 20
-9.9957
 30
0.0
 10
17.9059
 20
-8.9692
 30
0.0
 10
17.9059
 20
-8.9692
 30
0.0
 10
17.9059
 20
-8.9692
 30
0.0
 10
17.9059
 20
-8.9692
 30
0.0
 10
18.2536
 20
-8.1717
 30
0.0
 10
18.2536
 20
-8.1717
 30
0.0
 10
18.2536
 20
-8.1717
 30
0.0
 10
18.2536
 20
-8.1717
 30
0.0
 10
18.5153
 20
-7.6095
 30
0.0
 10
18.5153
 20
-7.6095
 30
0.0
 10
18.5153
 20
-7.6095
 30
0.0
 10
18.5153
 20
-7.6095
 30
0.0
 10
18.6764
 20
-7.2769
 30
0.0
 10
18.6764
 20
-7.2769
 30
0.0
 10
18.6764
 20
-7.2769
 30
0.0
 10
18.6764
 20
-7.2769
 30
0.0
 10
18.7304
 20
-7.1675
 30
0.0
 10
18.7304
 20
-7.1675
 30
0.0
  0
SPLINE
  5
50
330
1F
100
AcDbEntity
  8
VRSTVA_1
100
AcDbSpline
210
0.0
220
0.0
230
1.0
 70
     8
 71
     3
 72
    28
 73
    24
 74
     0
 42
0.0000000001
 43
0.0000000001
 40
0.0
 40
0.0
 40
0.0
 40
0.0
 40
0.1428571428571428
 40
0.1428571428571428
 40
0.1428571428571428
 40
0.1428571428571428
 40
0.2857142857142857
 40
0.2857142857142857
 40
0.2857142857142857
 40
0.2857142857142857
 40
0.4285714285714285
 40
0.4285714285714285
 40
0.4285714285714285
 40
0.4285714285714285
 40
0.5714285714285714
 40
0.5714285714285714
 40
0.5714285714285714
 40
0.5714285714285714
 40
0.7142857142857143
 40
0.7142857142857143
 40
0.7142857142857143
 40
0.7142857142857143
 40
1.0
 40
1.0
 40
1.0
 40
1.0
 10
27.7636
 20
-4.8017
 30
0.0
 10
27.7636
 20
-4.8017
 30
0.0
 10
27.7344
 20
-4.8038
 30
0.0
 10
27.7344
 20
-4.8038
 30
0.0
 10
27.7344
 20
-4.8038
 30
0.0
 10
27.7344
 20
-4.8038
 30
0.0
 10
27.6485
 20
-4.8095
 30
0.0
 10
27.6485
 20
-4.8095
 30
0.0
 10
27.6485
 20
-4.8095
 30
0.0
 10
27.6485
 20
-4.8095
 30
0.0
 10
27.5117
 20
-4.8173
 30
0.0
 10
27.5117
 20
-4.8173
 30
0.0
 10
27.5117
 20
-4.8173
 30
0.0
 10
27.5117
 20
-4.8173
 30
0.0
 10
27.3333
 20
-4.8252
 30
0.0
 10
27.3333
 20
-4.8252
 30
0.0
 10
27.3333
 20
-4.8252
 30
0.0
 10
27.3333
 20
-4.8252
 30
0.0
 10
27.1258
 20
-4.8309
 30
0.0
 10
27.1258
 20
-4.8309
 30
0.0
 10
27.1258
 20
-4.8309
 30
0.0
 10
27.1258
 20
-4.8309
 30
0.0
 10
26.9033
 20
-4.833
 30
0.0
 10
26.9033
 20
-4.833
 30
0.0
  0
SPLINE
  5
51
330
1F
100
AcDbEntity
  8
VRSTVA_1
100
AcDbSpline
210
0.0
220
0.0
230
1.0
 70
     8
 71
     3
 72
    28
 73
    24
 74
     0
 42
0.0000000001
 43
0.0000000001
 40
0.0
 40
0.0
 40
0.0
 40
0.0
 40
0.1428571428571428
 40
0.1428571428571428
 40
0.1428571428571428
 40
0.1428571428571428
 40
0.2857142857142857
 40
0.2857142857142857
 40
0.2857142857142857
 40
0.2857142857142857
 40
0.4285714285714285
 40
0.4285714285714285
 40
0.4285714285714285
 40
0.4285714285714285
 40
0.5714285714285714
 40
0.5714285714285714
 40
0.5714285714285714
 40
0.5714285714285714
 40
0.7142857142857143
 40
0.7142857142857143
 40
0.7142857142857143
 40
0.7142857142857143
 40
1.0
 40
1.0
 40
1.0
 40
1.0
 10
27.7636
 20
-5.0167
 30
0.0
 10
27.7636
 20
-5.0167
 30
0.0
 10
27.7347
 20
-5.0189
 30
0.0
 10
27.7347
 20
-5.0189
 30
0.0
 10
27.7347
 20
-5.0189
 30
0.0
 10
27.7347
 20
-5.0189
 30
0.0
 10
27.6475
 20
-5.0248
 30
0.0
 10
27.6475
 20
-5.0248
 30
0.0
 10
27.6475
 20
-5.0248
 30
0.0
 10
27.6475
 20
-5.0248
 30
0.0
 10
27.5113
 20
-5.0327
 30
0.0
 10
27.5113
 20
-5.0327
 30
0.0
 10
27.5113
 20
-5.0327
 30
0.0
 10
27.5113
 20
-5.0327
 30
0.0
 10
27.3346
 20
-5.0406
 30
0.0
 10
27.3346
 20
-5.0406
 30
0.0
 10
27.3346
 20
-5.0406
 30
0.0
 10
27.3346
 20
-5.0406
 30
0.0
 10
27.1244
 20
-5.0465
 30
0.0
 10
27.1244
 20
-5.0465
 30
0.0
 10
27.1244
 20
-5.0465
 30
0.0
 10
27.1244
 20
-5.0465
 30
0.0
 10
26.9033
 20
-5.0486
 30
0.0
 10
26.9033
 20
-5.0486
 30
0.0
  0
SPLINE
  5
52
330
1F
100
AcDbEntity
  8
VRSTVA_1
100
AcDbSpline
210
0.0
220
0.0
230
1.0
 70
     8
 71
     3
 72
    28
 73
    24
 74
     0
 42
0.0000000001
 43
0.0000000001
 40
0.0
 40
0.0
 40
0.0
 40
0.0
 40
0.1428571428571428
 40
0.1428571428571428
 40
0.1428571428571428
 40
0.1428571428571428
 40
0.2857142857142857
 40
0.2857142857142857
 40
0.2857142857142857
 40
0.2857142857142857
 40
0.4285714285714285
 40
0.4285714285714285
 40
0.4285714285714285
 40
0.4285714285714285
 40
0.5714285714285714
 40
0.5714285714285714
 40
0.5714285714285714
 40
0.5714285714285714
 40
0.7142857142857143
 40
0.7142857142857143
 40
0.7142857142857143
 40
0.7142857142857143
 40
1.0
 40
1.0
 40
1.0
 40
1.0
 10
26.9033
 20
-7.6802
 30
0.0
 10
26.9033
 20
-7.6802
 30
0.0
 10
27.1258
 20
-7.6994
 30
0.0
 10
27.1258
 20
-7.6994
 30
0.0
 10
27.1258
 20
-7.6994
 30
0.0
 10
27.1258
 20
-7.6994
 30
0.0
 10
27.3333
 20
-7.7561
 30
0.0
 10
27.3333
 20
-7.7561
 30
0.0
 10
27.3333
 20
-7.7561
 30
0.0
 10
27.3333
 20
-7.7561
 30
0.0
 10
27.5117
 20
-7.8473
 30
0.0
 10
27.5117
 20
-7.8473
 30
0.0
 10
27.5117
 20
-7.8473
 30
0.0
 10
27.5117
 20
-7.8473
 30
0.0
 10
27.6485
 20
-7.9679
 30
0.0
 10
27.6485
 20
-7.9679
 30
0.0
 10
27.6485
 20
-7.9679
 30
0.0
 10
27.6485
 20
-7.9679
 30
0.0
 10
27.7344
 20
-8.1106
 30
0.0
 10
27.7344
 20
-8.1106
 30
0.0
 10
27.7344
 20
-8.1106
 30
0.0
 10
27.7344
 20
-8.1106
 30
0.0
 10
27.7636
 20
-8.2664
 30
0.0
 10
27.7636
 20
-8.2664
 30
0.0
  0
SPLINE
  5
53
330
1F
100
AcDbEntity
  8
VRSTVA_1
100
AcDbSpline
210
0.0
220
0.0
230
1.0
 70
     8
 71
     3
 72
    24
 73
    20
 74
     0
 42
0.0000000001
 43
0.0000000001
 40
0.0
 40
0.0
 40
0.0
 40
0.0
 40
0.1666666666666667
 40
0.1666666666666667
 40
0.1666666666666667
 40
0.1666666666666667
 40
0.3333333333333333
 40
0.3333333333333333
 40
0.3333333333333333
 40
0.3333333333333333
 40
0.5
 40
0.5
 40
0.5
 40
0.5
 40
0.6666666666666666
 40
0.6666666666666666
 40
0.6666666666666666
 40
0.6666666666666666
 40
1.0
 40
1.0
 40
1.0
 40
1.0
 10
-18.2628
 20
-20.4383
 30
0.0
 10
-18.2628
 20
-20.4383
 30
0.0
 10
-18.2643
 20
-20.4024
 30
0.0
 10
-18.2643
 20
-20.4024
 30
0.0
 10
-18.2643
 20
-20.4024
 30
0.0
 10
-18.2643
 20
-20.4024
 30
0.0
 10
-18.2988
 20
-20.266
 30
0.0
 10
-18.2988
 20
-20.266
 30
0.0
 10
-18.2988
 20
-20.266
 30
0.0
 10
-18.2988
 20
-20.266
 30
0.0
 10
-18.3756
 20
-20.1479
 30
0.0
 10
-18.3756
 20
-20.1479
 30
0.0
 10
-18.3756
 20
-20.1479
 30
0.0
 10
-18.3756
 20
-20.1479
 30
0.0
 10
-18.4861
 20
-20.0611
 30
0.0
 10
-18.4861
 20
-20.0611
 30
0.0
 10
-18.4861
 20
-20.0611
 30
0.0
 10
-18.4861
 20
-20.0611
 30
0.0
 10
-18.6183
 20
-20.0147
 30
0.0
 10
-18.6183
 20
-20.0147
 30
0.0
  0
SPLINE
  5
54
330
1F
100
AcDbEntity
  8
VRSTVA_1
 62
     7
100
AcDbSpline
210
0.0
220
0.0
230
1.0
 70
     8
 71
     3
 72
    12
 73
     8
 74
     0
 42
0.0000000001
 43
0.0000000001
 40
0.0
 40
0.0
 40
0.0
 40
0.0
 40
0.3333333333333333
 40
0.3333333333333333
 40
0.3333333333333333
 40
0.3333333333333333
 40
1.0
 40
1.0
 40
1.0
 40
1.0
 10
27.7636
 20
-28.245
 30
0.0
 10
28.2375
 20
-28.245
 30
0.0
 10
28.6239
 20
-27.8585
 30
0.0
 10
28.6239
 20
-27.3847
 30
0.0
 10
28.6239
 20
-27.3847
 30
0.0
 10
28.6239
 20
-27.3847
 30
0.0
 10
28.6239
 20
-27.3847
 30
0.0
 10
28.6239
 20
-27.3847
 30
0.0
  0
SPLINE
  5
55
330
1F
100
AcDbEntity
  8
VRSTVA_1
100
AcDbSpline
210
0.0
220
0.0
230
1.0
 70
     8
 71
     3
 72
    12
 73
     8
 74
     0
 42
0.0000000001
 43
0.0000000001
 40
0.0
 40
0.0
 40
0.0
 40
0.0
 40
0.3333333333333333
 40
0.3333333333333333
 40
0.3333333333333333
 40
0.3333333333333333
 40
1.0
 40
1.0
 40
1.0
 40
1.0
 10
27.7636
 20
-28.245
 30
0.0
 10
28.2375
 20
-28.245
 30
0.0
 10
28.6239
 20
-27.8585
 30
0.0
 10
28.6239
 20
-27.3847
 30
0.0
 10
28.6239
 20
-27.3847
 30
0.0
 10
28.6239
 20
-27.3847
 30
0.0
 10
28.6239
 20
-27.3847
 30
0.0
 10
28.6239
 20
-27.3847
 30
0.0
  0
SPLINE
  5
56
330
1F
100
AcDbEntity
  8
VRSTVA_1
 62
     7
100
AcDbSpline
210
0.0
220
0.0
230
1.0
 70
     8
 71
     3
 72
    12
 73
     8
 74
     0
 42
0.0000000001
 43
0.0000000001
 40
0.0
 40
0.0
 40
0.0
 40
0.0
 40
0.3333333333333333
 40
0.3333333333333333
 40
0.3333333333333333
 40
0.3333333333333333
 40
1.0
 40
1.0
 40
1.0
 40
1.0
 10
28.6239
 20
-5.877
 30
0.0
 10
28.6239
 20
-5.4032
 30
0.0
 10
28.2375
 20
-5.0167
 30
0.0
 10
27.7636
 20
-5.0167
 30
0.0
 10
27.7636
 20
-5.0167
 30
0.0
 10
27.7636
 20
-5.0167
 30
0.0
 10
27.7636
 20
-5.0167
 30
0.0
 10
27.7636
 20
-5.0167
 30
0.0
  0
SPLINE
  5
57
330
1F
100
AcDbEntity
  8
VRSTVA_1
100
AcDbSpline
210
0.0
220
0.0
230
1.0
 70
     8
 71
     3
 72
    12
 73
     8
 74
     0
 42
0.0000000001
 43
0.0000000001
 40
0.0
 40
0.0
 40
0.0
 40
0.0
 40
0.3333333333333333
 40
0.3333333333333333
 40
0.3333333333333333
 40
0.3333333333333333
 40
1.0
 40
1.0
 40
1.0
 40
1.0
 10
28.6239
 20
-5.877
 30
0.0
 10
28.6239
 20
-5.4032
 30
0.0
 10
28.2375
 20
-5.0167
 30
0.0
 10
27.7636
 20
-5.0167
 30
0.0
 10
27.7636
 20
-5.0167
 30
0.0
 10
27.7636
 20
-5.0167
 30
0.0
 10
27.7636
 20
-5.0167
 30
0.0
 10
27.7636
 20
-5.0167
 30
0.0
  0
SPLINE
  5
58
330
1F
100
AcDbEntity
  8
VRSTVA_1
 62
     7
100
AcDbSpline
210
0.0
220
0.0
230
1.0
 70
     8
 71
     3
 72
    16
 73
    12
 74
     0
 42
0.0000000001
 43
0.0000000001
 40
0.0
 40
0.0
 40
0.0
 40
0.0
 40
0.25
 40
0.25
 40
0.25
 40
0.25
 40
0.5
 40
0.5
 40
0.5
 40
0.5
 40
1.0
 40
1.0
 40
1.0
 40
1.0
 10
26.9033
 20
-17.4911
 30
0.0
 10
27.3772
 20
-17.4911
 30
0.0
 10
27.7636
 20
-17.1047
 30
0.0
 10
27.7636
 20
-16.6308
 30
0.0
 10
27.7636
 20
-16.6308
 30
0.0
 10
27.7636
 20
-16.157
 30
0.0
 10
27.3772
 20
-15.7705
 30
0.0
 10
26.9033
 20
-15.7705
 30
0.0
 10
26.9033
 20
-15.7705
 30
0.0
 10
26.9033
 20
-15.7705
 30
0.0
 10
26.9033
 20
-15.7705
 30
0.0
 10
26.9033
 20
-15.7705
 30
0.0
  0
SPLINE
  5
59
330
1F
100
AcDbEntity
  8
VRSTVA_1
100
AcDbSpline
210
0.0
220
0.0
230
1.0
 70
     8
 71
     3
 72
    16
 73
    12
 74
     0
 42
0.0000000001
 43
0.0000000001
 40
0.0
 40
0.0
 40
0.0
 40
0.0
 40
0.25
 40
0.25
 40
0.25
 40
0.25
 40
0.5
 40
0.5
 40
0.5
 40
0.5
 40
1.0
 40
1.0
 40
1.0
 40
1.0
 10
26.9033
 20
-17.4911
 30
0.0
 10
27.3772
 20
-17.4911
 30
0.0
 10
27.7636
 20
-17.1047
 30
0.0
 10
27.7636
 20
-16.6308
 30
0.0
 10
27.7636
 20
-16.6308
 30
0.0
 10
27.7636
 20
-16.157
 30
0.0
 10
27.3772
 20
-15.7705
 30
0.0
 10
26.9033
 20
-15.7705
 30
0.0
 10
26.9033
 20
-15.7705
 30
0.0
 10
26.9033
 20
-15.7705
 30
0.0
 10
26.9033
 20
-15.7705
 30
0.0
 10
26.9033
 20
-15.7705
 30
0.0
  0
SPLINE
  5
5A
330
1F
100
AcDbEntity
  8
VRSTVA_1
 62
     7
100
AcDbSpline
210
0.0
220
0.0
230
1.0
 70
     8
 71
     3
 72
     8
 73
     4
 74
     0
 42
0.0000000001
 43
0.0000000001
 40
0.0
 40
0.0
 40
0.0
 40
0.0
 40
1.0
 40
1.0
 40
1.0
 40
1.0
 10
-21.1802
 20
1.8657
 30
0.0
 10
-21.2844
 20
1.8657
 30
0.0
 10
-21.3743
 20
1.7901
 30
0.0
 10
-21.3919
 20
1.6876
 30
0.0
  0
SPLINE
  5
5B
330
1F
100
AcDbEntity
  8
VRSTVA_1
100
AcDbSpline
210
0.0
220
0.0
230
1.0
 70
     8
 71
     3
 72
     8
 73
     4
 74
     0
 42
0.0000000001
 43
0.0000000001
 40
0.0
 40
0.0
 40
0.0
 40
0.0
 40
1.0
 40
1.0
 40
1.0
 40
1.0
 10
-21.1802
 20
1.8657
 30
0.0
 10
-21.2844
 20
1.8657
 30
0.0
 10
-21.3743
 20
1.7901
 30
0.0
 10
-21.3919
 20
1.6876
 30
0.0
  0
SPLINE
  5
5C
330
1F
100
AcDbEntity
  8
VRSTVA_1
 62
     7
100
AcDbSpline
210
0.0
220
0.0
230
1.0
 70
     8
 71
     3
 72
    12
 73
     8
 74
     0
 42
0.0000000001
 43
0.0000000001
 40
0.0
 40
0.0
 40
0.0
 40
0.0
 40
0.3333333333333333
 40
0.3333333333333333
 40
0.3333333333333333
 40
0.3333333333333333
 40
1.0
 40
1.0
 40
1.0
 40
1.0
 10
17.1279
 20
1.6876
 30
0.0
 10
17.1102
 20
1.7901
 30
0.0
 10
17.0203
 20
1.8657
 30
0.0
 10
16.9162
 20
1.8657
 30
0.0
 10
16.9162
 20
1.8657
 30
0.0
 10
16.9162
 20
1.8657
 30
0.0
 10
16.9162
 20
1.8657
 30
0.0
 10
16.9162
 20
1.8657
 30
0.0
  0
SPLINE
  5
5D
330
1F
100
AcDbEntity
  8
VRSTVA_1
100
AcDbSpline
210
0.0
220
0.0
230
1.0
 70
     8
 71
     3
 72
    12
 73
     8
 74
     0
 42
0.0000000001
 43
0.0000000001
 40
0.0
 40
0.0
 40
0.0
 40
0.0
 40
0.3333333333333333
 40
0.3333333333333333
 40
0.3333333333333333
 40
0.3333333333333333
 40
1.0
 40
1.0
 40
1.0
 40
1.0
 10
17.1279
 20
1.6876
 30
0.0
 10
17.1102
 20
1.7901
 30
0.0
 10
17.0203
 20
1.8657
 30
0.0
 10
16.9162
 20
1.8657
 30
0.0
 10
16.9162
 20
1.8657
 30
0.0
 10
16.9162
 20
1.8657
 30
0.0
 10
16.9162
 20
1.8657
 30
0.0
 10
16.9162
 20
1.8657
 30
0.0
  0
SPLINE
  5
5E
330
1F
100
AcDbEntity
  8
VRSTVA_1
 62
     7
100
AcDbSpline
210
0.0
220
0.0
230
1.0
 70
     8
 71
     3
 72
     8
 73
     4
 74
     0
 42
0.0000000001
 43
0.0000000001
 40
0.0
 40
0.0
 40
0.0
 40
0.0
 40
1.0
 40
1.0
 40
1.0
 40
1.0
 10
-22.603
 20
-4.1565
 30
0.0
 10
-22.4989
 20
-4.1565
 30
0.0
 10
-22.409
 20
-4.0809
 30
0.0
 10
-22.3913
 20
-3.9784
 30
0.0
  0
SPLINE
  5
5F
330
1F
100
AcDbEntity
  8
VRSTVA_1
100
AcDbSpline
210
0.0
220
0.0
230
1.0
 70
     8
 71
     3
 72
     8
 73
     4
 74
     0
 42
0.0000000001
 43
0.0000000001
 40
0.0
 40
0.0
 40
0.0
 40
0.0
 40
1.0
 40
1.0
 40
1.0
 40
1.0
 10
-22.603
 20
-4.1565
 30
0.0
 10
-22.4989
 20
-4.1565
 30
0.0
 10
-22.409
 20
-4.0809
 30
0.0
 10
-22.3913
 20
-3.9784
 30
0.0
  0
SPLINE
  5
60
330
1F
100
AcDbEntity
  8
VRSTVA_1
 62
     7
100
AcDbSpline
210
0.0
220
0.0
230
1.0
 70
     8
 71
     3
 72
    12
 73
     8
 74
     0
 42
0.0000000001
 43
0.0000000001
 40
0.0
 40
0.0
 40
0.0
 40
0.0
 40
0.3333333333333333
 40
0.3333333333333333
 40
0.3333333333333333
 40
0.3333333333333333
 40
1.0
 40
1.0
 40
1.0
 40
1.0
 10
18.1273
 20
-3.9792
 30
0.0
 10
18.1449
 20
-4.0817
 30
0.0
 10
18.2348
 20
-4.1565
 30
0.0
 10
18.339
 20
-4.1565
 30
0.0
 10
18.339
 20
-4.1565
 30
0.0
 10
18.339
 20
-4.1565
 30
0.0
 10
18.339
 20
-4.1565
 30
0.0
 10
18.339
 20
-4.1565
 30
0.0
  0
SPLINE
  5
61
330
1F
100
AcDbEntity
  8
VRSTVA_1
100
AcDbSpline
210
0.0
220
0.0
230
1.0
 70
     8
 71
     3
 72
    12
 73
     8
 74
     0
 42
0.0000000001
 43
0.0000000001
 40
0.0
 40
0.0
 40
0.0
 40
0.0
 40
0.3333333333333333
 40
0.3333333333333333
 40
0.3333333333333333
 40
0.3333333333333333
 40
1.0
 40
1.0
 40
1.0
 40
1.0
 10
18.1273
 20
-3.9792
 30
0.0
 10
18.1449
 20
-4.0817
 30
0.0
 10
18.2348
 20
-4.1565
 30
0.0
 10
18.339
 20
-4.1565
 30
0.0
 10
18.339
 20
-4.1565
 30
0.0
 10
18.339
 20
-4.1565
 30
0.0
 10
18.339
 20
-4.1565
 30
0.0
 10
18.339
 20
-4.1565
 30
0.0
  0
SPLINE
  5
62
330
1F
100
AcDbEntity
  8
VRSTVA_1
 62
     7
100
AcDbSpline
210
0.0
220
0.0
230
1.0
 70
     8
 71
     3
 72
    12
 73
     8
 74
     0
 42
0.0000000001
 43
0.0000000001
 40
0.0
 40
0.0
 40
0.0
 40
0.0
 40
0.3333333333333333
 40
0.3333333333333333
 40
0.3333333333333333
 40
0.3333333333333333
 40
1.0
 40
1.0
 40
1.0
 40
1.0
 10
12.7083
 20
-29.1053
 30
0.0
 10
13.419
 20
-29.1053
 30
0.0
 10
13.9987
 20
-28.5256
 30
0.0
 10
13.9987
 20
-27.8148
 30
0.0
 10
13.9987
 20
-27.8148
 30
0.0
 10
13.9987
 20
-27.8148
 30
0.0
 10
13.9987
 20
-27.8148
 30
0.0
 10
13.9987
 20
-27.8148
 30
0.0
  0
SPLINE
  5
63
330
1F
100
AcDbEntity
  8
VRSTVA_1
100
AcDbSpline
210
0.0
220
0.0
230
1.0
 70
     8
 71
     3
 72
    12
 73
     8
 74
     0
 42
0.0000000001
 43
0.0000000001
 40
0.0
 40
0.0
 40
0.0
 40
0.0
 40
0.3333333333333333
 40
0.3333333333333333
 40
0.3333333333333333
 40
0.3333333333333333
 40
1.0
 40
1.0
 40
1.0
 40
1.0
 10
12.7083
 20
-29.1053
 30
0.0
 10
13.419
 20
-29.1053
 30
0.0
 10
13.9987
 20
-28.5256
 30
0.0
 10
13.9987
 20
-27.8148
 30
0.0
 10
13.9987
 20
-27.8148
 30
0.0
 10
13.9987
 20
-27.8148
 30
0.0
 10
13.9987
 20
-27.8148
 30
0.0
 10
13.9987
 20
-27.8148
 30
0.0
  0
SPLINE
  5
64
330
1F
100
AcDbEntity
  8
VRSTVA_1
 62
     7
100
AcDbSpline
210
0.0
220
0.0
230
1.0
 70
     8
 71
     3
 72
    12
 73
     8
 74
     0
 42
0.0000000001
 43
0.0000000001
 40
0.0
 40
0.0
 40
0.0
 40
0.0
 40
0.3333333333333333
 40
0.3333333333333333
 40
0.3333333333333333
 40
0.3333333333333333
 40
1.0
 40
1.0
 40
1.0
 40
1.0
 10
-18.2627
 20
-27.8148
 30
0.0
 10
-18.2627
 20
-28.5256
 30
0.0
 10
-17.683
 20
-29.1053
 30
0.0
 10
-16.9723
 20
-29.1053
 30
0.0
 10
-16.9723
 20
-29.1053
 30
0.0
 10
-16.9723
 20
-29.1053
 30
0.0
 10
-16.9723
 20
-29.1053
 30
0.0
 10
-16.9723
 20
-29.1053
 30
0.0
  0
SPLINE
  5
65
330
1F
100
AcDbEntity
  8
VRSTVA_1
100
AcDbSpline
210
0.0
220
0.0
230
1.0
 70
     8
 71
     3
 72
    12
 73
     8
 74
     0
 42
0.0000000001
 43
0.0000000001
 40
0.0
 40
0.0
 40
0.0
 40
0.0
 40
0.3333333333333333
 40
0.3333333333333333
 40
0.3333333333333333
 40
0.3333333333333333
 40
1.0
 40
1.0
 40
1.0
 40
1.0
 10
-18.2627
 20
-27.8148
 30
0.0
 10
-18.2627
 20
-28.5256
 30
0.0
 10
-17.683
 20
-29.1053
 30
0.0
 10
-16.9723
 20
-29.1053
 30
0.0
 10
-16.9723
 20
-29.1053
 30
0.0
 10
-16.9723
 20
-29.1053
 30
0.0
 10
-16.9723
 20
-29.1053
 30
0.0
 10
-16.9723
 20
-29.1053
 30
0.0
  0
SPLINE
  5
66
330
1F
100
AcDbEntity
  8
VRSTVA_1
 62
     7
100
AcDbSpline
210
0.0
220
0.0
230
1.0
 70
     8
 71
     3
 72
    16
 73
    12
 74
     0
 42
0.0000000001
 43
0.0000000001
 40
0.0
 40
0.0
 40
0.0
 40
0.0
 40
0.25
 40
0.25
 40
0.25
 40
0.25
 40
0.5
 40
0.5
 40
0.5
 40
0.5
 40
1.0
 40
1.0
 40
1.0
 40
1.0
 10
14.5028
 20
-25.8551
 30
0.0
 10
14.481
 20
-25.8518
 30
0.0
 10
14.4524
 20
-25.8484
 30
0.0
 10
14.4289
 20
-25.8484
 30
0.0
 10
14.4289
 20
-25.8484
 30
0.0
 10
14.192
 20
-25.8484
 30
0.0
 10
13.9987
 20
-26.0416
 30
0.0
 10
13.9987
 20
-26.2785
 30
0.0
 10
13.9987
 20
-26.2785
 30
0.0
 10
13.9987
 20
-26.2785
 30
0.0
 10
13.9987
 20
-26.2785
 30
0.0
 10
13.9987
 20
-26.2785
 30
0.0
  0
SPLINE
  5
67
330
1F
100
AcDbEntity
  8
VRSTVA_1
100
AcDbSpline
210
0.0
220
0.0
230
1.0
 70
     8
 71
     3
 72
    16
 73
    12
 74
     0
 42
0.0000000001
 43
0.0000000001
 40
0.0
 40
0.0
 40
0.0
 40
0.0
 40
0.25
 40
0.25
 40
0.25
 40
0.25
 40
0.5
 40
0.5
 40
0.5
 40
0.5
 40
1.0
 40
1.0
 40
1.0
 40
1.0
 10
14.5028
 20
-25.8551
 30
0.0
 10
14.481
 20
-25.8518
 30
0.0
 10
14.4524
 20
-25.8484
 30
0.0
 10
14.4289
 20
-25.8484
 30
0.0
 10
14.4289
 20
-25.8484
 30
0.0
 10
14.192
 20
-25.8484
 30
0.0
 10
13.9987
 20
-26.0416
 30
0.0
 10
13.9987
 20
-26.2785
 30
0.0
 10
13.9987
 20
-26.2785
 30
0.0
 10
13.9987
 20
-26.2785
 30
0.0
 10
13.9987
 20
-26.2785
 30
0.0
 10
13.9987
 20
-26.2785
 30
0.0
  0
SPLINE
  5
68
330
1F
100
AcDbEntity
  8
VRSTVA_1
 62
     7
100
AcDbSpline
210
0.0
220
0.0
230
1.0
 70
     8
 71
     3
 72
    12
 73
     8
 74
     0
 42
0.0000000001
 43
0.0000000001
 40
0.0
 40
0.0
 40
0.0
 40
0.0
 40
0.3333333333333333
 40
0.3333333333333333
 40
0.3333333333333333
 40
0.3333333333333333
 40
1.0
 40
1.0
 40
1.0
 40
1.0
 10
-22.5643
 20
-6.3072
 30
0.0
 10
-22.5643
 20
-6.0703
 30
0.0
 10
-22.7576
 20
-5.8771
 30
0.0
 10
-22.9945
 20
-5.8771
 30
0.0
 10
-22.9945
 20
-5.8771
 30
0.0
 10
-22.9945
 20
-5.8771
 30
0.0
 10
-22.9945
 20
-5.8771
 30
0.0
 10
-22.9945
 20
-5.8771
 30
0.0
  0
SPLINE
  5
69
330
1F
100
AcDbEntity
  8
VRSTVA_1
100
AcDbSpline
210
0.0
220
0.0
230
1.0
 70
     8
 71
     3
 72
    12
 73
     8
 74
     0
 42
0.0000000001
 43
0.0000000001
 40
0.0
 40
0.0
 40
0.0
 40
0.0
 40
0.3333333333333333
 40
0.3333333333333333
 40
0.3333333333333333
 40
0.3333333333333333
 40
1.0
 40
1.0
 40
1.0
 40
1.0
 10
-22.5643
 20
-6.3072
 30
0.0
 10
-22.5643
 20
-6.0703
 30
0.0
 10
-22.7576
 20
-5.8771
 30
0.0
 10
-22.9945
 20
-5.8771
 30
0.0
 10
-22.9945
 20
-5.8771
 30
0.0
 10
-22.9945
 20
-5.8771
 30
0.0
 10
-22.9945
 20
-5.8771
 30
0.0
 10
-22.9945
 20
-5.8771
 30
0.0
  0
SPLINE
  5
6A
330
1F
100
AcDbEntity
  8
VRSTVA_1
 62
     7
100
AcDbSpline
210
0.0
220
0.0
230
1.0
 70
     8
 71
     3
 72
    12
 73
     8
 74
     0
 42
0.0000000001
 43
0.0000000001
 40
0.0
 40
0.0
 40
0.0
 40
0.0
 40
0.3333333333333333
 40
0.3333333333333333
 40
0.3333333333333333
 40
0.3333333333333333
 40
1.0
 40
1.0
 40
1.0
 40
1.0
 10
18.7304
 20
-5.8771
 30
0.0
 10
18.4935
 20
-5.8771
 30
0.0
 10
18.3002
 20
-6.0703
 30
0.0
 10
18.3002
 20
-6.3072
 30
0.0
 10
18.3002
 20
-6.3072
 30
0.0
 10
18.3002
 20
-6.3072
 30
0.0
 10
18.3002
 20
-6.3072
 30
0.0
 10
18.3002
 20
-6.3072
 30
0.0
  0
SPLINE
  5
6B
330
1F
100
AcDbEntity
  8
VRSTVA_1
100
AcDbSpline
210
0.0
220
0.0
230
1.0
 70
     8
 71
     3
 72
    12
 73
     8
 74
     0
 42
0.0000000001
 43
0.0000000001
 40
0.0
 40
0.0
 40
0.0
 40
0.0
 40
0.3333333333333333
 40
0.3333333333333333
 40
0.3333333333333333
 40
0.3333333333333333
 40
1.0
 40
1.0
 40
1.0
 40
1.0
 10
18.7304
 20
-5.8771
 30
0.0
 10
18.4935
 20
-5.8771
 30
0.0
 10
18.3002
 20
-6.0703
 30
0.0
 10
18.3002
 20
-6.3072
 30
0.0
 10
18.3002
 20
-6.3072
 30
0.0
 10
18.3002
 20
-6.3072
 30
0.0
 10
18.3002
 20
-6.3072
 30
0.0
 10
18.3002
 20
-6.3072
 30
0.0
  0
SPLINE
  5
6C
330
1F
100
AcDbEntity
  8
VRSTVA_1
 62
     7
100
AcDbSpline
210
0.0
220
0.0
230
1.0
 70
     8
 71
     3
 72
    12
 73
     8
 74
     0
 42
0.0000000001
 43
0.0000000001
 40
0.0
 40
0.0
 40
0.0
 40
0.0
 40
0.3333333333333333
 40
0.3333333333333333
 40
0.3333333333333333
 40
0.3333333333333333
 40
1.0
 40
1.0
 40
1.0
 40
1.0
 10
16.788
 20
-26.2567
 30
0.0
 10
16.8535
 20
-26.2668
 30
0.0
 10
16.9392
 20
-26.2769
 30
0.0
 10
17.0098
 20
-26.2769
 30
0.0
 10
17.0098
 20
-26.2769
 30
0.0
 10
17.2064
 20
-26.2769
 30
0.0
 10
17.4181
 20
-26.2265
 30
0.0
 10
17.5895
 20
-26.1408
 30
0.0
  0
SPLINE
  5
6D
330
1F
100
AcDbEntity
  8
VRSTVA_1
100
AcDbSpline
210
0.0
220
0.0
230
1.0
 70
     8
 71
     3
 72
    12
 73
     8
 74
     0
 42
0.0000000001
 43
0.0000000001
 40
0.0
 40
0.0
 40
0.0
 40
0.0
 40
0.3333333333333333
 40
0.3333333333333333
 40
0.3333333333333333
 40
0.3333333333333333
 40
1.0
 40
1.0
 40
1.0
 40
1.0
 10
16.788
 20
-26.2567
 30
0.0
 10
16.8535
 20
-26.2668
 30
0.0
 10
16.9392
 20
-26.2769
 30
0.0
 10
17.0098
 20
-26.2769
 30
0.0
 10
17.0098
 20
-26.2769
 30
0.0
 10
17.2064
 20
-26.2769
 30
0.0
 10
17.4181
 20
-26.2265
 30
0.0
 10
17.5895
 20
-26.1408
 30
0.0
  0
SPLINE
  5
6E
330
1F
100
AcDbEntity
  8
VRSTVA_1
 62
     7
100
AcDbSpline
210
0.0
220
0.0
230
1.0
 70
     8
 71
     3
 72
     8
 73
     4
 74
     0
 42
0.0000000001
 43
0.0000000001
 40
0.0
 40
0.0
 40
0.0
 40
0.0
 40
1.0
 40
1.0
 40
1.0
 40
1.0
 10
-22.5643
 20
-18.236
 30
0.0
 10
-22.5643
 20
-18.8611
 30
0.0
 10
-22.1106
 20
-19.4004
 30
0.0
 10
-21.4956
 20
-19.5063
 30
0.0
  0
SPLINE
  5
6F
330
1F
100
AcDbEntity
  8
VRSTVA_1
100
AcDbSpline
210
0.0
220
0.0
230
1.0
 70
     8
 71
     3
 72
     8
 73
     4
 74
     0
 42
0.0000000001
 43
0.0000000001
 40
0.0
 40
0.0
 40
0.0
 40
0.0
 40
1.0
 40
1.0
 40
1.0
 40
1.0
 10
-22.5643
 20
-18.236
 30
0.0
 10
-22.5643
 20
-18.8611
 30
0.0
 10
-22.1106
 20
-19.4004
 30
0.0
 10
-21.4956
 20
-19.5063
 30
0.0
  0
SPLINE
  5
70
330
1F
100
AcDbEntity
  8
VRSTVA_1
100
AcDbSpline
210
0.0
220
0.0
230
1.0
 70
    24
 71
     3
 72
     8
 73
     4
 74
     0
 42
0.0000000001
 43
0.0000000001
 40
0.0
 40
0.0
 40
0.0
 40
0.0
 40
1.0
 40
1.0
 40
1.0
 40
1.0
 10
29.6036
 20
-24.2455
 30
0.0
 10
29.6036
 20
-24.2455
 30
0.0
 10
34.7134
 20
-24.2455
 30
0.0
 10
34.7134
 20
-24.2455
 30
0.0
  0
SPLINE
  5
71
330
1F
100
AcDbEntity
  8
VRSTVA_1
100
AcDbSpline
210
0.0
220
0.0
230
1.0
 70
    24
 71
     3
 72
     8
 73
     4
 74
     0
 42
0.0000000001
 43
0.0000000001
 40
0.0
 40
0.0
 40
0.0
 40
0.0
 40
1.0
 40
1.0
 40
1.0
 40
1.0
 10
29.6036
 20
-8.4244
 30
0.0
 10
29.6036
 20
-8.4244
 30
0.0
 10
34.6803
 20
-8.4244
 30
0.0
 10
34.6803
 20
-8.4244
 30
0.0
  0
SPLINE
  5
72
330
1F
100
AcDbEntity
  8
VRSTVA_1
100
AcDbSpline
210
0.0
220
0.0
230
1.0
 70
    24
 71
     3
 72
     8
 73
     4
 74
     0
 42
0.0000000001
 43
0.0000000001
 40
0.0
 40
0.0
 40
0.0
 40
0.0
 40
1.0
 40
1.0
 40
1.0
 40
1.0
 10
-21.3921
 20
1.688
 30
0.0
 10
-21.3921
 20
1.688
 30
0.0
 10
-22.3913
 20
-3.9787
 30
0.0
 10
-22.3913
 20
-3.9787
 30
0.0
  0
SPLINE
  5
73
330
1F
100
AcDbEntity
  8
VRSTVA_1
100
AcDbSpline
210
0.0
220
0.0
230
1.0
 70
    24
 71
     3
 72
     8
 73
     4
 74
     0
 42
0.0000000001
 43
0.0000000001
 40
0.0
 40
0.0
 40
0.0
 40
0.0
 40
1.0
 40
1.0
 40
1.0
 40
1.0
 10
-23.8548
 20
-4.1564
 30
0.0
 10
-23.8548
 20
-4.1564
 30
0.0
 10
-23.8548
 20
-5.877
 30
0.0
 10
-23.8548
 20
-5.877
 30
0.0
  0
SPLINE
  5
74
330
1F
100
AcDbEntity
  8
VRSTVA_1
100
AcDbSpline
210
0.0
220
0.0
230
1.0
 70
    24
 71
     3
 72
     8
 73
     4
 74
     0
 42
0.0000000001
 43
0.0000000001
 40
0.0
 40
0.0
 40
0.0
 40
0.0
 40
1.0
 40
1.0
 40
1.0
 40
1.0
 10
-22.5644
 20
-6.3072
 30
0.0
 10
-22.5644
 20
-6.3072
 30
0.0
 10
-22.5644
 20
-18.2361
 30
0.0
 10
-22.5644
 20
-18.2361
 30
0.0
  0
SPLINE
  5
75
330
1F
100
AcDbEntity
  8
VRSTVA_1
100
AcDbSpline
210
0.0
220
0.0
230
1.0
 70
    24
 71
     3
 72
     8
 73
     4
 74
     0
 42
0.0000000001
 43
0.0000000001
 40
0.0
 40
0.0
 40
0.0
 40
0.0
 40
1.0
 40
1.0
 40
1.0
 40
1.0
 10
-20.4136
 20
3.1562
 30
0.0
 10
-20.4136
 20
3.1562
 30
0.0
 10
-20.4136
 20
1.8657
 30
0.0
 10
-20.4136
 20
1.8657
 30
0.0
  0
SPLINE
  5
76
330
1F
100
AcDbEntity
  8
VRSTVA_1
100
AcDbSpline
210
0.0
220
0.0
230
1.0
 70
    24
 71
     3
 72
     8
 73
     4
 74
     0
 42
0.0000000001
 43
0.0000000001
 40
0.0
 40
0.0
 40
0.0
 40
0.0
 40
1.0
 40
1.0
 40
1.0
 40
1.0
 10
-18.2628
 20
-27.8149
 30
0.0
 10
-18.2628
 20
-27.8149
 30
0.0
 10
-18.2628
 20
-20.4383
 30
0.0
 10
-18.2628
 20
-20.4383
 30
0.0
  0
SPLINE
  5
77
330
1F
100
AcDbEntity
  8
VRSTVA_1
100
AcDbSpline
210
0.0
220
0.0
230
1.0
 70
    24
 71
     3
 72
     8
 73
     4
 74
     0
 42
0.0000000001
 43
0.0000000001
 40
0.0
 40
0.0
 40
0.0
 40
0.0
 40
1.0
 40
1.0
 40
1.0
 40
1.0
 10
-20.4136
 20
3.1562
 30
0.0
 10
-20.4136
 20
3.1562
 30
0.0
 10
16.1495
 20
3.1562
 30
0.0
 10
16.1495
 20
3.1562
 30
0.0
  0
SPLINE
  5
78
330
1F
100
AcDbEntity
  8
VRSTVA_1
100
AcDbSpline
210
0.0
220
0.0
230
1.0
 70
    24
 71
     3
 72
     8
 73
     4
 74
     0
 42
0.0000000001
 43
0.0000000001
 40
0.0
 40
0.0
 40
0.0
 40
0.0
 40
1.0
 40
1.0
 40
1.0
 40
1.0
 10
16.9161
 20
1.8657
 30
0.0
 10
16.9161
 20
1.8657
 30
0.0
 10
-21.1803
 20
1.8657
 30
0.0
 10
-21.1803
 20
1.8657
 30
0.0
  0
SPLINE
  5
79
330
1F
100
AcDbEntity
  8
VRSTVA_1
100
AcDbSpline
210
0.0
220
0.0
230
1.0
 70
    24
 71
     3
 72
     8
 73
     4
 74
     0
 42
0.0000000001
 43
0.0000000001
 40
0.0
 40
0.0
 40
0.0
 40
0.0
 40
1.0
 40
1.0
 40
1.0
 40
1.0
 10
17.128
 20
1.688
 30
0.0
 10
17.128
 20
1.688
 30
0.0
 10
-21.3921
 20
1.688
 30
0.0
 10
-21.3921
 20
1.688
 30
0.0
  0
SPLINE
  5
7A
330
1F
100
AcDbEntity
  8
VRSTVA_1
100
AcDbSpline
210
0.0
220
0.0
230
1.0
 70
    24
 71
     3
 72
     8
 73
     4
 74
     0
 42
0.0000000001
 43
0.0000000001
 40
0.0
 40
0.0
 40
0.0
 40
0.0
 40
1.0
 40
1.0
 40
1.0
 40
1.0
 10
-22.3913
 20
-3.9787
 30
0.0
 10
-22.3913
 20
-3.9787
 30
0.0
 10
18.1272
 20
-3.9787
 30
0.0
 10
18.1272
 20
-3.9787
 30
0.0
  0
SPLINE
  5
7B
330
1F
100
AcDbEntity
  8
VRSTVA_1
100
AcDbSpline
210
0.0
220
0.0
230
1.0
 70
    24
 71
     3
 72
     8
 73
     4
 74
     0
 42
0.0000000001
 43
0.0000000001
 40
0.0
 40
0.0
 40
0.0
 40
0.0
 40
1.0
 40
1.0
 40
1.0
 40
1.0
 10
-23.8548
 20
-4.1564
 30
0.0
 10
-23.8548
 20
-4.1564
 30
0.0
 10
19.5907
 20
-4.1564
 30
0.0
 10
19.5907
 20
-4.1564
 30
0.0
  0
SPLINE
  5
7C
330
1F
100
AcDbEntity
  8
VRSTVA_1
100
AcDbSpline
210
0.0
220
0.0
230
1.0
 70
    24
 71
     3
 72
     8
 73
     4
 74
     0
 42
0.0000000001
 43
0.0000000001
 40
0.0
 40
0.0
 40
0.0
 40
0.0
 40
1.0
 40
1.0
 40
1.0
 40
1.0
 10
27.7636
 20
-4.8017
 30
0.0
 10
27.7636
 20
-4.8017
 30
0.0
 10
22.6018
 20
-4.8017
 30
0.0
 10
22.6018
 20
-4.8017
 30
0.0
  0
SPLINE
  5
7D
330
1F
100
AcDbEntity
  8
VRSTVA_1
100
AcDbSpline
210
0.0
220
0.0
230
1.0
 70
    24
 71
     3
 72
     8
 73
     4
 74
     0
 42
0.0000000001
 43
0.0000000001
 40
0.0
 40
0.0
 40
0.0
 40
0.0
 40
1.0
 40
1.0
 40
1.0
 40
1.0
 10
23.8923
 20
-4.833
 30
0.0
 10
23.8923
 20
-4.833
 30
0.0
 10
26.9034
 20
-4.833
 30
0.0
 10
26.9034
 20
-4.833
 30
0.0
  0
SPLINE
  5
7E
330
1F
100
AcDbEntity
  8
VRSTVA_1
100
AcDbSpline
210
0.0
220
0.0
230
1.0
 70
    27
 71
     3
 72
     8
 73
     4
 74
     0
 42
0.0000000001
 43
0.0000000001
 40
0.0
 40
0.0
 40
0.0
 40
0.0
 40
1.0
 40
1.0
 40
1.0
 40
1.0
 10
27.7636
 20
-5.0167
 30
0.0
 10
27.7636
 20
-5.0167
 30
0.0
 10
27.7636
 20
-5.0167
 30
0.0
 10
27.7636
 20
-5.0167
 30
0.0
  0
SPLINE
  5
7F
330
1F
100
AcDbEntity
  8
VRSTVA_1
100
AcDbSpline
210
0.0
220
0.0
230
1.0
 70
    24
 71
     3
 72
     8
 73
     4
 74
     0
 42
0.0000000001
 43
0.0000000001
 40
0.0
 40
0.0
 40
0.0
 40
0.0
 40
1.0
 40
1.0
 40
1.0
 40
1.0
 10
-23.8548
 20
-5.0167
 30
0.0
 10
-23.8548
 20
-5.0167
 30
0.0
 10
19.5907
 20
-5.0167
 30
0.0
 10
19.5907
 20
-5.0167
 30
0.0
  0
SPLINE
  5
80
330
1F
100
AcDbEntity
  8
VRSTVA_1
100
AcDbSpline
210
0.0
220
0.0
230
1.0
 70
    24
 71
     3
 72
     8
 73
     4
 74
     0
 42
0.0000000001
 43
0.0000000001
 40
0.0
 40
0.0
 40
0.0
 40
0.0
 40
1.0
 40
1.0
 40
1.0
 40
1.0
 10
26.9034
 20
-5.0486
 30
0.0
 10
26.9034
 20
-5.0486
 30
0.0
 10
23.8923
 20
-5.0486
 30
0.0
 10
23.8923
 20
-5.0486
 30
0.0
  0
SPLINE
  5
81
330
1F
100
AcDbEntity
  8
VRSTVA_1
100
AcDbSpline
210
0.0
220
0.0
230
1.0
 70
    24
 71
     3
 72
     8
 73
     4
 74
     0
 42
0.0000000001
 43
0.0000000001
 40
0.0
 40
0.0
 40
0.0
 40
0.0
 40
1.0
 40
1.0
 40
1.0
 40
1.0
 10
-23.8548
 20
-5.877
 30
0.0
 10
-23.8548
 20
-5.877
 30
0.0
 10
19.5907
 20
-5.877
 30
0.0
 10
19.5907
 20
-5.877
 30
0.0
  0
SPLINE
  5
82
330
1F
100
AcDbEntity
  8
VRSTVA_1
100
AcDbSpline
210
0.0
220
0.0
230
1.0
 70
    24
 71
     3
 72
     8
 73
     4
 74
     0
 42
0.0000000001
 43
0.0000000001
 40
0.0
 40
0.0
 40
0.0
 40
0.0
 40
1.0
 40
1.0
 40
1.0
 40
1.0
 10
20.451
 20
-6.3072
 30
0.0
 10
20.451
 20
-6.3072
 30
0.0
 10
22.6018
 20
-6.3072
 30
0.0
 10
22.6018
 20
-6.3072
 30
0.0
  0
SPLINE
  5
83
330
1F
100
AcDbEntity
  8
VRSTVA_1
100
AcDbSpline
210
0.0
220
0.0
230
1.0
 70
    24
 71
     3
 72
     8
 73
     4
 74
     0
 42
0.0000000001
 43
0.0000000001
 40
0.0
 40
0.0
 40
0.0
 40
0.0
 40
1.0
 40
1.0
 40
1.0
 40
1.0
 10
-22.5644
 20
-6.3072
 30
0.0
 10
-22.5644
 20
-6.3072
 30
0.0
 10
18.3003
 20
-6.3072
 30
0.0
 10
18.3003
 20
-6.3072
 30
0.0
  0
SPLINE
  5
84
330
1F
100
AcDbEntity
  8
VRSTVA_1
100
AcDbSpline
210
0.0
220
0.0
230
1.0
 70
    24
 71
     3
 72
     8
 73
     4
 74
     0
 42
0.0000000001
 43
0.0000000001
 40
0.0
 40
0.0
 40
0.0
 40
0.0
 40
1.0
 40
1.0
 40
1.0
 40
1.0
 10
22.6018
 20
-7.1675
 30
0.0
 10
22.6018
 20
-7.1675
 30
0.0
 10
20.451
 20
-7.1675
 30
0.0
 10
20.451
 20
-7.1675
 30
0.0
  0
SPLINE
  5
85
330
1F
100
AcDbEntity
  8
VRSTVA_1
100
AcDbSpline
210
0.0
220
0.0
230
1.0
 70
    24
 71
     3
 72
     8
 73
     4
 74
     0
 42
0.0000000001
 43
0.0000000001
 40
0.0
 40
0.0
 40
0.0
 40
0.0
 40
1.0
 40
1.0
 40
1.0
 40
1.0
 10
18.7304
 20
-7.1675
 30
0.0
 10
18.7304
 20
-7.1675
 30
0.0
 10
20.451
 20
-7.1675
 30
0.0
 10
20.451
 20
-7.1675
 30
0.0
  0
SPLINE
  5
86
330
1F
100
AcDbEntity
  8
VRSTVA_1
100
AcDbSpline
210
0.0
220
0.0
230
1.0
 70
    24
 71
     3
 72
     8
 73
     4
 74
     0
 42
0.0000000001
 43
0.0000000001
 40
0.0
 40
0.0
 40
0.0
 40
0.0
 40
1.0
 40
1.0
 40
1.0
 40
1.0
 10
23.8923
 20
-7.6802
 30
0.0
 10
23.8923
 20
-7.6802
 30
0.0
 10
26.9034
 20
-7.6802
 30
0.0
 10
26.9034
 20
-7.6802
 30
0.0
  0
SPLINE
  5
87
330
1F
100
AcDbEntity
  8
VRSTVA_1
100
AcDbSpline
210
0.0
220
0.0
230
1.0
 70
    24
 71
     3
 72
     8
 73
     4
 74
     0
 42
0.0000000001
 43
0.0000000001
 40
0.0
 40
0.0
 40
0.0
 40
0.0
 40
1.0
 40
1.0
 40
1.0
 40
1.0
 10
23.8923
 20
-8.8968
 30
0.0
 10
23.8923
 20
-8.8968
 30
0.0
 10
26.9034
 20
-8.8968
 30
0.0
 10
26.9034
 20
-8.8968
 30
0.0
  0
SPLINE
  5
88
330
1F
100
AcDbEntity
  8
VRSTVA_1
100
AcDbSpline
210
0.0
220
0.0
230
1.0
 70
    24
 71
     3
 72
     8
 73
     4
 74
     0
 42
0.0000000001
 43
0.0000000001
 40
0.0
 40
0.0
 40
0.0
 40
0.0
 40
1.0
 40
1.0
 40
1.0
 40
1.0
 10
26.9034
 20
-9.0493
 30
0.0
 10
26.9034
 20
-9.0493
 30
0.0
 10
23.8923
 20
-9.0493
 30
0.0
 10
23.8923
 20
-9.0493
 30
0.0
  0
SPLINE
  5
89
330
1F
100
AcDbEntity
  8
VRSTVA_1
100
AcDbSpline
210
0.0
220
0.0
230
1.0
 70
    24
 71
     3
 72
     8
 73
     4
 74
     0
 42
0.0000000001
 43
0.0000000001
 40
0.0
 40
0.0
 40
0.0
 40
0.0
 40
1.0
 40
1.0
 40
1.0
 40
1.0
 10
23.8923
 20
-15.7706
 30
0.0
 10
23.8923
 20
-15.7706
 30
0.0
 10
26.9034
 20
-15.7706
 30
0.0
 10
26.9034
 20
-15.7706
 30
0.0
  0
SPLINE
  5
8A
330
1F
100
AcDbEntity
  8
VRSTVA_1
100
AcDbSpline
210
0.0
220
0.0
230
1.0
 70
    24
 71
     3
 72
     8
 73
     4
 74
     0
 42
0.0000000001
 43
0.0000000001
 40
0.0
 40
0.0
 40
0.0
 40
0.0
 40
1.0
 40
1.0
 40
1.0
 40
1.0
 10
23.8923
 20
-17.4912
 30
0.0
 10
23.8923
 20
-17.4912
 30
0.0
 10
26.9034
 20
-17.4912
 30
0.0
 10
26.9034
 20
-17.4912
 30
0.0
  0
SPLINE
  5
8B
330
1F
100
AcDbEntity
  8
VRSTVA_1
100
AcDbSpline
210
0.0
220
0.0
230
1.0
 70
    24
 71
     3
 72
     8
 73
     4
 74
     0
 42
0.0000000001
 43
0.0000000001
 40
0.0
 40
0.0
 40
0.0
 40
0.0
 40
1.0
 40
1.0
 40
1.0
 40
1.0
 10
13.9987
 20
-27.8149
 30
0.0
 10
13.9987
 20
-27.8149
 30
0.0
 10
13.9987
 20
-26.2786
 30
0.0
 10
13.9987
 20
-26.2786
 30
0.0
  0
SPLINE
  5
8C
330
1F
100
AcDbEntity
  8
VRSTVA_1
100
AcDbSpline
210
0.0
220
0.0
230
1.0
 70
    24
 71
     3
 72
     8
 73
     4
 74
     0
 42
0.0000000001
 43
0.0000000001
 40
0.0
 40
0.0
 40
0.0
 40
0.0
 40
1.0
 40
1.0
 40
1.0
 40
1.0
 10
-22.5644
 20
-18.2361
 30
0.0
 10
-22.5644
 20
-18.2361
 30
0.0
 10
17.5828
 20
-24.868
 30
0.0
 10
17.5828
 20
-24.868
 30
0.0
  0
SPLINE
  5
8D
330
1F
100
AcDbEntity
  8
VRSTVA_1
100
AcDbSpline
210
0.0
220
0.0
230
1.0
 70
    24
 71
     3
 72
     8
 73
     4
 74
     0
 42
0.0000000001
 43
0.0000000001
 40
0.0
 40
0.0
 40
0.0
 40
0.0
 40
1.0
 40
1.0
 40
1.0
 40
1.0
 10
-21.498
 20
-19.5069
 30
0.0
 10
-21.498
 20
-19.5069
 30
0.0
 10
16.7857
 20
-26.2574
 30
0.0
 10
16.7857
 20
-26.2574
 30
0.0
  0
SPLINE
  5
8E
330
1F
100
AcDbEntity
  8
VRSTVA_1
100
AcDbSpline
210
0.0
220
0.0
230
1.0
 70
    24
 71
     3
 72
     8
 73
     4
 74
     0
 42
0.0000000001
 43
0.0000000001
 40
0.0
 40
0.0
 40
0.0
 40
0.0
 40
1.0
 40
1.0
 40
1.0
 40
1.0
 10
-18.2628
 20
-20.4383
 30
0.0
 10
-18.2628
 20
-20.4383
 30
0.0
 10
13.9987
 20
-26.2786
 30
0.0
 10
13.9987
 20
-26.2786
 30
0.0
  0
SPLINE
  5
8F
330
1F
100
AcDbEntity
  8
VRSTVA_1
100
AcDbSpline
210
0.0
220
0.0
230
1.0
 70
    24
 71
     3
 72
     8
 73
     4
 74
     0
 42
0.0000000001
 43
0.0000000001
 40
0.0
 40
0.0
 40
0.0
 40
0.0
 40
1.0
 40
1.0
 40
1.0
 40
1.0
 10
16.1495
 20
3.1562
 30
0.0
 10
16.1495
 20
3.1562
 30
0.0
 10
16.1495
 20
1.8657
 30
0.0
 10
16.1495
 20
1.8657
 30
0.0
  0
SPLINE
  5
90
330
1F
100
AcDbEntity
  8
VRSTVA_1
100
AcDbSpline
210
0.0
220
0.0
230
1.0
 70
    24
 71
     3
 72
     8
 73
     4
 74
     0
 42
0.0000000001
 43
0.0000000001
 40
0.0
 40
0.0
 40
0.0
 40
0.0
 40
1.0
 40
1.0
 40
1.0
 40
1.0
 10
26.9034
 20
-24.2124
 30
0.0
 10
26.9034
 20
-24.2124
 30
0.0
 10
23.8923
 20
-24.2124
 30
0.0
 10
23.8923
 20
-24.2124
 30
0.0
  0
SPLINE
  5
91
330
1F
100
AcDbEntity
  8
VRSTVA_1
100
AcDbSpline
210
0.0
220
0.0
230
1.0
 70
    24
 71
     3
 72
     8
 73
     4
 74
     0
 42
0.0000000001
 43
0.0000000001
 40
0.0
 40
0.0
 40
0.0
 40
0.0
 40
1.0
 40
1.0
 40
1.0
 40
1.0
 10
23.8923
 20
-24.3649
 30
0.0
 10
23.8923
 20
-24.3649
 30
0.0
 10
26.9034
 20
-24.3649
 30
0.0
 10
26.9034
 20
-24.3649
 30
0.0
  0
SPLINE
  5
92
330
1F
100
AcDbEntity
  8
VRSTVA_1
100
AcDbSpline
210
0.0
220
0.0
230
1.0
 70
    24
 71
     3
 72
     8
 73
     4
 74
     0
 42
0.0000000001
 43
0.0000000001
 40
0.0
 40
0.0
 40
0.0
 40
0.0
 40
1.0
 40
1.0
 40
1.0
 40
1.0
 10
23.8923
 20
-25.5816
 30
0.0
 10
23.8923
 20
-25.5816
 30
0.0
 10
26.9034
 20
-25.5816
 30
0.0
 10
26.9034
 20
-25.5816
 30
0.0
  0
SPLINE
  5
93
330
1F
100
AcDbEntity
  8
VRSTVA_1
100
AcDbSpline
210
0.0
220
0.0
230
1.0
 70
    24
 71
     3
 72
     8
 73
     4
 74
     0
 42
0.0000000001
 43
0.0000000001
 40
0.0
 40
0.0
 40
0.0
 40
0.0
 40
1.0
 40
1.0
 40
1.0
 40
1.0
 10
22.6018
 20
-26.0942
 30
0.0
 10
22.6018
 20
-26.0942
 30
0.0
 10
20.451
 20
-26.0942
 30
0.0
 10
20.451
 20
-26.0942
 30
0.0
  0
SPLINE
  5
94
330
1F
100
AcDbEntity
  8
VRSTVA_1
100
AcDbSpline
210
0.0
220
0.0
230
1.0
 70
    24
 71
     3
 72
     8
 73
     4
 74
     0
 42
0.0000000001
 43
0.0000000001
 40
0.0
 40
0.0
 40
0.0
 40
0.0
 40
1.0
 40
1.0
 40
1.0
 40
1.0
 10
17.7814
 20
-26.0942
 30
0.0
 10
17.7814
 20
-26.0942
 30
0.0
 10
20.451
 20
-26.0942
 30
0.0
 10
20.451
 20
-26.0942
 30
0.0
  0
SPLINE
  5
95
330
1F
100
AcDbEntity
  8
VRSTVA_1
100
AcDbSpline
210
0.0
220
0.0
230
1.0
 70
    24
 71
     3
 72
     8
 73
     4
 74
     0
 42
0.0000000001
 43
0.0000000001
 40
0.0
 40
0.0
 40
0.0
 40
0.0
 40
1.0
 40
1.0
 40
1.0
 40
1.0
 10
17.128
 20
1.688
 30
0.0
 10
17.128
 20
1.688
 30
0.0
 10
18.1272
 20
-3.9787
 30
0.0
 10
18.1272
 20
-3.9787
 30
0.0
  0
SPLINE
  5
96
330
1F
100
AcDbEntity
  8
VRSTVA_1
100
AcDbSpline
210
0.0
220
0.0
230
1.0
 70
    24
 71
     3
 72
     8
 73
     4
 74
     0
 42
0.0000000001
 43
0.0000000001
 40
0.0
 40
0.0
 40
0.0
 40
0.0
 40
1.0
 40
1.0
 40
1.0
 40
1.0
 10
18.3003
 20
-6.3072
 30
0.0
 10
18.3003
 20
-6.3072
 30
0.0
 10
18.3003
 20
-6.7374
 30
0.0
 10
18.3003
 20
-6.7374
 30
0.0
  0
SPLINE
  5
97
330
1F
100
AcDbEntity
  8
VRSTVA_1
100
AcDbSpline
210
0.0
220
0.0
230
1.0
 70
    24
 71
     3
 72
     8
 73
     4
 74
     0
 42
0.0000000001
 43
0.0000000001
 40
0.0
 40
0.0
 40
0.0
 40
0.0
 40
1.0
 40
1.0
 40
1.0
 40
1.0
 10
19.5907
 20
-4.1564
 30
0.0
 10
19.5907
 20
-4.1564
 30
0.0
 10
19.5907
 20
-5.877
 30
0.0
 10
19.5907
 20
-5.877
 30
0.0
  0
SPLINE
  5
98
330
1F
100
AcDbEntity
  8
VRSTVA_1
100
AcDbSpline
210
0.0
220
0.0
230
1.0
 70
    24
 71
     3
 72
     8
 73
     4
 74
     0
 42
0.0000000001
 43
0.0000000001
 40
0.0
 40
0.0
 40
0.0
 40
0.0
 40
1.0
 40
1.0
 40
1.0
 40
1.0
 10
20.451
 20
-26.9546
 30
0.0
 10
20.451
 20
-26.9546
 30
0.0
 10
22.6018
 20
-26.9546
 30
0.0
 10
22.6018
 20
-26.9546
 30
0.0
  0
SPLINE
  5
99
330
1F
100
AcDbEntity
  8
VRSTVA_1
100
AcDbSpline
210
0.0
220
0.0
230
1.0
 70
    24
 71
     3
 72
     8
 73
     4
 74
     0
 42
0.0000000001
 43
0.0000000001
 40
0.0
 40
0.0
 40
0.0
 40
0.0
 40
1.0
 40
1.0
 40
1.0
 40
1.0
 10
-18.2628
 20
-27.8149
 30
0.0
 10
-18.2628
 20
-27.8149
 30
0.0
 10
13.9987
 20
-27.8149
 30
0.0
 10
13.9987
 20
-27.8149
 30
0.0
  0
SPLINE
  5
9A
330
1F
100
AcDbEntity
  8
VRSTVA_1
100
AcDbSpline
210
0.0
220
0.0
230
1.0
 70
    24
 71
     3
 72
     8
 73
     4
 74
     0
 42
0.0000000001
 43
0.0000000001
 40
0.0
 40
0.0
 40
0.0
 40
0.0
 40
1.0
 40
1.0
 40
1.0
 40
1.0
 10
26.9034
 20
-28.2131
 30
0.0
 10
26.9034
 20
-28.2131
 30
0.0
 10
23.8923
 20
-28.2131
 30
0.0
 10
23.8923
 20
-28.2131
 30
0.0
  0
SPLINE
  5
9B
330
1F
100
AcDbEntity
  8
VRSTVA_1
100
AcDbSpline
210
0.0
220
0.0
230
1.0
 70
    27
 71
     3
 72
     8
 73
     4
 74
     0
 42
0.0000000001
 43
0.0000000001
 40
0.0
 40
0.0
 40
0.0
 40
0.0
 40
1.0
 40
1.0
 40
1.0
 40
1.0
 10
27.7636
 20
-28.245
 30
0.0
 10
27.7636
 20
-28.245
 30
0.0
 10
27.7636
 20
-28.245
 30
0.0
 10
27.7636
 20
-28.245
 30
0.0
  0
SPLINE
  5
9C
330
1F
100
AcDbEntity
  8
VRSTVA_1
100
AcDbSpline
210
0.0
220
0.0
230
1.0
 70
    24
 71
     3
 72
     8
 73
     4
 74
     0
 42
0.0000000001
 43
0.0000000001
 40
0.0
 40
0.0
 40
0.0
 40
0.0
 40
1.0
 40
1.0
 40
1.0
 40
1.0
 10
23.8923
 20
-28.4288
 30
0.0
 10
23.8923
 20
-28.4288
 30
0.0
 10
26.9034
 20
-28.4288
 30
0.0
 10
26.9034
 20
-28.4288
 30
0.0
  0
SPLINE
  5
9D
330
1F
100
AcDbEntity
  8
VRSTVA_1
100
AcDbSpline
210
0.0
220
0.0
230
1.0
 70
    24
 71
     3
 72
     8
 73
     4
 74
     0
 42
0.0000000001
 43
0.0000000001
 40
0.0
 40
0.0
 40
0.0
 40
0.0
 40
1.0
 40
1.0
 40
1.0
 40
1.0
 10
27.7636
 20
-28.4601
 30
0.0
 10
27.7636
 20
-28.4601
 30
0.0
 10
22.6018
 20
-28.4601
 30
0.0
 10
22.6018
 20
-28.4601
 30
0.0
  0
SPLINE
  5
9E
330
1F
100
AcDbEntity
  8
VRSTVA_1
100
AcDbSpline
210
0.0
220
0.0
230
1.0
 70
    24
 71
     3
 72
     8
 73
     4
 74
     0
 42
0.0000000001
 43
0.0000000001
 40
0.0
 40
0.0
 40
0.0
 40
0.0
 40
1.0
 40
1.0
 40
1.0
 40
1.0
 10
20.451
 20
-26.9546
 30
0.0
 10
20.451
 20
-26.9546
 30
0.0
 10
20.451
 20
-6.3072
 30
0.0
 10
20.451
 20
-6.3072
 30
0.0
  0
SPLINE
  5
9F
330
1F
100
AcDbEntity
  8
VRSTVA_1
100
AcDbSpline
210
0.0
220
0.0
230
1.0
 70
    24
 71
     3
 72
     8
 73
     4
 74
     0
 42
0.0000000001
 43
0.0000000001
 40
0.0
 40
0.0
 40
0.0
 40
0.0
 40
1.0
 40
1.0
 40
1.0
 40
1.0
 10
-16.9723
 20
-29.1053
 30
0.0
 10
-16.9723
 20
-29.1053
 30
0.0
 10
12.7083
 20
-29.1053
 30
0.0
 10
12.7083
 20
-29.1053
 30
0.0
  0
SPLINE
  5
A0
330
1F
100
AcDbEntity
  8
VRSTVA_1
100
AcDbSpline
210
0.0
220
0.0
230
1.0
 70
    24
 71
     3
 72
     8
 73
     4
 74
     0
 42
0.0000000001
 43
0.0000000001
 40
0.0
 40
0.0
 40
0.0
 40
0.0
 40
1.0
 40
1.0
 40
1.0
 40
1.0
 10
22.6018
 20
-28.4601
 30
0.0
 10
22.6018
 20
-28.4601
 30
0.0
 10
22.6018
 20
-4.8017
 30
0.0
 10
22.6018
 20
-4.8017
 30
0.0
  0
SPLINE
  5
A1
330
1F
100
AcDbEntity
  8
VRSTVA_1
100
AcDbSpline
210
0.0
220
0.0
230
1.0
 70
    24
 71
     3
 72
     8
 73
     4
 74
     0
 42
0.0000000001
 43
0.0000000001
 40
0.0
 40
0.0
 40
0.0
 40
0.0
 40
1.0
 40
1.0
 40
1.0
 40
1.0
 10
23.8923
 20
-24.3649
 30
0.0
 10
23.8923
 20
-24.3649
 30
0.0
 10
23.8923
 20
-17.4912
 30
0.0
 10
23.8923
 20
-17.4912
 30
0.0
  0
SPLINE
  5
A2
330
1F
100
AcDbEntity
  8
VRSTVA_1
100
AcDbSpline
210
0.0
220
0.0
230
1.0
 70
    24
 71
     3
 72
     8
 73
     4
 74
     0
 42
0.0000000001
 43
0.0000000001
 40
0.0
 40
0.0
 40
0.0
 40
0.0
 40
1.0
 40
1.0
 40
1.0
 40
1.0
 10
23.8923
 20
-28.4288
 30
0.0
 10
23.8923
 20
-28.4288
 30
0.0
 10
23.8923
 20
-25.5816
 30
0.0
 10
23.8923
 20
-25.5816
 30
0.0
  0
SPLINE
  5
A3
330
1F
100
AcDbEntity
  8
VRSTVA_1
100
AcDbSpline
210
0.0
220
0.0
230
1.0
 70
    24
 71
     3
 72
     8
 73
     4
 74
     0
 42
0.0000000001
 43
0.0000000001
 40
0.0
 40
0.0
 40
0.0
 40
0.0
 40
1.0
 40
1.0
 40
1.0
 40
1.0
 10
23.8923
 20
-8.8968
 30
0.0
 10
23.8923
 20
-8.8968
 30
0.0
 10
23.8923
 20
-15.7706
 30
0.0
 10
23.8923
 20
-15.7706
 30
0.0
  0
SPLINE
  5
A4
330
1F
100
AcDbEntity
  8
VRSTVA_1
100
AcDbSpline
210
0.0
220
0.0
230
1.0
 70
    24
 71
     3
 72
     8
 73
     4
 74
     0
 42
0.0000000001
 43
0.0000000001
 40
0.0
 40
0.0
 40
0.0
 40
0.0
 40
1.0
 40
1.0
 40
1.0
 40
1.0
 10
23.8923
 20
-4.833
 30
0.0
 10
23.8923
 20
-4.833
 30
0.0
 10
23.8923
 20
-7.6802
 30
0.0
 10
23.8923
 20
-7.6802
 30
0.0
  0
SPLINE
  5
A5
330
1F
100
AcDbEntity
  8
VRSTVA_1
100
AcDbSpline
210
0.0
220
0.0
230
1.0
 70
    24
 71
     3
 72
     8
 73
     4
 74
     0
 42
0.0000000001
 43
0.0000000001
 40
0.0
 40
0.0
 40
0.0
 40
0.0
 40
1.0
 40
1.0
 40
1.0
 40
1.0
 10
26.9034
 20
-24.3649
 30
0.0
 10
26.9034
 20
-24.3649
 30
0.0
 10
26.9034
 20
-24.2124
 30
0.0
 10
26.9034
 20
-24.2124
 30
0.0
  0
SPLINE
  5
A6
330
1F
100
AcDbEntity
  8
VRSTVA_1
100
AcDbSpline
210
0.0
220
0.0
230
1.0
 70
    24
 71
     3
 72
     8
 73
     4
 74
     0
 42
0.0000000001
 43
0.0000000001
 40
0.0
 40
0.0
 40
0.0
 40
0.0
 40
1.0
 40
1.0
 40
1.0
 40
1.0
 10
26.9034
 20
-28.4288
 30
0.0
 10
26.9034
 20
-28.4288
 30
0.0
 10
26.9034
 20
-28.2131
 30
0.0
 10
26.9034
 20
-28.2131
 30
0.0
  0
SPLINE
  5
A7
330
1F
100
AcDbEntity
  8
VRSTVA_1
100
AcDbSpline
210
0.0
220
0.0
230
1.0
 70
    24
 71
     3
 72
     8
 73
     4
 74
     0
 42
0.0000000001
 43
0.0000000001
 40
0.0
 40
0.0
 40
0.0
 40
0.0
 40
1.0
 40
1.0
 40
1.0
 40
1.0
 10
26.9034
 20
-8.8968
 30
0.0
 10
26.9034
 20
-8.8968
 30
0.0
 10
26.9034
 20
-9.0493
 30
0.0
 10
26.9034
 20
-9.0493
 30
0.0
  0
SPLINE
  5
A8
330
1F
100
AcDbEntity
  8
VRSTVA_1
100
AcDbSpline
210
0.0
220
0.0
230
1.0
 70
    24
 71
     3
 72
     8
 73
     4
 74
     0
 42
0.0000000001
 43
0.0000000001
 40
0.0
 40
0.0
 40
0.0
 40
0.0
 40
1.0
 40
1.0
 40
1.0
 40
1.0
 10
26.9034
 20
-4.833
 30
0.0
 10
26.9034
 20
-4.833
 30
0.0
 10
26.9034
 20
-5.0486
 30
0.0
 10
26.9034
 20
-5.0486
 30
0.0
  0
SPLINE
  5
A9
330
1F
100
AcDbEntity
  8
VRSTVA_1
100
AcDbSpline
210
0.0
220
0.0
230
1.0
 70
    24
 71
     3
 72
     8
 73
     4
 74
     0
 42
0.0000000001
 43
0.0000000001
 40
0.0
 40
0.0
 40
0.0
 40
0.0
 40
1.0
 40
1.0
 40
1.0
 40
1.0
 10
27.7636
 20
-28.4601
 30
0.0
 10
27.7636
 20
-28.4601
 30
0.0
 10
27.7636
 20
-4.8017
 30
0.0
 10
27.7636
 20
-4.8017
 30
0.0
  0
SPLINE
  5
AA
330
1F
100
AcDbEntity
  8
VRSTVA_1
100
AcDbSpline
210
0.0
220
0.0
230
1.0
 70
    24
 71
     3
 72
     8
 73
     4
 74
     0
 42
0.0000000001
 43
0.0000000001
 40
0.0
 40
0.0
 40
0.0
 40
0.0
 40
1.0
 40
1.0
 40
1.0
 40
1.0
 10
28.624
 20
-27.3847
 30
0.0
 10
28.624
 20
-27.3847
 30
0.0
 10
28.624
 20
-5.877
 30
0.0
 10
28.624
 20
-5.877
 30
0.0
  0
SPLINE
  5
AB
330
1F
100
AcDbEntity
  8
VRSTVA_1
100
AcDbSpline
210
0.0
220
0.0
230
1.0
 70
    24
 71
     3
 72
     8
 73
     4
 74
     0
 42
0.0000000001
 43
0.0000000001
 40
0.0
 40
0.0
 40
0.0
 40
0.0
 40
1.0
 40
1.0
 40
1.0
 40
1.0
 10
17.4051
 20
14.4974
 30
0.0
 10
17.4051
 20
14.4974
 30
0.0
 10
17.4051
 20
26.7244
 30
0.0
 10
17.4051
 20
26.7244
 30
0.0
  0
SPLINE
  5
AC
330
1F
100
AcDbEntity
  8
VRSTVA_1
100
AcDbSpline
210
0.0
220
0.0
230
1.0
 70
    24
 71
     3
 72
     8
 73
     4
 74
     0
 42
0.0000000001
 43
0.0000000001
 40
0.0
 40
0.0
 40
0.0
 40
0.0
 40
1.0
 40
1.0
 40
1.0
 40
1.0
 10
-21.3703
 20
14.25
 30
0.0
 10
-21.3703
 20
14.25
 30
0.0
 10
-21.3703
 20
26.759
 30
0.0
 10
-21.3703
 20
26.759
 30
0.0
  0
SPLINE
  5
AD
330
1F
100
AcDbEntity
  8
VRSTVA_1
100
AcDbSpline
210
0.0
220
0.0
230
1.0
 70
    24
 71
     3
 72
     8
 73
     4
 74
     0
 42
0.0000000001
 43
0.0000000001
 40
0.0
 40
0.0
 40
0.0
 40
0.0
 40
1.0
 40
1.0
 40
1.0
 40
1.0
 10
-21.758
 20
3.2437
 30
0.0
 10
-21.758
 20
3.2437
 30
0.0
 10
-32.2695
 20
3.2437
 30
0.0
 10
-32.2695
 20
3.2437
 30
0.0
  0
SPLINE
  5
AE
330
1F
100
AcDbEntity
  8
VRSTVA_1
100
AcDbSpline
210
0.0
220
0.0
230
1.0
 70
    24
 71
     3
 72
     8
 73
     4
 74
     0
 42
0.0000000001
 43
0.0000000001
 40
0.0
 40
0.0
 40
0.0
 40
0.0
 40
1.0
 40
1.0
 40
1.0
 40
1.0
 10
-18.64
 20
-29.1896
 30
0.0
 10
-18.64
 20
-29.1896
 30
0.0
 10
-32.2695
 20
-29.1896
 30
0.0
 10
-32.2695
 20
-29.1896
 30
0.0
  0
SPLINE
  5
AF
330
1F
100
AcDbEntity
  8
VRSTVA_1
100
AcDbSpline
210
0.0
220
0.0
230
1.0
 70
    24
 71
     3
 72
     8
 73
     4
 74
     0
 42
0.0000000001
 43
0.0000000001
 40
0.0
 40
0.0
 40
0.0
 40
0.0
 40
1.0
 40
1.0
 40
1.0
 40
1.0
 10
8.0733
 20
16.5358
 30
0.0
 10
8.0733
 20
16.5358
 30
0.0
 10
8.0733
 20
18.6193
 30
0.0
 10
8.0733
 20
18.6193
 30
0.0
  0
SPLINE
  5
B0
330
1F
100
AcDbEntity
  8
VRSTVA_1
100
AcDbSpline
210
0.0
220
0.0
230
1.0
 70
    24
 71
     3
 72
     8
 73
     4
 74
     0
 42
0.0000000001
 43
0.0000000001
 40
0.0
 40
0.0
 40
0.0
 40
0.0
 40
1.0
 40
1.0
 40
1.0
 40
1.0
 10
-12.2134
 20
16.3191
 30
0.0
 10
-12.2134
 20
16.3191
 30
0.0
 10
-12.2134
 20
18.6507
 30
0.0
 10
-12.2134
 20
18.6507
 30
0.0
  0
SPLINE
  5
B1
330
1F
100
AcDbEntity
  8
VRSTVA_1
 62
   250
100
AcDbSpline
210
0.0
220
0.0
230
1.0
 70
    24
 71
     3
 72
     8
 73
     4
 74
     0
 42
0.0000000001
 43
0.0000000001
 40
0.0
 40
0.0
 40
0.0
 40
0.0
 40
1.0
 40
1.0
 40
1.0
 40
1.0
 10
-32.0113
 20
2.7071
 30
0.0
 10
-32.0113
 20
2.7071
 30
0.0
 10
-32.0113
 20
-28.5749
 30
0.0
 10
-32.0113
 20
-28.5749
 30
0.0
  0
SPLINE
  5
B2
330
1F
100
AcDbEntity
  8
VRSTVA_1
 62
   250
100
AcDbSpline
210
0.0
220
0.0
230
1.0
 70
    24
 71
     3
 72
     8
 73
     4
 74
     0
 42
0.0000000001
 43
0.0000000001
 40
0.0
 40
0.0
 40
0.0
 40
0.0
 40
1.0
 40
1.0
 40
1.0
 40
1.0
 10
15.4876
 20
26.476
 30
0.0
 10
15.4876
 20
26.476
 30
0.0
 10
-18.6248
 20
26.476
 30
0.0
 10
-18.6248
 20
26.476
 30
0.0
  0
SPLINE
  5
B3
330
1F
100
AcDbEntity
  8
VRSTVA_1
 62
   250
100
AcDbSpline
210
0.0
220
0.0
230
1.0
 70
    11
 71
     3
 72
    84
 73
    80
 74
     0
 42
0.0000000001
 43
0.0000000001
 40
0.0
 40
0.0
 40
0.0
 40
0.0
 40
0.0476190476190476
 40
0.0476190476190476
 40
0.0476190476190476
 40
0.0476190476190476
 40
0.0952380952380952
 40
0.0952380952380952
 40
0.0952380952380952
 40
0.0952380952380952
 40
0.1428571428571428
 40
0.1428571428571428
 40
0.1428571428571428
 40
0.1428571428571428
 40
0.1904761904761905
 40
0.1904761904761905
 40
0.1904761904761905
 40
0.1904761904761905
 40
0.2380952380952381
 40
0.2380952380952381
 40
0.2380952380952381
 40
0.2380952380952381
 40
0.2857142857142857
 40
0.2857142857142857
 40
0.2857142857142857
 40
0.2857142857142857
 40
0.3333333333333333
 40
0.3333333333333333
 40
0.3333333333333333
 40
0.3333333333333333
 40
0.3809523809523809
 40
0.3809523809523809
 40
0.3809523809523809
 40
0.3809523809523809
 40
0.4285714285714285
 40
0.4285714285714285
 40
0.4285714285714285
 40
0.4285714285714285
 40
0.4761904761904762
 40
0.4761904761904762
 40
0.4761904761904762
 40
0.4761904761904762
 40
0.5238095238095238
 40
0.5238095238095238
 40
0.5238095238095238
 40
0.5238095238095238
 40
0.5714285714285714
 40
0.5714285714285714
 40
0.5714285714285714
 40
0.5714285714285714
 40
0.6190476190476191
 40
0.6190476190476191
 40
0.6190476190476191
 40
0.6190476190476191
 40
0.6666666666666666
 40
0.6666666666666666
 40
0.6666666666666666
 40
0.6666666666666666
 40
0.7142857142857143
 40
0.7142857142857143
 40
0.7142857142857143
 40
0.7142857142857143
 40
0.7619047619047619
 40
0.7619047619047619
 40
0.7619047619047619
 40
0.7619047619047619
 40
0.8095238095238095
 40
0.8095238095238095
 40
0.8095238095238095
 40
0.8095238095238095
 40
0.8571428571428571
 40
0.8571428571428571
 40
0.8571428571428571
 40
0.8571428571428571
 40
0.9047619047619048
 40
0.9047619047619048
 40
0.9047619047619048
 40
0.9047619047619048
 40
1.0
 40
1.0
 40
1.0
 40
1.0
 10
-3.03
 20
28.9306
 30
0.0
 10
-3.03
 20
28.9306
 30
0.0
 10
-2.7986
 20
29.1897
 30
0.0
 10
-2.7986
 20
29.1897
 30
0.0
 10
-2.7986
 20
29.1897
 30
0.0
 10
-2.7986
 20
29.1897
 30
0.0
 10
-2.6622
 20
29.074
 30
0.0
 10
-2.6622
 20
29.074
 30
0.0
 10
-2.6622
 20
29.074
 30
0.0
 10
-2.6622
 20
29.074
 30
0.0
 10
-2.9044
 20
28.8012
 30
0.0
 10
-2.9044
 20
28.8012
 30
0.0
 10
-2.9044
 20
28.8012
 30
0.0
 10
-2.8254
 20
28.6836
 30
0.0
 10
-2.7723
 20
28.5806
 30
0.0
 10
-2.7445
 20
28.4927
 30
0.0
 10
-2.7445
 20
28.4927
 30
0.0
 10
-2.7078
 20
28.3769
 30
0.0
 10
-2.6895
 20
28.2471
 30
0.0
 10
-2.6895
 20
28.1041
 30
0.0
 10
-2.6895
 20
28.1041
 30
0.0
 10
-2.6895
 20
27.8972
 30
0.0
 10
-2.7313
 20
27.7128
 30
0.0
 10
-2.8151
 20
27.5515
 30
0.0
 10
-2.8151
 20
27.5515
 30
0.0
 10
-2.8988
 20
27.3896
 30
0.0
 10
-3.0159
 20
27.2674
 30
0.0
 10
-3.1669
 20
27.1846
 30
0.0
 10
-3.1669
 20
27.1846
 30
0.0
 10
-3.3184
 20
27.1023
 30
0.0
 10
-3.4787
 20
27.0609
 30
0.0
 10
-3.6485
 20
27.0609
 30
0.0
 10
-3.6485
 20
27.0609
 30
0.0
 10
-3.7755
 20
27.0609
 30
0.0
 10
-3.8903
 20
27.0787
 30
0.0
 10
-3.9933
 20
27.1145
 30
0.0
 10
-3.9933
 20
27.1145
 30
0.0
 10
-4.0723
 20
27.1422
 30
0.0
 10
-4.1645
 20
27.1949
 30
0.0
 10
-4.2704
 20
27.273
 30
0.0
 10
-4.2704
 20
27.273
 30
0.0
 10
-4.2704
 20
27.273
 30
0.0
 10
-4.5018
 20
27.0138
 30
0.0
 10
-4.5018
 20
27.0138
 30
0.0
 10
-4.5018
 20
27.0138
 30
0.0
 10
-4.5018
 20
27.0138
 30
0.0
 10
-4.6382
 20
27.1295
 30
0.0
 10
-4.6382
 20
27.1295
 30
0.0
 10
-4.6382
 20
27.1295
 30
0.0
 10
-4.6382
 20
27.1295
 30
0.0
 10
-4.3955
 20
27.4009
 30
0.0
 10
-4.3955
 20
27.4009
 30
0.0
 10
-4.3955
 20
27.4009
 30
0.0
 10
-4.4858
 20
27.5378
 30
0.0
 10
-4.546
 20
27.6549
 30
0.0
 10
-4.5761
 20
27.7518
 30
0.0
 10
-4.5761
 20
27.7518
 30
0.0
 10
-4.6062
 20
27.8487
 30
0.0
 10
-4.6217
 20
27.9654
 30
0.0
 10
-4.6217
 20
28.1013
 30
0.0
 10
-4.6217
 20
28.1013
 30
0.0
 10
-4.6217
 20
28.3087
 30
0.0
 10
-4.5803
 20
28.4936
 30
0.0
 10
-4.4976
 20
28.6559
 30
0.0
 10
-4.4976
 20
28.6559
 30
0.0
 10
-4.4148
 20
28.8182
 30
0.0
 10
-4.2991
 20
28.9409
 30
0.0
 10
-4.1495
 20
29.0246
 30
0.0
 10
-4.1495
 20
29.0246
 30
0.0
 10
-4.0004
 20
29.1079
 30
0.0
 10
-3.8343
 20
29.1498
 30
0.0
 10
-3.6514
 20
29.1498
 30
0.0
 10
-3.6514
 20
29.1498
 30
0.0
 10
-3.5281
 20
29.1498
 30
0.0
 10
-3.4204
 20
29.1338
 30
0.0
 10
-3.3282
 20
29.1008
 30
0.0
 10
-3.3282
 20
29.1008
 30
0.0
 10
-3.236
 20
29.0684
 30
0.0
 10
-3.1363
 20
29.0115
 30
0.0
 10
-3.03
 20
28.9306
 30
0.0
  0
SPLINE
  5
B4
330
1F
100
AcDbEntity
  8
VRSTVA_1
 62
   250
100
AcDbSpline
210
0.0
220
0.0
230
1.0
 70
    11
 71
     3
 72
    32
 73
    28
 74
     0
 42
0.0000000001
 43
0.0000000001
 40
0.0
 40
0.0
 40
0.0
 40
0.0
 40
0.125
 40
0.125
 40
0.125
 40
0.125
 40
0.25
 40
0.25
 40
0.25
 40
0.25
 40
0.375
 40
0.375
 40
0.375
 40
0.375
 40
0.5
 40
0.5
 40
0.5
 40
0.5
 40
0.625
 40
0.625
 40
0.625
 40
0.625
 40
0.75
 40
0.75
 40
0.75
 40
0.75
 40
1.0
 40
1.0
 40
1.0
 40
1.0
 10
-3.1951
 20
28.7448
 30
0.0
 10
-3.2817
 20
28.8125
 30
0.0
 10
-3.3574
 20
28.8591
 30
0.0
 10
-3.4218
 20
28.884
 30
0.0
 10
-3.4218
 20
28.884
 30
0.0
 10
-3.4867
 20
28.9085
 30
0.0
 10
-3.5629
 20
28.9212
 30
0.0
 10
-3.65
 20
28.9212
 30
0.0
 10
-3.65
 20
28.9212
 30
0.0
 10
-3.8513
 20
28.9212
 30
0.0
 10
-4.0173
 20
28.853
 30
0.0
 10
-4.149
 20
28.7166
 30
0.0
 10
-4.149
 20
28.7166
 30
0.0
 10
-4.2803
 20
28.5801
 30
0.0
 10
-4.3461
 20
28.3765
 30
0.0
 10
-4.3461
 20
28.1051
 30
0.0
 10
-4.3461
 20
28.1051
 30
0.0
 10
-4.3461
 20
27.9988
 30
0.0
 10
-4.3358
 20
27.9042
 30
0.0
 10
-4.3155
 20
27.8214
 30
0.0
 10
-4.3155
 20
27.8214
 30
0.0
 10
-4.3009
 20
27.7598
 30
0.0
 10
-4.2704
 20
27.6841
 30
0.0
 10
-4.2233
 20
27.5943
 30
0.0
 10
-4.2233
 20
27.5943
 30
0.0
 10
-4.2233
 20
27.5943
 30
0.0
 10
-3.1951
 20
28.7448
 30
0.0
 10
-3.1951
 20
28.7448
 30
0.0
  0
SPLINE
  5
B5
330
1F
100
AcDbEntity
  8
VRSTVA_1
 62
   250
100
AcDbSpline
210
0.0
220
0.0
230
1.0
 70
    11
 71
     3
 72
    28
 73
    24
 74
     0
 42
0.0000000001
 43
0.0000000001
 40
0.0
 40
0.0
 40
0.0
 40
0.0
 40
0.1428571428571428
 40
0.1428571428571428
 40
0.1428571428571428
 40
0.1428571428571428
 40
0.2857142857142857
 40
0.2857142857142857
 40
0.2857142857142857
 40
0.2857142857142857
 40
0.4285714285714285
 40
0.4285714285714285
 40
0.4285714285714285
 40
0.4285714285714285
 40
0.5714285714285714
 40
0.5714285714285714
 40
0.5714285714285714
 40
0.5714285714285714
 40
0.7142857142857143
 40
0.7142857142857143
 40
0.7142857142857143
 40
0.7142857142857143
 40
1.0
 40
1.0
 40
1.0
 40
1.0
 10
-3.0822
 20
28.6027
 30
0.0
 10
-3.0822
 20
28.6027
 30
0.0
 10
-4.1062
 20
27.4564
 30
0.0
 10
-4.1062
 20
27.4564
 30
0.0
 10
-4.1062
 20
27.4564
 30
0.0
 10
-4.0357
 20
27.3986
 30
0.0
 10
-3.9703
 20
27.3581
 30
0.0
 10
-3.9105
 20
27.3351
 30
0.0
 10
-3.9105
 20
27.3351
 30
0.0
 10
-3.8325
 20
27.3045
 30
0.0
 10
-3.7478
 20
27.2895
 30
0.0
 10
-3.657
 20
27.2895
 30
0.0
 10
-3.657
 20
27.2895
 30
0.0
 10
-3.4566
 20
27.2895
 30
0.0
 10
-3.2915
 20
27.36
 30
0.0
 10
-3.1608
 20
27.5016
 30
0.0
 10
-3.1608
 20
27.5016
 30
0.0
 10
-3.0305
 20
27.6432
 30
0.0
 10
-2.9651
 20
27.8417
 30
0.0
 10
-2.9651
 20
28.0971
 30
0.0
 10
-2.9651
 20
28.0971
 30
0.0
 10
-2.9651
 20
28.288
 30
0.0
 10
-3.0041
 20
28.4569
 30
0.0
 10
-3.0822
 20
28.6027
 30
0.0
  0
SPLINE
  5
B6
330
1F
100
AcDbEntity
  8
VRSTVA_1
 62
   250
100
AcDbSpline
210
0.0
220
0.0
230
1.0
 70
    11
 71
     3
 72
    92
 73
    88
 74
     0
 42
0.0000000001
 43
0.0000000001
 40
0.0
 40
0.0
 40
0.0
 40
0.0
 40
0.0434782608695652
 40
0.0434782608695652
 40
0.0434782608695652
 40
0.0434782608695652
 40
0.0869565217391304
 40
0.0869565217391304
 40
0.0869565217391304
 40
0.0869565217391304
 40
0.1304347826086956
 40
0.1304347826086956
 40
0.1304347826086956
 40
0.1304347826086956
 40
0.1739130434782609
 40
0.1739130434782609
 40
0.1739130434782609
 40
0.1739130434782609
 40
0.2173913043478261
 40
0.2173913043478261
 40
0.2173913043478261
 40
0.2173913043478261
 40
0.2608695652173913
 40
0.2608695652173913
 40
0.2608695652173913
 40
0.2608695652173913
 40
0.3043478260869565
 40
0.3043478260869565
 40
0.3043478260869565
 40
0.3043478260869565
 40
0.3478260869565217
 40
0.3478260869565217
 40
0.3478260869565217
 40
0.3478260869565217
 40
0.391304347826087
 40
0.391304347826087
 40
0.391304347826087
 40
0.391304347826087
 40
0.4347826086956522
 40
0.4347826086956522
 40
0.4347826086956522
 40
0.4347826086956522
 40
0.4782608695652174
 40
0.4782608695652174
 40
0.4782608695652174
 40
0.4782608695652174
 40
0.5217391304347826
 40
0.5217391304347826
 40
0.5217391304347826
 40
0.5217391304347826
 40
0.5652173913043478
 40
0.5652173913043478
 40
0.5652173913043478
 40
0.5652173913043478
 40
0.6086956521739131
 40
0.6086956521739131
 40
0.6086956521739131
 40
0.6086956521739131
 40
0.6521739130434783
 40
0.6521739130434783
 40
0.6521739130434783
 40
0.6521739130434783
 40
0.6956521739130435
 40
0.6956521739130435
 40
0.6956521739130435
 40
0.6956521739130435
 40
0.7391304347826086
 40
0.7391304347826086
 40
0.7391304347826086
 40
0.7391304347826086
 40
0.782608695652174
 40
0.782608695652174
 40
0.782608695652174
 40
0.782608695652174
 40
0.8260869565217391
 40
0.8260869565217391
 40
0.8260869565217391
 40
0.8260869565217391
 40
0.8695652173913043
 40
0.8695652173913043
 40
0.8695652173913043
 40
0.8695652173913043
 40
0.9130434782608695
 40
0.9130434782608695
 40
0.9130434782608695
 40
0.9130434782608695
 40
1.0
 40
1.0
 40
1.0
 40
1.0
 10
-2.403
 20
27.5623
 30
0.0
 10
-2.403
 20
27.5623
 30
0.0
 10
-2.1645
 20
27.5844
 30
0.0
 10
-2.1645
 20
27.5844
 30
0.0
 10
-2.1645
 20
27.5844
 30
0.0
 10
-2.1443
 20
27.4724
 30
0.0
 10
-2.1057
 20
27.3911
 30
0.0
 10
-2.0488
 20
27.3403
 30
0.0
 10
-2.0488
 20
27.3403
 30
0.0
 10
-1.9919
 20
27.2899
 30
0.0
 10
-1.919
 20
27.2645
 30
0.0
 10
-1.8296
 20
27.2645
 30
0.0
 10
-1.8296
 20
27.2645
 30
0.0
 10
-1.7534
 20
27.2645
 30
0.0
 10
-1.6867
 20
27.2819
 30
0.0
 10
-1.6293
 20
27.3172
 30
0.0
 10
-1.6293
 20
27.3172
 30
0.0
 10
-1.5719
 20
27.352
 30
0.0
 10
-1.5248
 20
27.3986
 30
0.0
 10
-1.4882
 20
27.4569
 30
0.0
 10
-1.4882
 20
27.4569
 30
0.0
 10
-1.451
 20
27.5152
 30
0.0
 10
-1.4204
 20
27.5943
 30
0.0
 10
-1.3955
 20
27.693
 30
0.0
 10
-1.3955
 20
27.693
 30
0.0
 10
-1.371
 20
27.7923
 30
0.0
 10
-1.3583
 20
27.8934
 30
0.0
 10
-1.3583
 20
27.9964
 30
0.0
 10
-1.3583
 20
27.9964
 30
0.0
 10
-1.3583
 20
28.0072
 30
0.0
 10
-1.3588
 20
28.0242
 30
0.0
 10
-1.3597
 20
28.0458
 30
0.0
 10
-1.3597
 20
28.0458
 30
0.0
 10
-1.4096
 20
27.9673
 30
0.0
 10
-1.4773
 20
27.9028
 30
0.0
 10
-1.5629
 20
27.8539
 30
0.0
 10
-1.5629
 20
27.8539
 30
0.0
 10
-1.649
 20
27.8045
 30
0.0
 10
-1.7422
 20
27.7801
 30
0.0
 10
-1.8419
 20
27.7801
 30
0.0
 10
-1.8419
 20
27.7801
 30
0.0
 10
-2.0093
 20
27.7801
 30
0.0
 10
-2.1509
 20
27.8407
 30
0.0
 10
-2.2666
 20
27.9621
 30
0.0
 10
-2.2666
 20
27.9621
 30
0.0
 10
-2.3823
 20
28.0834
 30
0.0
 10
-2.4402
 20
28.2429
 30
0.0
 10
-2.4402
 20
28.4414
 30
0.0
 10
-2.4402
 20
28.4414
 30
0.0
 10
-2.4402
 20
28.6465
 30
0.0
 10
-2.38
 20
28.8111
 30
0.0
 10
-2.2591
 20
28.9362
 30
0.0
 10
-2.2591
 20
28.9362
 30
0.0
 10
-2.1382
 20
29.0613
 30
0.0
 10
-1.9867
 20
29.1239
 30
0.0
 10
-1.8047
 20
29.1239
 30
0.0
 10
-1.8047
 20
29.1239
 30
0.0
 10
-1.6735
 20
29.1239
 30
0.0
 10
-1.5535
 20
29.0881
 30
0.0
 10
-1.4444
 20
29.0176
 30
0.0
 10
-1.4444
 20
29.0176
 30
0.0
 10
-1.3358
 20
28.947
 30
0.0
 10
-1.253
 20
28.8459
 30
0.0
 10
-1.1965
 20
28.7151
 30
0.0
 10
-1.1965
 20
28.7151
 30
0.0
 10
-1.1401
 20
28.5844
 30
0.0
 10
-1.1119
 20
28.3948
 30
0.0
 10
-1.1119
 20
28.1465
 30
0.0
 10
-1.1119
 20
28.1465
 30
0.0
 10
-1.1119
 20
27.8887
 30
0.0
 10
-1.1396
 20
27.6832
 30
0.0
 10
-1.1956
 20
27.5298
 30
0.0
 10
-1.1956
 20
27.5298
 30
0.0
 10
-1.252
 20
27.3769
 30
0.0
 10
-1.3353
 20
27.2608
 30
0.0
 10
-1.4458
 20
27.1808
 30
0.0
 10
-1.4458
 20
27.1808
 30
0.0
 10
-1.5568
 20
27.1008
 30
0.0
 10
-1.6862
 20
27.0609
 30
0.0
 10
-1.8353
 20
27.0609
 30
0.0
 10
-1.8353
 20
27.0609
 30
0.0
 10
-1.9933
 20
27.0609
 30
0.0
 10
-2.1222
 20
27.1046
 30
0.0
 10
-2.2224
 20
27.1926
 30
0.0
 10
-2.2224
 20
27.1926
 30
0.0
 10
-2.3226
 20
27.2801
 30
0.0
 10
-2.3828
 20
27.4033
 30
0.0
 10
-2.403
 20
27.5623
 30
0.0
  0
SPLINE
  5
B7
330
1F
100
AcDbEntity
  8
VRSTVA_1
 62
   250
100
AcDbSpline
210
0.0
220
0.0
230
1.0
 70
    11
 71
     3
 72
    36
 73
    32
 74
     0
 42
0.0000000001
 43
0.0000000001
 40
0.0
 40
0.0
 40
0.0
 40
0.0
 40
0.1111111111111111
 40
0.1111111111111111
 40
0.1111111111111111
 40
0.1111111111111111
 40
0.2222222222222222
 40
0.2222222222222222
 40
0.2222222222222222
 40
0.2222222222222222
 40
0.3333333333333333
 40
0.3333333333333333
 40
0.3333333333333333
 40
0.3333333333333333
 40
0.4444444444444444
 40
0.4444444444444444
 40
0.4444444444444444
 40
0.4444444444444444
 40
0.5555555555555556
 40
0.5555555555555556
 40
0.5555555555555556
 40
0.5555555555555556
 40
0.6666666666666666
 40
0.6666666666666666
 40
0.6666666666666666
 40
0.6666666666666666
 40
0.7777777777777778
 40
0.7777777777777778
 40
0.7777777777777778
 40
0.7777777777777778
 40
1.0
 40
1.0
 40
1.0
 40
1.0
 10
-1.3875
 20
28.4541
 30
0.0
 10
-1.3875
 20
28.5961
 30
0.0
 10
-1.4251
 20
28.7095
 30
0.0
 10
-1.5009
 20
28.7928
 30
0.0
 10
-1.5009
 20
28.7928
 30
0.0
 10
-1.5771
 20
28.8765
 30
0.0
 10
-1.6678
 20
28.9183
 30
0.0
 10
-1.7746
 20
28.9183
 30
0.0
 10
-1.7746
 20
28.9183
 30
0.0
 10
-1.8847
 20
28.9183
 30
0.0
 10
-1.9806
 20
28.8732
 30
0.0
 10
-2.0625
 20
28.7833
 30
0.0
 10
-2.0625
 20
28.7833
 30
0.0
 10
-2.1443
 20
28.693
 30
0.0
 10
-2.1852
 20
28.5764
 30
0.0
 10
-2.1852
 20
28.4334
 30
0.0
 10
-2.1852
 20
28.4334
 30
0.0
 10
-2.1852
 20
28.3045
 30
0.0
 10
-2.1462
 20
28.2001
 30
0.0
 10
-2.0686
 20
28.1197
 30
0.0
 10
-2.0686
 20
28.1197
 30
0.0
 10
-1.991
 20
28.0392
 30
0.0
 10
-1.8955
 20
27.9992
 30
0.0
 10
-1.7817
 20
27.9992
 30
0.0
 10
-1.7817
 20
27.9992
 30
0.0
 10
-1.6664
 20
27.9992
 30
0.0
 10
-1.5724
 20
28.0392
 30
0.0
 10
-1.4985
 20
28.1197
 30
0.0
 10
-1.4985
 20
28.1197
 30
0.0
 10
-1.4242
 20
28.2001
 30
0.0
 10
-1.3875
 20
28.3116
 30
0.0
 10
-1.3875
 20
28.4541
 30
0.0
  0
SPLINE
  5
B8
330
1F
100
AcDbEntity
  8
VRSTVA_1
 62
   250
100
AcDbSpline
210
0.0
220
0.0
230
1.0
 70
    11
 71
     3
 72
    40
 73
    36
 74
     0
 42
0.0000000001
 43
0.0000000001
 40
0.0
 40
0.0
 40
0.0
 40
0.0
 40
0.1
 40
0.1
 40
0.1
 40
0.1
 40
0.2
 40
0.2
 40
0.2
 40
0.2
 40
0.3
 40
0.3
 40
0.3
 40
0.3
 40
0.4
 40
0.4
 40
0.4
 40
0.4
 40
0.5
 40
0.5
 40
0.5
 40
0.5
 40
0.6
 40
0.6
 40
0.6
 40
0.6
 40
0.7
 40
0.7
 40
0.7
 40
0.7
 40
0.8
 40
0.8
 40
0.8
 40
0.8
 40
1.0
 40
1.0
 40
1.0
 40
1.0
 10
0.0636
 20
27.0952
 30
0.0
 10
0.0636
 20
27.0952
 30
0.0
 10
-0.1843
 20
27.0952
 30
0.0
 10
-0.1843
 20
27.0952
 30
0.0
 10
-0.1843
 20
27.0952
 30
0.0
 10
-0.1843
 20
27.0952
 30
0.0
 10
-0.1843
 20
28.6756
 30
0.0
 10
-0.1843
 20
28.6756
 30
0.0
 10
-0.1843
 20
28.6756
 30
0.0
 10
-0.2441
 20
28.6187
 30
0.0
 10
-0.3221
 20
28.5618
 30
0.0
 10
-0.419
 20
28.5049
 30
0.0
 10
-0.419
 20
28.5049
 30
0.0
 10
-0.5164
 20
28.448
 30
0.0
 10
-0.6034
 20
28.4052
 30
0.0
 10
-0.6806
 20
28.3769
 30
0.0
 10
-0.6806
 20
28.3769
 30
0.0
 10
-0.6806
 20
28.3769
 30
0.0
 10
-0.6806
 20
28.6164
 30
0.0
 10
-0.6806
 20
28.6164
 30
0.0
 10
-0.6806
 20
28.6164
 30
0.0
 10
-0.5418
 20
28.6817
 30
0.0
 10
-0.4204
 20
28.7608
 30
0.0
 10
-0.3165
 20
28.8534
 30
0.0
 10
-0.3165
 20
28.8534
 30
0.0
 10
-0.213
 20
28.9466
 30
0.0
 10
-0.1392
 20
29.0364
 30
0.0
 10
-0.0959
 20
29.1239
 30
0.0
 10
-0.0959
 20
29.1239
 30
0.0
 10
-0.0959
 20
29.1239
 30
0.0
 10
0.0636
 20
29.1239
 30
0.0
 10
0.0636
 20
29.1239
 30
0.0
 10
0.0636
 20
29.1239
 30
0.0
 10
0.0636
 20
29.1239
 30
0.0
 10
0.0636
 20
27.0952
 30
0.0
 10
0.0636
 20
27.0952
 30
0.0
  0
SPLINE
  5
B9
330
1F
100
AcDbEntity
  8
VRSTVA_1
 62
   250
100
AcDbSpline
210
0.0
220
0.0
230
1.0
 70
    11
 71
     3
 72
    20
 73
    16
 74
     0
 42
0.0000000001
 43
0.0000000001
 40
0.0
 40
0.0
 40
0.0
 40
0.0
 40
0.2
 40
0.2
 40
0.2
 40
0.2
 40
0.4
 40
0.4
 40
0.4
 40
0.4
 40
0.6
 40
0.6
 40
0.6
 40
0.6
 40
1.0
 40
1.0
 40
1.0
 40
1.0
 10
14.2169
 20
26.9458
 30
0.0
 10
14.2169
 20
26.9458
 30
0.0
 10
17.3419
 20
26.5048
 30
0.0
 10
17.3419
 20
26.5048
 30
0.0
 10
17.3419
 20
26.5048
 30
0.0
 10
17.3419
 20
26.5048
 30
0.0
 10
17.3419
 20
26.4068
 30
0.0
 10
17.3419
 20
26.4068
 30
0.0
 10
17.3419
 20
26.4068
 30
0.0
 10
17.3419
 20
26.4068
 30
0.0
 10
14.2169
 20
25.9364
 30
0.0
 10
14.2169
 20
25.9364
 30
0.0
 10
14.2169
 20
25.9364
 30
0.0
 10
14.2169
 20
25.9364
 30
0.0
 10
14.2169
 20
26.9458
 30
0.0
 10
14.2169
 20
26.9458
 30
0.0
  0
SPLINE
  5
BA
330
1F
100
AcDbEntity
  8
VRSTVA_1
 62
   250
100
AcDbSpline
210
0.0
220
0.0
230
1.0
 70
    11
 71
     3
 72
    20
 73
    16
 74
     0
 42
0.0000000001
 43
0.0000000001
 40
0.0
 40
0.0
 40
0.0
 40
0.0
 40
0.2
 40
0.2
 40
0.2
 40
0.2
 40
0.4
 40
0.4
 40
0.4
 40
0.4
 40
0.6
 40
0.6
 40
0.6
 40
0.6
 40
1.0
 40
1.0
 40
1.0
 40
1.0
 10
-18.129
 20
25.7827
 30
0.0
 10
-18.129
 20
25.7827
 30
0.0
 10
-21.2541
 20
26.2237
 30
0.0
 10
-21.2541
 20
26.2237
 30
0.0
 10
-21.2541
 20
26.2237
 30
0.0
 10
-21.2541
 20
26.2237
 30
0.0
 10
-21.2541
 20
26.3217
 30
0.0
 10
-21.2541
 20
26.3217
 30
0.0
 10
-21.2541
 20
26.3217
 30
0.0
 10
-21.2541
 20
26.3217
 30
0.0
 10
-18.129
 20
26.792
 30
0.0
 10
-18.129
 20
26.792
 30
0.0
 10
-18.129
 20
26.792
 30
0.0
 10
-18.129
 20
26.792
 30
0.0
 10
-18.129
 20
25.7827
 30
0.0
 10
-18.129
 20
25.7827
 30
0.0
  0
SPLINE
  5
BB
330
1F
100
AcDbEntity
  8
VRSTVA_1
 62
   250
100
AcDbSpline
210
0.0
220
0.0
230
1.0
 70
    11
 71
     3
 72
    20
 73
    16
 74
     0
 42
0.0000000001
 43
0.0000000001
 40
0.0
 40
0.0
 40
0.0
 40
0.0
 40
0.2
 40
0.2
 40
0.2
 40
0.2
 40
0.4
 40
0.4
 40
0.4
 40
0.4
 40
0.6
 40
0.6
 40
0.6
 40
0.6
 40
1.0
 40
1.0
 40
1.0
 40
1.0
 10
-32.521
 20
0.0238
 30
0.0
 10
-32.521
 20
0.0238
 30
0.0
 10
-32.08
 20
3.1488
 30
0.0
 10
-32.08
 20
3.1488
 30
0.0
 10
-32.08
 20
3.1488
 30
0.0
 10
-32.08
 20
3.1488
 30
0.0
 10
-31.982
 20
3.1488
 30
0.0
 10
-31.982
 20
3.1488
 30
0.0
 10
-31.982
 20
3.1488
 30
0.0
 10
-31.982
 20
3.1488
 30
0.0
 10
-31.5117
 20
0.0238
 30
0.0
 10
-31.5117
 20
0.0238
 30
0.0
 10
-31.5117
 20
0.0238
 30
0.0
 10
-31.5117
 20
0.0238
 30
0.0
 10
-32.521
 20
0.0238
 30
0.0
 10
-32.521
 20
0.0238
 30
0.0
  0
SPLINE
  5
BC
330
1F
100
AcDbEntity
  8
VRSTVA_1
 62
   250
100
AcDbSpline
210
0.0
220
0.0
230
1.0
 70
    11
 71
     3
 72
    20
 73
    16
 74
     0
 42
0.0000000001
 43
0.0000000001
 40
0.0
 40
0.0
 40
0.0
 40
0.0
 40
0.2
 40
0.2
 40
0.2
 40
0.2
 40
0.4
 40
0.4
 40
0.4
 40
0.4
 40
0.6
 40
0.6
 40
0.6
 40
0.6
 40
1.0
 40
1.0
 40
1.0
 40
1.0
 10
-31.5605
 20
-26.0127
 30
0.0
 10
-31.5605
 20
-26.0127
 30
0.0
 10
-32.0016
 20
-29.1377
 30
0.0
 10
-32.0016
 20
-29.1377
 30
0.0
 10
-32.0016
 20
-29.1377
 30
0.0
 10
-32.0016
 20
-29.1377
 30
0.0
 10
-32.0995
 20
-29.1377
 30
0.0
 10
-32.0995
 20
-29.1377
 30
0.0
 10
-32.0995
 20
-29.1377
 30
0.0
 10
-32.0995
 20
-29.1377
 30
0.0
 10
-32.5699
 20
-26.0127
 30
0.0
 10
-32.5699
 20
-26.0127
 30
0.0
 10
-32.5699
 20
-26.0127
 30
0.0
 10
-32.5699
 20
-26.0127
 30
0.0
 10
-31.5605
 20
-26.0127
 30
0.0
 10
-31.5605
 20
-26.0127
 30
0.0
  0
SPLINE
  5
BD
330
1F
100
AcDbEntity
  8
VRSTVA_1
 62
   250
100
AcDbSpline
210
0.0
220
0.0
230
1.0
 70
    11
 71
     3
 72
    48
 73
    44
 74
     0
 42
0.0000000001
 43
0.0000000001
 40
0.0
 40
0.0
 40
0.0
 40
0.0
 40
0.0833333333333333
 40
0.0833333333333333
 40
0.0833333333333333
 40
0.0833333333333333
 40
0.1666666666666667
 40
0.1666666666666667
 40
0.1666666666666667
 40
0.1666666666666667
 40
0.25
 40
0.25
 40
0.25
 40
0.25
 40
0.3333333333333333
 40
0.3333333333333333
 40
0.3333333333333333
 40
0.3333333333333333
 40
0.4166666666666667
 40
0.4166666666666667
 40
0.4166666666666667
 40
0.4166666666666667
 40
0.5
 40
0.5
 40
0.5
 40
0.5
 40
0.5833333333333334
 40
0.5833333333333334
 40
0.5833333333333334
 40
0.5833333333333334
 40
0.6666666666666666
 40
0.6666666666666666
 40
0.6666666666666666
 40
0.6666666666666666
 40
0.75
 40
0.75
 40
0.75
 40
0.75
 40
0.8333333333333334
 40
0.8333333333333334
 40
0.8333333333333334
 40
0.8333333333333334
 40
1.0
 40
1.0
 40
1.0
 40
1.0
 10
-34.4402
 20
-14.8892
 30
0.0
 10
-34.4402
 20
-14.8892
 30
0.0
 10
-34.6787
 20
-14.8892
 30
0.0
 10
-34.6787
 20
-14.8892
 30
0.0
 10
-34.6787
 20
-14.8892
 30
0.0
 10
-34.6787
 20
-14.8892
 30
0.0
 10
-34.6787
 20
-13.5816
 30
0.0
 10
-34.6787
 20
-13.5816
 30
0.0
 10
-34.6787
 20
-13.5816
 30
0.0
 10
-34.6787
 20
-13.5816
 30
0.0
 10
-34.4859
 20
-13.5816
 30
0.0
 10
-34.4859
 20
-13.5816
 30
0.0
 10
-34.4859
 20
-13.5816
 30
0.0
 10
-34.349
 20
-13.7101
 30
0.0
 10
-34.167
 20
-13.8375
 30
0.0
 10
-33.9403
 20
-13.964
 30
0.0
 10
-33.9403
 20
-13.964
 30
0.0
 10
-33.7136
 20
-14.0901
 30
0.0
 10
-33.4798
 20
-14.1879
 30
0.0
 10
-33.2404
 20
-14.2566
 30
0.0
 10
-33.2404
 20
-14.2566
 30
0.0
 10
-33.0711
 20
-14.3065
 30
0.0
 10
-32.8862
 20
-14.338
 30
0.0
 10
-32.6849
 20
-14.3516
 30
0.0
 10
-32.6849
 20
-14.3516
 30
0.0
 10
-32.6849
 20
-14.3516
 30
0.0
 10
-32.6849
 20
-14.6065
 30
0.0
 10
-32.6849
 20
-14.6065
 30
0.0
 10
-32.6849
 20
-14.6065
 30
0.0
 10
-32.8439
 20
-14.6037
 30
0.0
 10
-33.0358
 20
-14.5727
 30
0.0
 10
-33.2611
 20
-14.5129
 30
0.0
 10
-33.2611
 20
-14.5129
 30
0.0
 10
-33.4859
 20
-14.4532
 30
0.0
 10
-33.7032
 20
-14.3676
 30
0.0
 10
-33.912
 20
-14.2561
 30
0.0
 10
-33.912
 20
-14.2561
 30
0.0
 10
-34.1209
 20
-14.1442
 30
0.0
 10
-34.2973
 20
-14.0257
 30
0.0
 10
-34.4402
 20
-13.8996
 30
0.0
 10
-34.4402
 20
-13.8996
 30
0.0
 10
-34.4402
 20
-13.8996
 30
0.0
 10
-34.4402
 20
-14.8892
 30
0.0
 10
-34.4402
 20
-14.8892
 30
0.0
  0
SPLINE
  5
BE
330
1F
100
AcDbEntity
  8
VRSTVA_1
 62
   250
100
AcDbSpline
210
0.0
220
0.0
230
1.0
 70
    11
 71
     3
 72
    92
 73
    88
 74
     0
 42
0.0000000001
 43
0.0000000001
 40
0.0
 40
0.0
 40
0.0
 40
0.0
 40
0.0434782608695652
 40
0.0434782608695652
 40
0.0434782608695652
 40
0.0434782608695652
 40
0.0869565217391304
 40
0.0869565217391304
 40
0.0869565217391304
 40
0.0869565217391304
 40
0.1304347826086956
 40
0.1304347826086956
 40
0.1304347826086956
 40
0.1304347826086956
 40
0.1739130434782609
 40
0.1739130434782609
 40
0.1739130434782609
 40
0.1739130434782609
 40
0.2173913043478261
 40
0.2173913043478261
 40
0.2173913043478261
 40
0.2173913043478261
 40
0.2608695652173913
 40
0.2608695652173913
 40
0.2608695652173913
 40
0.2608695652173913
 40
0.3043478260869565
 40
0.3043478260869565
 40
0.3043478260869565
 40
0.3043478260869565
 40
0.3478260869565217
 40
0.3478260869565217
 40
0.3478260869565217
 40
0.3478260869565217
 40
0.391304347826087
 40
0.391304347826087
 40
0.391304347826087
 40
0.391304347826087
 40
0.4347826086956522
 40
0.4347826086956522
 40
0.4347826086956522
 40
0.4347826086956522
 40
0.4782608695652174
 40
0.4782608695652174
 40
0.4782608695652174
 40
0.4782608695652174
 40
0.5217391304347826
 40
0.5217391304347826
 40
0.5217391304347826
 40
0.5217391304347826
 40
0.5652173913043478
 40
0.5652173913043478
 40
0.5652173913043478
 40
0.5652173913043478
 40
0.6086956521739131
 40
0.6086956521739131
 40
0.6086956521739131
 40
0.6086956521739131
 40
0.6521739130434783
 40
0.6521739130434783
 40
0.6521739130434783
 40
0.6521739130434783
 40
0.6956521739130435
 40
0.6956521739130435
 40
0.6956521739130435
 40
0.6956521739130435
 40
0.7391304347826086
 40
0.7391304347826086
 40
0.7391304347826086
 40
0.7391304347826086
 40
0.782608695652174
 40
0.782608695652174
 40
0.782608695652174
 40
0.782608695652174
 40
0.8260869565217391
 40
0.8260869565217391
 40
0.8260869565217391
 40
0.8260869565217391
 40
0.8695652173913043
 40
0.8695652173913043
 40
0.8695652173913043
 40
0.8695652173913043
 40
0.9130434782608695
 40
0.9130434782608695
 40
0.9130434782608695
 40
0.9130434782608695
 40
1.0
 40
1.0
 40
1.0
 40
1.0
 10
-32.9234
 20
-12.0323
 30
0.0
 10
-32.9234
 20
-12.0323
 30
0.0
 10
-32.6849
 20
-12.0323
 30
0.0
 10
-32.6849
 20
-12.0323
 30
0.0
 10
-32.6849
 20
-12.0323
 30
0.0
 10
-32.6849
 20
-12.0323
 30
0.0
 10
-32.6849
 20
-13.3676
 30
0.0
 10
-32.6849
 20
-13.3676
 30
0.0
 10
-32.6849
 20
-13.3676
 30
0.0
 10
-32.7446
 20
-13.3695
 30
0.0
 10
-32.802
 20
-13.3601
 30
0.0
 10
-32.857
 20
-13.3389
 30
0.0
 10
-32.857
 20
-13.3389
 30
0.0
 10
-32.9483
 20
-13.305
 30
0.0
 10
-33.0377
 20
-13.2505
 30
0.0
 10
-33.1261
 20
-13.1757
 30
0.0
 10
-33.1261
 20
-13.1757
 30
0.0
 10
-33.214
 20
-13.1004
 30
0.0
 10
-33.3161
 20
-12.9923
 30
0.0
 10
-33.4318
 20
-12.8512
 30
0.0
 10
-33.4318
 20
-12.8512
 30
0.0
 10
-33.612
 20
-12.6315
 30
0.0
 10
-33.7545
 20
-12.4829
 30
0.0
 10
-33.8598
 20
-12.4057
 30
0.0
 10
-33.8598
 20
-12.4057
 30
0.0
 10
-33.9647
 20
-12.3286
 30
0.0
 10
-34.0644
 20
-12.29
 30
0.0
 10
-34.158
 20
-12.29
 30
0.0
 10
-34.158
 20
-12.29
 30
0.0
 10
-34.2563
 20
-12.29
 30
0.0
 10
-34.3391
 20
-12.3253
 30
0.0
 10
-34.4069
 20
-12.3954
 30
0.0
 10
-34.4069
 20
-12.3954
 30
0.0
 10
-34.4741
 20
-12.4659
 30
0.0
 10
-34.508
 20
-12.5577
 30
0.0
 10
-34.508
 20
-12.6705
 30
0.0
 10
-34.508
 20
-12.6705
 30
0.0
 10
-34.508
 20
-12.79
 30
0.0
 10
-34.4722
 20
-12.8855
 30
0.0
 10
-34.4003
 20
-12.957
 30
0.0
 10
-34.4003
 20
-12.957
 30
0.0
 10
-34.3288
 20
-13.0289
 30
0.0
 10
-34.2295
 20
-13.0652
 30
0.0
 10
-34.103
 20
-13.0661
 30
0.0
 10
-34.103
 20
-13.0661
 30
0.0
 10
-34.103
 20
-13.0661
 30
0.0
 10
-34.1289
 20
-13.321
 30
0.0
 10
-34.1289
 20
-13.321
 30
0.0
 10
-34.1289
 20
-13.321
 30
0.0
 10
-34.3194
 20
-13.3036
 30
0.0
 10
-34.4642
 20
-13.2378
 30
0.0
 10
-34.5639
 20
-13.124
 30
0.0
 10
-34.5639
 20
-13.124
 30
0.0
 10
-34.6637
 20
-13.0101
 30
0.0
 10
-34.7135
 20
-12.8568
 30
0.0
 10
-34.7135
 20
-12.6649
 30
0.0
 10
-34.7135
 20
-12.6649
 30
0.0
 10
-34.7135
 20
-12.4711
 30
0.0
 10
-34.6594
 20
-12.3178
 30
0.0
 10
-34.5522
 20
-12.2049
 30
0.0
 10
-34.5522
 20
-12.2049
 30
0.0
 10
-34.4445
 20
-12.0915
 30
0.0
 10
-34.3114
 20
-12.0351
 30
0.0
 10
-34.1524
 20
-12.0351
 30
0.0
 10
-34.1524
 20
-12.0351
 30
0.0
 10
-34.0715
 20
-12.0351
 30
0.0
 10
-33.992
 20
-12.0516
 30
0.0
 10
-33.9139
 20
-12.085
 30
0.0
 10
-33.9139
 20
-12.085
 30
0.0
 10
-33.8358
 20
-12.1179
 30
0.0
 10
-33.7535
 20
-12.1729
 30
0.0
 10
-33.6675
 20
-12.2496
 30
0.0
 10
-33.6675
 20
-12.2496
 30
0.0
 10
-33.5809
 20
-12.3262
 30
0.0
 10
-33.4624
 20
-12.4537
 30
0.0
 10
-33.3119
 20
-12.632
 30
0.0
 10
-33.3119
 20
-12.632
 30
0.0
 10
-33.1868
 20
-12.7806
 30
0.0
 10
-33.1021
 20
-12.8761
 30
0.0
 10
-33.0574
 20
-12.9184
 30
0.0
 10
-33.0574
 20
-12.9184
 30
0.0
 10
-33.0132
 20
-12.9607
 30
0.0
 10
-32.9685
 20
-12.9955
 30
0.0
 10
-32.9234
 20
-13.0233
 30
0.0
 10
-32.9234
 20
-13.0233
 30
0.0
 10
-32.9234
 20
-13.0233
 30
0.0
 10
-32.9234
 20
-12.0323
 30
0.0
 10
-32.9234
 20
-12.0323
 30
0.0
  0
SPLINE
  5
BF
330
1F
100
AcDbEntity
  8
VRSTVA_1
 62
   250
100
AcDbSpline
210
0.0
220
0.0
230
1.0
 70
    24
 71
     3
 72
     8
 73
     4
 74
     0
 42
0.0000000001
 43
0.0000000001
 40
0.0
 40
0.0
 40
0.0
 40
0.0
 40
1.0
 40
1.0
 40
1.0
 40
1.0
 10
7.4405
 20
18.0785
 30
0.0
 10
7.4405
 20
18.0785
 30
0.0
 10
-11.7883
 20
18.0785
 30
0.0
 10
-11.7883
 20
18.0785
 30
0.0
  0
SPLINE
  5
C0
330
1F
100
AcDbEntity
  8
VRSTVA_1
 62
   250
100
AcDbSpline
210
0.0
220
0.0
230
1.0
 70
    11
 71
     3
 72
   120
 73
   116
 74
     0
 42
0.0000000001
 43
0.0000000001
 40
0.0
 40
0.0
 40
0.0
 40
0.0
 40
0.0333333333333333
 40
0.0333333333333333
 40
0.0333333333333333
 40
0.0333333333333333
 40
0.0666666666666667
 40
0.0666666666666667
 40
0.0666666666666667
 40
0.0666666666666667
 40
0.1
 40
0.1
 40
0.1
 40
0.1
 40
0.1333333333333333
 40
0.1333333333333333
 40
0.1333333333333333
 40
0.1333333333333333
 40
0.1666666666666667
 40
0.1666666666666667
 40
0.1666666666666667
 40
0.1666666666666667
 40
0.2
 40
0.2
 40
0.2
 40
0.2
 40
0.2333333333333333
 40
0.2333333333333333
 40
0.2333333333333333
 40
0.2333333333333333
 40
0.2666666666666667
 40
0.2666666666666667
 40
0.2666666666666667
 40
0.2666666666666667
 40
0.3
 40
0.3
 40
0.3
 40
0.3
 40
0.3333333333333333
 40
0.3333333333333333
 40
0.3333333333333333
 40
0.3333333333333333
 40
0.3666666666666666
 40
0.3666666666666666
 40
0.3666666666666666
 40
0.3666666666666666
 40
0.4
 40
0.4
 40
0.4
 40
0.4
 40
0.4333333333333333
 40
0.4333333333333333
 40
0.4333333333333333
 40
0.4333333333333333
 40
0.4666666666666667
 40
0.4666666666666667
 40
0.4666666666666667
 40
0.4666666666666667
 40
0.5
 40
0.5
 40
0.5
 40
0.5
 40
0.5333333333333333
 40
0.5333333333333333
 40
0.5333333333333333
 40
0.5333333333333333
 40
0.5666666666666667
 40
0.5666666666666667
 40
0.5666666666666667
 40
0.5666666666666667
 40
0.6
 40
0.6
 40
0.6
 40
0.6
 40
0.6333333333333333
 40
0.6333333333333333
 40
0.6333333333333333
 40
0.6333333333333333
 40
0.6666666666666666
 40
0.6666666666666666
 40
0.6666666666666666
 40
0.6666666666666666
 40
0.7
 40
0.7
 40
0.7
 40
0.7
 40
0.7333333333333333
 40
0.7333333333333333
 40
0.7333333333333333
 40
0.7333333333333333
 40
0.7666666666666667
 40
0.7666666666666667
 40
0.7666666666666667
 40
0.7666666666666667
 40
0.8
 40
0.8
 40
0.8
 40
0.8
 40
0.8333333333333334
 40
0.8333333333333334
 40
0.8333333333333334
 40
0.8333333333333334
 40
0.8666666666666667
 40
0.8666666666666667
 40
0.8666666666666667
 40
0.8666666666666667
 40
0.9
 40
0.9
 40
0.9
 40
0.9
 40
0.9333333333333333
 40
0.9333333333333333
 40
0.9333333333333333
 40
0.9333333333333333
 40
1.0
 40
1.0
 40
1.0
 40
1.0
 10
-8.4462
 20
19.8906
 30
0.0
 10
-8.4462
 20
19.8906
 30
0.0
 10
-8.4462
 20
20.1272
 30
0.0
 10
-8.4462
 20
20.1272
 30
0.0
 10
-8.4462
 20
20.1272
 30
0.0
 10
-8.4462
 20
20.1272
 30
0.0
 10
-7.5906
 20
20.1286
 30
0.0
 10
-7.5906
 20
20.1286
 30
0.0
 10
-7.5906
 20
20.1286
 30
0.0
 10
-7.5906
 20
20.1286
 30
0.0
 10
-7.5906
 20
19.3793
 30
0.0
 10
-7.5906
 20
19.3793
 30
0.0
 10
-7.5906
 20
19.3793
 30
0.0
 10
-7.7218
 20
19.2744
 30
0.0
 10
-7.8573
 20
19.1958
 30
0.0
 10
-7.997
 20
19.1427
 30
0.0
 10
-7.997
 20
19.1427
 30
0.0
 10
-8.1367
 20
19.09
 30
0.0
 10
-8.2801
 20
19.0637
 30
0.0
 10
-8.4269
 20
19.0637
 30
0.0
 10
-8.4269
 20
19.0637
 30
0.0
 10
-8.6254
 20
19.0637
 30
0.0
 10
-8.806
 20
19.106
 30
0.0
 10
-8.9678
 20
19.1911
 30
0.0
 10
-8.9678
 20
19.1911
 30
0.0
 10
-9.1301
 20
19.2758
 30
0.0
 10
-9.2524
 20
19.399
 30
0.0
 10
-9.3352
 20
19.5594
 30
0.0
 10
-9.3352
 20
19.5594
 30
0.0
 10
-9.418
 20
19.7203
 30
0.0
 10
-9.4594
 20
19.9
 30
0.0
 10
-9.4594
 20
20.0985
 30
0.0
 10
-9.4594
 20
20.0985
 30
0.0
 10
-9.4594
 20
20.2951
 30
0.0
 10
-9.418
 20
20.4785
 30
0.0
 10
-9.3356
 20
20.6488
 30
0.0
 10
-9.3356
 20
20.6488
 30
0.0
 10
-9.2538
 20
20.8195
 30
0.0
 10
-9.1353
 20
20.9461
 30
0.0
 10
-8.981
 20
21.0289
 30
0.0
 10
-8.981
 20
21.0289
 30
0.0
 10
-8.8267
 20
21.1112
 30
0.0
 10
-8.6489
 20
21.1526
 30
0.0
 10
-8.4476
 20
21.1526
 30
0.0
 10
-8.4476
 20
21.1526
 30
0.0
 10
-8.3018
 20
21.1526
 30
0.0
 10
-8.1696
 20
21.129
 30
0.0
 10
-8.0515
 20
21.0815
 30
0.0
 10
-8.0515
 20
21.0815
 30
0.0
 10
-7.9335
 20
21.0345
 30
0.0
 10
-7.8408
 20
20.9686
 30
0.0
 10
-7.774
 20
20.884
 30
0.0
 10
-7.774
 20
20.884
 30
0.0
 10
-7.7068
 20
20.7993
 30
0.0
 10
-7.656
 20
20.6893
 30
0.0
 10
-7.6207
 20
20.5533
 30
0.0
 10
-7.6207
 20
20.5533
 30
0.0
 10
-7.6207
 20
20.5533
 30
0.0
 10
-7.862
 20
20.487
 30
0.0
 10
-7.862
 20
20.487
 30
0.0
 10
-7.862
 20
20.487
 30
0.0
 10
-7.8926
 20
20.59
 30
0.0
 10
-7.9302
 20
20.6709
 30
0.0
 10
-7.9749
 20
20.7297
 30
0.0
 10
-7.9749
 20
20.7297
 30
0.0
 10
-8.02
 20
20.7885
 30
0.0
 10
-8.0845
 20
20.8355
 30
0.0
 10
-8.1682
 20
20.8708
 30
0.0
 10
-8.1682
 20
20.8708
 30
0.0
 10
-8.2515
 20
20.9061
 30
0.0
 10
-8.3446
 20
20.924
 30
0.0
 10
-8.4462
 20
20.924
 30
0.0
 10
-8.4462
 20
20.924
 30
0.0
 10
-8.5685
 20
20.924
 30
0.0
 10
-8.6743
 20
20.9051
 30
0.0
 10
-8.7632
 20
20.868
 30
0.0
 10
-8.7632
 20
20.868
 30
0.0
 10
-8.8526
 20
20.8308
 30
0.0
 10
-8.9241
 20
20.7819
 30
0.0
 10
-8.9791
 20
20.7212
 30
0.0
 10
-8.9791
 20
20.7212
 30
0.0
 10
-9.0337
 20
20.6606
 30
0.0
 10
-9.076
 20
20.5942
 30
0.0
 10
-9.1066
 20
20.5213
 30
0.0
 10
-9.1066
 20
20.5213
 30
0.0
 10
-9.1578
 20
20.3967
 30
0.0
 10
-9.1837
 20
20.2612
 30
0.0
 10
-9.1837
 20
20.1149
 30
0.0
 10
-9.1837
 20
20.1149
 30
0.0
 10
-9.1837
 20
19.9348
 30
0.0
 10
-9.1527
 20
19.7843
 30
0.0
 10
-9.0906
 20
19.6629
 30
0.0
 10
-9.0906
 20
19.6629
 30
0.0
 10
-9.0285
 20
19.5416
 30
0.0
 10
-8.9382
 20
19.4517
 30
0.0
 10
-8.8197
 20
19.3929
 30
0.0
 10
-8.8197
 20
19.3929
 30
0.0
 10
-8.7011
 20
19.3341
 30
0.0
 10
-8.5755
 20
19.3045
 30
0.0
 10
-8.4424
 20
19.3045
 30
0.0
 10
-8.4424
 20
19.3045
 30
0.0
 10
-8.3262
 20
19.3045
 30
0.0
 10
-8.2134
 20
19.3271
 30
0.0
 10
-8.1033
 20
19.3718
 30
0.0
 10
-8.1033
 20
19.3718
 30
0.0
 10
-7.9927
 20
19.416
 30
0.0
 10
-7.9095
 20
19.4635
 30
0.0
 10
-7.8526
 20
19.5143
 30
0.0
 10
-7.8526
 20
19.5143
 30
0.0
 10
-7.8526
 20
19.5143
 30
0.0
 10
-7.8526
 20
19.8906
 30
0.0
 10
-7.8526
 20
19.8906
 30
0.0
 10
-7.8526
 20
19.8906
 30
0.0
 10
-7.8526
 20
19.8906
 30
0.0
 10
-8.4462
 20
19.8906
 30
0.0
 10
-8.4462
 20
19.8906
 30
0.0
  0
SPLINE
  5
C1
330
1F
100
AcDbEntity
  8
VRSTVA_1
 62
   250
100
AcDbSpline
210
0.0
220
0.0
230
1.0
 70
    11
 71
     3
 72
    80
 73
    76
 74
     0
 42
0.0000000001
 43
0.0000000001
 40
0.0
 40
0.0
 40
0.0
 40
0.0
 40
0.05
 40
0.05
 40
0.05
 40
0.05
 40
0.1
 40
0.1
 40
0.1
 40
0.1
 40
0.15
 40
0.15
 40
0.15
 40
0.15
 40
0.2
 40
0.2
 40
0.2
 40
0.2
 40
0.25
 40
0.25
 40
0.25
 40
0.25
 40
0.3
 40
0.3
 40
0.3
 40
0.3
 40
0.35
 40
0.35
 40
0.35
 40
0.35
 40
0.4
 40
0.4
 40
0.4
 40
0.4
 40
0.45
 40
0.45
 40
0.45
 40
0.45
 40
0.5
 40
0.5
 40
0.5
 40
0.5
 40
0.55
 40
0.55
 40
0.55
 40
0.55
 40
0.6
 40
0.6
 40
0.6
 40
0.6
 40
0.65
 40
0.65
 40
0.65
 40
0.65
 40
0.7
 40
0.7
 40
0.7
 40
0.7
 40
0.75
 40
0.75
 40
0.75
 40
0.75
 40
0.8
 40
0.8
 40
0.8
 40
0.8
 40
0.85
 40
0.85
 40
0.85
 40
0.85
 40
0.9
 40
0.9
 40
0.9
 40
0.9
 40
1.0
 40
1.0
 40
1.0
 40
1.0
 10
-6.0102
 20
20.6234
 30
0.0
 10
-6.0102
 20
20.6234
 30
0.0
 10
-6.2566
 20
20.6041
 30
0.0
 10
-6.2566
 20
20.6041
 30
0.0
 10
-6.2566
 20
20.6041
 30
0.0
 10
-6.2787
 20
20.7015
 30
0.0
 10
-6.3098
 20
20.7725
 30
0.0
 10
-6.3502
 20
20.8162
 30
0.0
 10
-6.3502
 20
20.8162
 30
0.0
 10
-6.4175
 20
20.8873
 30
0.0
 10
-6.5003
 20
20.9226
 30
0.0
 10
-6.5986
 20
20.9226
 30
0.0
 10
-6.5986
 20
20.9226
 30
0.0
 10
-6.6776
 20
20.9226
 30
0.0
 10
-6.7467
 20
20.9004
 30
0.0
 10
-6.8065
 20
20.8562
 30
0.0
 10
-6.8065
 20
20.8562
 30
0.0
 10
-6.8846
 20
20.7993
 30
0.0
 10
-6.9462
 20
20.7161
 30
0.0
 10
-6.9913
 20
20.6069
 30
0.0
 10
-6.9913
 20
20.6069
 30
0.0
 10
-7.036
 20
20.4978
 30
0.0
 10
-7.0595
 20
20.3421
 30
0.0
 10
-7.0614
 20
20.1399
 30
0.0
 10
-7.0614
 20
20.1399
 30
0.0
 10
-7.0017
 20
20.2306
 30
0.0
 10
-6.9288
 20
20.2984
 30
0.0
 10
-6.8422
 20
20.3426
 30
0.0
 10
-6.8422
 20
20.3426
 30
0.0
 10
-6.7562
 20
20.3863
 30
0.0
 10
-6.6654
 20
20.4084
 30
0.0
 10
-6.5708
 20
20.4084
 30
0.0
 10
-6.5708
 20
20.4084
 30
0.0
 10
-6.4053
 20
20.4084
 30
0.0
 10
-6.2646
 20
20.3478
 30
0.0
 10
-6.1484
 20
20.2259
 30
0.0
 10
-6.1484
 20
20.2259
 30
0.0
 10
-6.0323
 20
20.1041
 30
0.0
 10
-5.9739
 20
19.947
 30
0.0
 10
-5.9739
 20
19.7542
 30
0.0
 10
-5.9739
 20
19.7542
 30
0.0
 10
-5.9739
 20
19.6272
 30
0.0
 10
-6.0017
 20
19.5096
 30
0.0
 10
-6.0563
 20
19.4004
 30
0.0
 10
-6.0563
 20
19.4004
 30
0.0
 10
-6.1108
 20
19.2918
 30
0.0
 10
-6.1861
 20
19.2081
 30
0.0
 10
-6.2816
 20
19.1502
 30
0.0
 10
-6.2816
 20
19.1502
 30
0.0
 10
-6.377
 20
19.0924
 30
0.0
 10
-6.4852
 20
19.0637
 30
0.0
 10
-6.6066
 20
19.0637
 30
0.0
 10
-6.6066
 20
19.0637
 30
0.0
 10
-6.8135
 20
19.0637
 30
0.0
 10
-6.9819
 20
19.1394
 30
0.0
 10
-7.1122
 20
19.2918
 30
0.0
 10
-7.1122
 20
19.2918
 30
0.0
 10
-7.243
 20
19.4437
 30
0.0
 10
-7.3079
 20
19.6944
 30
0.0
 10
-7.3079
 20
20.0434
 30
0.0
 10
-7.3079
 20
20.0434
 30
0.0
 10
-7.3079
 20
20.4338
 30
0.0
 10
-7.2359
 20
20.7175
 30
0.0
 10
-7.0915
 20
20.8948
 30
0.0
 10
-7.0915
 20
20.8948
 30
0.0
 10
-6.9659
 20
21.0491
 30
0.0
 10
-6.7966
 20
21.1267
 30
0.0
 10
-6.5831
 20
21.1267
 30
0.0
 10
-6.5831
 20
21.1267
 30
0.0
 10
-6.4245
 20
21.1267
 30
0.0
 10
-6.2943
 20
21.082
 30
0.0
 10
-6.1927
 20
20.9926
 30
0.0
 10
-6.1927
 20
20.9926
 30
0.0
 10
-6.0911
 20
20.9037
 30
0.0
 10
-6.0304
 20
20.7805
 30
0.0
 10
-6.0102
 20
20.6234
 30
0.0
  0
SPLINE
  5
C2
330
1F
100
AcDbEntity
  8
VRSTVA_1
 62
   250
100
AcDbSpline
210
0.0
220
0.0
230
1.0
 70
    11
 71
     3
 72
    40
 73
    36
 74
     0
 42
0.0000000001
 43
0.0000000001
 40
0.0
 40
0.0
 40
0.0
 40
0.0
 40
0.1
 40
0.1
 40
0.1
 40
0.1
 40
0.2
 40
0.2
 40
0.2
 40
0.2
 40
0.3
 40
0.3
 40
0.3
 40
0.3
 40
0.4
 40
0.4
 40
0.4
 40
0.4
 40
0.5
 40
0.5
 40
0.5
 40
0.5
 40
0.6
 40
0.6
 40
0.6
 40
0.6
 40
0.7
 40
0.7
 40
0.7
 40
0.7
 40
0.8
 40
0.8
 40
0.8
 40
0.8
 40
1.0
 40
1.0
 40
1.0
 40
1.0
 10
-7.0229
 20
19.7528
 30
0.0
 10
-7.0229
 20
19.6671
 30
0.0
 10
-7.0045
 20
19.5853
 30
0.0
 10
-6.9683
 20
19.5072
 30
0.0
 10
-6.9683
 20
19.5072
 30
0.0
 10
-6.9321
 20
19.4291
 30
0.0
 10
-6.8813
 20
19.3699
 30
0.0
 10
-6.8164
 20
19.329
 30
0.0
 10
-6.8164
 20
19.329
 30
0.0
 10
-6.751
 20
19.288
 30
0.0
 10
-6.6823
 20
19.2673
 30
0.0
 10
-6.6108
 20
19.2673
 30
0.0
 10
-6.6108
 20
19.2673
 30
0.0
 10
-6.5059
 20
19.2673
 30
0.0
 10
-6.4161
 20
19.3097
 30
0.0
 10
-6.3408
 20
19.3943
 30
0.0
 10
-6.3408
 20
19.3943
 30
0.0
 10
-6.2656
 20
19.479
 30
0.0
 10
-6.2279
 20
19.5938
 30
0.0
 10
-6.2279
 20
19.7386
 30
0.0
 10
-6.2279
 20
19.7386
 30
0.0
 10
-6.2279
 20
19.8783
 30
0.0
 10
-6.2651
 20
19.9884
 30
0.0
 10
-6.3394
 20
20.0688
 30
0.0
 10
-6.3394
 20
20.0688
 30
0.0
 10
-6.4137
 20
20.1493
 30
0.0
 10
-6.5073
 20
20.1893
 30
0.0
 10
-6.6202
 20
20.1893
 30
0.0
 10
-6.6202
 20
20.1893
 30
0.0
 10
-6.7326
 20
20.1893
 30
0.0
 10
-6.8277
 20
20.1493
 30
0.0
 10
-6.9057
 20
20.0688
 30
0.0
 10
-6.9057
 20
20.0688
 30
0.0
 10
-6.9838
 20
19.9884
 30
0.0
 10
-7.0229
 20
19.883
 30
0.0
 10
-7.0229
 20
19.7528
 30
0.0
  0
SPLINE
  5
C3
330
1F
100
AcDbEntity
  8
VRSTVA_1
 62
   250
100
AcDbSpline
210
0.0
220
0.0
230
1.0
 70
    11
 71
     3
 72
    20
 73
    16
 74
     0
 42
0.0000000001
 43
0.0000000001
 40
0.0
 40
0.0
 40
0.0
 40
0.0
 40
0.2
 40
0.2
 40
0.2
 40
0.2
 40
0.4
 40
0.4
 40
0.4
 40
0.4
 40
0.6
 40
0.6
 40
0.6
 40
0.6
 40
1.0
 40
1.0
 40
1.0
 40
1.0
 10
-5.8446
 20
19.0637
 30
0.0
 10
-5.8446
 20
19.0637
 30
0.0
 10
-5.259
 20
21.1526
 30
0.0
 10
-5.259
 20
21.1526
 30
0.0
 10
-5.259
 20
21.1526
 30
0.0
 10
-5.259
 20
21.1526
 30
0.0
 10
-5.0605
 20
21.1526
 30
0.0
 10
-5.0605
 20
21.1526
 30
0.0
 10
-5.0605
 20
21.1526
 30
0.0
 10
-5.0605
 20
21.1526
 30
0.0
 10
-5.6447
 20
19.0637
 30
0.0
 10
-5.6447
 20
19.0637
 30
0.0
 10
-5.6447
 20
19.0637
 30
0.0
 10
-5.6447
 20
19.0637
 30
0.0
 10
-5.8446
 20
19.0637
 30
0.0
 10
-5.8446
 20
19.0637
 30
0.0
  0
SPLINE
  5
C4
330
1F
100
AcDbEntity
  8
VRSTVA_1
 62
   250
100
AcDbSpline
210
0.0
220
0.0
230
1.0
 70
    11
 71
     3
 72
    48
 73
    44
 74
     0
 42
0.0000000001
 43
0.0000000001
 40
0.0
 40
0.0
 40
0.0
 40
0.0
 40
0.0833333333333333
 40
0.0833333333333333
 40
0.0833333333333333
 40
0.0833333333333333
 40
0.1666666666666667
 40
0.1666666666666667
 40
0.1666666666666667
 40
0.1666666666666667
 40
0.25
 40
0.25
 40
0.25
 40
0.25
 40
0.3333333333333333
 40
0.3333333333333333
 40
0.3333333333333333
 40
0.3333333333333333
 40
0.4166666666666667
 40
0.4166666666666667
 40
0.4166666666666667
 40
0.4166666666666667
 40
0.5
 40
0.5
 40
0.5
 40
0.5
 40
0.5833333333333334
 40
0.5833333333333334
 40
0.5833333333333334
 40
0.5833333333333334
 40
0.6666666666666666
 40
0.6666666666666666
 40
0.6666666666666666
 40
0.6666666666666666
 40
0.75
 40
0.75
 40
0.75
 40
0.75
 40
0.8333333333333334
 40
0.8333333333333334
 40
0.8333333333333334
 40
0.8333333333333334
 40
1.0
 40
1.0
 40
1.0
 40
1.0
 10
-4.1485
 20
19.098
 30
0.0
 10
-4.1485
 20
19.098
 30
0.0
 10
-4.1485
 20
19.5815
 30
0.0
 10
-4.1485
 20
19.5815
 30
0.0
 10
-4.1485
 20
19.5815
 30
0.0
 10
-4.1485
 20
19.5815
 30
0.0
 10
-5.0248
 20
19.5815
 30
0.0
 10
-5.0248
 20
19.5815
 30
0.0
 10
-5.0248
 20
19.5815
 30
0.0
 10
-5.0248
 20
19.5815
 30
0.0
 10
-5.0248
 20
19.8092
 30
0.0
 10
-5.0248
 20
19.8092
 30
0.0
 10
-5.0248
 20
19.8092
 30
0.0
 10
-5.0248
 20
19.8092
 30
0.0
 10
-4.1028
 20
21.1182
 30
0.0
 10
-4.1028
 20
21.1182
 30
0.0
 10
-4.1028
 20
21.1182
 30
0.0
 10
-4.1028
 20
21.1182
 30
0.0
 10
-3.9001
 20
21.1182
 30
0.0
 10
-3.9001
 20
21.1182
 30
0.0
 10
-3.9001
 20
21.1182
 30
0.0
 10
-3.9001
 20
21.1182
 30
0.0
 10
-3.9001
 20
19.8092
 30
0.0
 10
-3.9001
 20
19.8092
 30
0.0
 10
-3.9001
 20
19.8092
 30
0.0
 10
-3.9001
 20
19.8092
 30
0.0
 10
-3.6273
 20
19.8092
 30
0.0
 10
-3.6273
 20
19.8092
 30
0.0
 10
-3.6273
 20
19.8092
 30
0.0
 10
-3.6273
 20
19.8092
 30
0.0
 10
-3.6273
 20
19.5815
 30
0.0
 10
-3.6273
 20
19.5815
 30
0.0
 10
-3.6273
 20
19.5815
 30
0.0
 10
-3.6273
 20
19.5815
 30
0.0
 10
-3.9001
 20
19.5815
 30
0.0
 10
-3.9001
 20
19.5815
 30
0.0
 10
-3.9001
 20
19.5815
 30
0.0
 10
-3.9001
 20
19.5815
 30
0.0
 10
-3.9001
 20
19.098
 30
0.0
 10
-3.9001
 20
19.098
 30
0.0
 10
-3.9001
 20
19.098
 30
0.0
 10
-3.9001
 20
19.098
 30
0.0
 10
-4.1485
 20
19.098
 30
0.0
 10
-4.1485
 20
19.098
 30
0.0
  0
SPLINE
  5
C5
330
1F
100
AcDbEntity
  8
VRSTVA_1
 62
   250
100
AcDbSpline
210
0.0
220
0.0
230
1.0
 70
    11
 71
     3
 72
    16
 73
    12
 74
     0
 42
0.0000000001
 43
0.0000000001
 40
0.0
 40
0.0
 40
0.0
 40
0.0
 40
0.25
 40
0.25
 40
0.25
 40
0.25
 40
0.5
 40
0.5
 40
0.5
 40
0.5
 40
1.0
 40
1.0
 40
1.0
 40
1.0
 10
-4.1485
 20
19.8092
 30
0.0
 10
-4.1485
 20
19.8092
 30
0.0
 10
-4.1485
 20
20.7198
 30
0.0
 10
-4.1485
 20
20.7198
 30
0.0
 10
-4.1485
 20
20.7198
 30
0.0
 10
-4.1485
 20
20.7198
 30
0.0
 10
-4.7806
 20
19.8092
 30
0.0
 10
-4.7806
 20
19.8092
 30
0.0
 10
-4.7806
 20
19.8092
 30
0.0
 10
-4.7806
 20
19.8092
 30
0.0
 10
-4.1485
 20
19.8092
 30
0.0
 10
-4.1485
 20
19.8092
 30
0.0
  0
SPLINE
  5
C6
330
1F
100
AcDbEntity
  8
VRSTVA_1
 62
   250
100
AcDbSpline
210
0.0
220
0.0
230
1.0
 70
    11
 71
     3
 72
    28
 73
    24
 74
     0
 42
0.0000000001
 43
0.0000000001
 40
0.0
 40
0.0
 40
0.0
 40
0.0
 40
0.1428571428571428
 40
0.1428571428571428
 40
0.1428571428571428
 40
0.1428571428571428
 40
0.2857142857142857
 40
0.2857142857142857
 40
0.2857142857142857
 40
0.2857142857142857
 40
0.4285714285714285
 40
0.4285714285714285
 40
0.4285714285714285
 40
0.4285714285714285
 40
0.5714285714285714
 40
0.5714285714285714
 40
0.5714285714285714
 40
0.5714285714285714
 40
0.7142857142857143
 40
0.7142857142857143
 40
0.7142857142857143
 40
0.7142857142857143
 40
1.0
 40
1.0
 40
1.0
 40
1.0
 10
-3.2924
 20
20.4028
 30
0.0
 10
-3.2924
 20
20.4028
 30
0.0
 10
-3.3615
 20
20.7876
 30
0.0
 10
-3.3615
 20
20.7876
 30
0.0
 10
-3.3615
 20
20.7876
 30
0.0
 10
-3.3615
 20
20.7876
 30
0.0
 10
-3.3615
 20
21.1182
 30
0.0
 10
-3.3615
 20
21.1182
 30
0.0
 10
-3.3615
 20
21.1182
 30
0.0
 10
-3.3615
 20
21.1182
 30
0.0
 10
-3.0789
 20
21.1182
 30
0.0
 10
-3.0789
 20
21.1182
 30
0.0
 10
-3.0789
 20
21.1182
 30
0.0
 10
-3.0789
 20
21.1182
 30
0.0
 10
-3.0789
 20
20.7876
 30
0.0
 10
-3.0789
 20
20.7876
 30
0.0
 10
-3.0789
 20
20.7876
 30
0.0
 10
-3.0789
 20
20.7876
 30
0.0
 10
-3.1409
 20
20.4028
 30
0.0
 10
-3.1409
 20
20.4028
 30
0.0
 10
-3.1409
 20
20.4028
 30
0.0
 10
-3.1409
 20
20.4028
 30
0.0
 10
-3.2924
 20
20.4028
 30
0.0
 10
-3.2924
 20
20.4028
 30
0.0
  0
SPLINE
  5
C7
330
1F
100
AcDbEntity
  8
VRSTVA_1
 62
   250
100
AcDbSpline
210
0.0
220
0.0
230
1.0
 70
    11
 71
     3
 72
    28
 73
    24
 74
     0
 42
0.0000000001
 43
0.0000000001
 40
0.0
 40
0.0
 40
0.0
 40
0.0
 40
0.1428571428571428
 40
0.1428571428571428
 40
0.1428571428571428
 40
0.1428571428571428
 40
0.2857142857142857
 40
0.2857142857142857
 40
0.2857142857142857
 40
0.2857142857142857
 40
0.4285714285714285
 40
0.4285714285714285
 40
0.4285714285714285
 40
0.4285714285714285
 40
0.5714285714285714
 40
0.5714285714285714
 40
0.5714285714285714
 40
0.5714285714285714
 40
0.7142857142857143
 40
0.7142857142857143
 40
0.7142857142857143
 40
0.7142857142857143
 40
1.0
 40
1.0
 40
1.0
 40
1.0
 10
-2.8361
 20
20.4028
 30
0.0
 10
-2.8361
 20
20.4028
 30
0.0
 10
-2.9039
 20
20.7876
 30
0.0
 10
-2.9039
 20
20.7876
 30
0.0
 10
-2.9039
 20
20.7876
 30
0.0
 10
-2.9039
 20
20.7876
 30
0.0
 10
-2.9039
 20
21.1182
 30
0.0
 10
-2.9039
 20
21.1182
 30
0.0
 10
-2.9039
 20
21.1182
 30
0.0
 10
-2.9039
 20
21.1182
 30
0.0
 10
-2.6212
 20
21.1182
 30
0.0
 10
-2.6212
 20
21.1182
 30
0.0
 10
-2.6212
 20
21.1182
 30
0.0
 10
-2.6212
 20
21.1182
 30
0.0
 10
-2.6212
 20
20.7876
 30
0.0
 10
-2.6212
 20
20.7876
 30
0.0
 10
-2.6212
 20
20.7876
 30
0.0
 10
-2.6212
 20
20.7876
 30
0.0
 10
-2.6875
 20
20.4028
 30
0.0
 10
-2.6875
 20
20.4028
 30
0.0
 10
-2.6875
 20
20.4028
 30
0.0
 10
-2.6875
 20
20.4028
 30
0.0
 10
-2.8361
 20
20.4028
 30
0.0
 10
-2.8361
 20
20.4028
 30
0.0
  0
SPLINE
  5
C8
330
1F
100
AcDbEntity
  8
VRSTVA_1
 62
   250
100
AcDbSpline
210
0.0
220
0.0
230
1.0
 70
    11
 71
     3
 72
    44
 73
    40
 74
     0
 42
0.0000000001
 43
0.0000000001
 40
0.0
 40
0.0
 40
0.0
 40
0.0
 40
0.0909090909090909
 40
0.0909090909090909
 40
0.0909090909090909
 40
0.0909090909090909
 40
0.1818181818181818
 40
0.1818181818181818
 40
0.1818181818181818
 40
0.1818181818181818
 40
0.2727272727272727
 40
0.2727272727272727
 40
0.2727272727272727
 40
0.2727272727272727
 40
0.3636363636363636
 40
0.3636363636363636
 40
0.3636363636363636
 40
0.3636363636363636
 40
0.4545454545454545
 40
0.4545454545454545
 40
0.4545454545454545
 40
0.4545454545454545
 40
0.5454545454545454
 40
0.5454545454545454
 40
0.5454545454545454
 40
0.5454545454545454
 40
0.6363636363636364
 40
0.6363636363636364
 40
0.6363636363636364
 40
0.6363636363636364
 40
0.7272727272727273
 40
0.7272727272727273
 40
0.7272727272727273
 40
0.7272727272727273
 40
0.8181818181818182
 40
0.8181818181818182
 40
0.8181818181818182
 40
0.8181818181818182
 40
1.0
 40
1.0
 40
1.0
 40
1.0
 10
-1.045
 20
18.5039
 30
0.0
 10
-1.1819
 20
18.6766
 30
0.0
 10
-1.2976
 20
18.8788
 30
0.0
 10
-1.3921
 20
19.1102
 30
0.0
 10
-1.3921
 20
19.1102
 30
0.0
 10
-1.4866
 20
19.3421
 30
0.0
 10
-1.5342
 20
19.5815
 30
0.0
 10
-1.5342
 20
19.8299
 30
0.0
 10
-1.5342
 20
19.8299
 30
0.0
 10
-1.5342
 20
20.0486
 30
0.0
 10
-1.4989
 20
20.2579
 30
0.0
 10
-1.4279
 20
20.4583
 30
0.0
 10
-1.4279
 20
20.4583
 30
0.0
 10
-1.3451
 20
20.6907
 30
0.0
 10
-1.2176
 20
20.9221
 30
0.0
 10
-1.045
 20
21.1526
 30
0.0
 10
-1.045
 20
21.1526
 30
0.0
 10
-1.045
 20
21.1526
 30
0.0
 10
-0.8672
 20
21.1526
 30
0.0
 10
-0.8672
 20
21.1526
 30
0.0
 10
-0.8672
 20
21.1526
 30
0.0
 10
-0.9782
 20
20.9616
 30
0.0
 10
-1.0516
 20
20.8252
 30
0.0
 10
-1.0873
 20
20.7433
 30
0.0
 10
-1.0873
 20
20.7433
 30
0.0
 10
-1.1438
 20
20.6168
 30
0.0
 10
-1.1875
 20
20.4842
 30
0.0
 10
-1.22
 20
20.3464
 30
0.0
 10
-1.22
 20
20.3464
 30
0.0
 10
-1.2595
 20
20.1747
 30
0.0
 10
-1.2792
 20
20.002
 30
0.0
 10
-1.2792
 20
19.8285
 30
0.0
 10
-1.2792
 20
19.8285
 30
0.0
 10
-1.2792
 20
19.3863
 30
0.0
 10
-1.1419
 20
18.9451
 30
0.0
 10
-0.8672
 20
18.5039
 30
0.0
 10
-0.8672
 20
18.5039
 30
0.0
 10
-0.8672
 20
18.5039
 30
0.0
 10
-1.045
 20
18.5039
 30
0.0
 10
-1.045
 20
18.5039
 30
0.0
  0
SPLINE
  5
C9
330
1F
100
AcDbEntity
  8
VRSTVA_1
 62
   250
100
AcDbSpline
210
0.0
220
0.0
230
1.0
 70
    11
 71
     3
 72
    84
 73
    80
 74
     0
 42
0.0000000001
 43
0.0000000001
 40
0.0
 40
0.0
 40
0.0
 40
0.0
 40
0.0476190476190476
 40
0.0476190476190476
 40
0.0476190476190476
 40
0.0476190476190476
 40
0.0952380952380952
 40
0.0952380952380952
 40
0.0952380952380952
 40
0.0952380952380952
 40
0.1428571428571428
 40
0.1428571428571428
 40
0.1428571428571428
 40
0.1428571428571428
 40
0.1904761904761905
 40
0.1904761904761905
 40
0.1904761904761905
 40
0.1904761904761905
 40
0.2380952380952381
 40
0.2380952380952381
 40
0.2380952380952381
 40
0.2380952380952381
 40
0.2857142857142857
 40
0.2857142857142857
 40
0.2857142857142857
 40
0.2857142857142857
 40
0.3333333333333333
 40
0.3333333333333333
 40
0.3333333333333333
 40
0.3333333333333333
 40
0.3809523809523809
 40
0.3809523809523809
 40
0.3809523809523809
 40
0.3809523809523809
 40
0.4285714285714285
 40
0.4285714285714285
 40
0.4285714285714285
 40
0.4285714285714285
 40
0.4761904761904762
 40
0.4761904761904762
 40
0.4761904761904762
 40
0.4761904761904762
 40
0.5238095238095238
 40
0.5238095238095238
 40
0.5238095238095238
 40
0.5238095238095238
 40
0.5714285714285714
 40
0.5714285714285714
 40
0.5714285714285714
 40
0.5714285714285714
 40
0.6190476190476191
 40
0.6190476190476191
 40
0.6190476190476191
 40
0.6190476190476191
 40
0.6666666666666666
 40
0.6666666666666666
 40
0.6666666666666666
 40
0.6666666666666666
 40
0.7142857142857143
 40
0.7142857142857143
 40
0.7142857142857143
 40
0.7142857142857143
 40
0.7619047619047619
 40
0.7619047619047619
 40
0.7619047619047619
 40
0.7619047619047619
 40
0.8095238095238095
 40
0.8095238095238095
 40
0.8095238095238095
 40
0.8095238095238095
 40
0.8571428571428571
 40
0.8571428571428571
 40
0.8571428571428571
 40
0.8571428571428571
 40
0.9047619047619048
 40
0.9047619047619048
 40
0.9047619047619048
 40
0.9047619047619048
 40
1.0
 40
1.0
 40
1.0
 40
1.0
 10
0.9574
 20
20.9334
 30
0.0
 10
0.9574
 20
20.9334
 30
0.0
 10
1.1888
 20
21.1925
 30
0.0
 10
1.1888
 20
21.1925
 30
0.0
 10
1.1888
 20
21.1925
 30
0.0
 10
1.1888
 20
21.1925
 30
0.0
 10
1.3252
 20
21.0768
 30
0.0
 10
1.3252
 20
21.0768
 30
0.0
 10
1.3252
 20
21.0768
 30
0.0
 10
1.3252
 20
21.0768
 30
0.0
 10
1.083
 20
20.804
 30
0.0
 10
1.083
 20
20.804
 30
0.0
 10
1.083
 20
20.804
 30
0.0
 10
1.162
 20
20.6864
 30
0.0
 10
1.2151
 20
20.5834
 30
0.0
 10
1.2429
 20
20.4955
 30
0.0
 10
1.2429
 20
20.4955
 30
0.0
 10
1.2796
 20
20.3797
 30
0.0
 10
1.2979
 20
20.2499
 30
0.0
 10
1.2979
 20
20.1069
 30
0.0
 10
1.2979
 20
20.1069
 30
0.0
 10
1.2979
 20
19.9
 30
0.0
 10
1.2561
 20
19.7156
 30
0.0
 10
1.1723
 20
19.5543
 30
0.0
 10
1.1723
 20
19.5543
 30
0.0
 10
1.0886
 20
19.3924
 30
0.0
 10
0.9715
 20
19.2702
 30
0.0
 10
0.8205
 20
19.1874
 30
0.0
 10
0.8205
 20
19.1874
 30
0.0
 10
0.669
 20
19.1051
 30
0.0
 10
0.5087
 20
19.0637
 30
0.0
 10
0.3389
 20
19.0637
 30
0.0
 10
0.3389
 20
19.0637
 30
0.0
 10
0.2119
 20
19.0637
 30
0.0
 10
0.0971
 20
19.0815
 30
0.0
 10
-0.0059
 20
19.1173
 30
0.0
 10
-0.0059
 20
19.1173
 30
0.0
 10
-0.0849
 20
19.145
 30
0.0
 10
-0.1771
 20
19.1977
 30
0.0
 10
-0.283
 20
19.2758
 30
0.0
 10
-0.283
 20
19.2758
 30
0.0
 10
-0.283
 20
19.2758
 30
0.0
 10
-0.5144
 20
19.0166
 30
0.0
 10
-0.5144
 20
19.0166
 30
0.0
 10
-0.5144
 20
19.0166
 30
0.0
 10
-0.5144
 20
19.0166
 30
0.0
 10
-0.6508
 20
19.1323
 30
0.0
 10
-0.6508
 20
19.1323
 30
0.0
 10
-0.6508
 20
19.1323
 30
0.0
 10
-0.6508
 20
19.1323
 30
0.0
 10
-0.4081
 20
19.4037
 30
0.0
 10
-0.4081
 20
19.4037
 30
0.0
 10
-0.4081
 20
19.4037
 30
0.0
 10
-0.4984
 20
19.5406
 30
0.0
 10
-0.5586
 20
19.6577
 30
0.0
 10
-0.5887
 20
19.7546
 30
0.0
 10
-0.5887
 20
19.7546
 30
0.0
 10
-0.6188
 20
19.8515
 30
0.0
 10
-0.6343
 20
19.9682
 30
0.0
 10
-0.6343
 20
20.1041
 30
0.0
 10
-0.6343
 20
20.1041
 30
0.0
 10
-0.6343
 20
20.3115
 30
0.0
 10
-0.5929
 20
20.4964
 30
0.0
 10
-0.5102
 20
20.6587
 30
0.0
 10
-0.5102
 20
20.6587
 30
0.0
 10
-0.4274
 20
20.821
 30
0.0
 10
-0.3117
 20
20.9437
 30
0.0
 10
-0.1621
 20
21.0274
 30
0.0
 10
-0.1621
 20
21.0274
 30
0.0
 10
-0.013
 20
21.1107
 30
0.0
 10
0.1531
 20
21.1526
 30
0.0
 10
0.336
 20
21.1526
 30
0.0
 10
0.336
 20
21.1526
 30
0.0
 10
0.4593
 20
21.1526
 30
0.0
 10
0.567
 20
21.1366
 30
0.0
 10
0.6592
 20
21.1036
 30
0.0
 10
0.6592
 20
21.1036
 30
0.0
 10
0.7514
 20
21.0712
 30
0.0
 10
0.8511
 20
21.0143
 30
0.0
 10
0.9574
 20
20.9334
 30
0.0
  0
SPLINE
  5
CA
330
1F
100
AcDbEntity
  8
VRSTVA_1
 62
   250
100
AcDbSpline
210
0.0
220
0.0
230
1.0
 70
    11
 71
     3
 72
    32
 73
    28
 74
     0
 42
0.0000000001
 43
0.0000000001
 40
0.0
 40
0.0
 40
0.0
 40
0.0
 40
0.125
 40
0.125
 40
0.125
 40
0.125
 40
0.25
 40
0.25
 40
0.25
 40
0.25
 40
0.375
 40
0.375
 40
0.375
 40
0.375
 40
0.5
 40
0.5
 40
0.5
 40
0.5
 40
0.625
 40
0.625
 40
0.625
 40
0.625
 40
0.75
 40
0.75
 40
0.75
 40
0.75
 40
1.0
 40
1.0
 40
1.0
 40
1.0
 10
0.7923
 20
20.7476
 30
0.0
 10
0.7057
 20
20.8153
 30
0.0
 10
0.63
 20
20.8619
 30
0.0
 10
0.5656
 20
20.8868
 30
0.0
 10
0.5656
 20
20.8868
 30
0.0
 10
0.5007
 20
20.9113
 30
0.0
 10
0.4245
 20
20.924
 30
0.0
 10
0.3374
 20
20.924
 30
0.0
 10
0.3374
 20
20.924
 30
0.0
 10
0.1361
 20
20.924
 30
0.0
 10
-0.0299
 20
20.8558
 30
0.0
 10
-0.1616
 20
20.7194
 30
0.0
 10
-0.1616
 20
20.7194
 30
0.0
 10
-0.2929
 20
20.5829
 30
0.0
 10
-0.3587
 20
20.3793
 30
0.0
 10
-0.3587
 20
20.1079
 30
0.0
 10
-0.3587
 20
20.1079
 30
0.0
 10
-0.3587
 20
20.0016
 30
0.0
 10
-0.3484
 20
19.907
 30
0.0
 10
-0.3281
 20
19.8242
 30
0.0
 10
-0.3281
 20
19.8242
 30
0.0
 10
-0.3135
 20
19.7626
 30
0.0
 10
-0.283
 20
19.6869
 30
0.0
 10
-0.2359
 20
19.5971
 30
0.0
 10
-0.2359
 20
19.5971
 30
0.0
 10
-0.2359
 20
19.5971
 30
0.0
 10
0.7923
 20
20.7476
 30
0.0
 10
0.7923
 20
20.7476
 30
0.0
  0
SPLINE
  5
CB
330
1F
100
AcDbEntity
  8
VRSTVA_1
 62
   250
100
AcDbSpline
210
0.0
220
0.0
230
1.0
 70
    11
 71
     3
 72
    28
 73
    24
 74
     0
 42
0.0000000001
 43
0.0000000001
 40
0.0
 40
0.0
 40
0.0
 40
0.0
 40
0.1428571428571428
 40
0.1428571428571428
 40
0.1428571428571428
 40
0.1428571428571428
 40
0.2857142857142857
 40
0.2857142857142857
 40
0.2857142857142857
 40
0.2857142857142857
 40
0.4285714285714285
 40
0.4285714285714285
 40
0.4285714285714285
 40
0.4285714285714285
 40
0.5714285714285714
 40
0.5714285714285714
 40
0.5714285714285714
 40
0.5714285714285714
 40
0.7142857142857143
 40
0.7142857142857143
 40
0.7142857142857143
 40
0.7142857142857143
 40
1.0
 40
1.0
 40
1.0
 40
1.0
 10
0.9052
 20
20.6055
 30
0.0
 10
0.9052
 20
20.6055
 30
0.0
 10
-0.1188
 20
19.4592
 30
0.0
 10
-0.1188
 20
19.4592
 30
0.0
 10
-0.1188
 20
19.4592
 30
0.0
 10
-0.0483
 20
19.4014
 30
0.0
 10
0.0171
 20
19.3609
 30
0.0
 10
0.0769
 20
19.3379
 30
0.0
 10
0.0769
 20
19.3379
 30
0.0
 10
0.1549
 20
19.3073
 30
0.0
 10
0.2396
 20
19.2923
 30
0.0
 10
0.3304
 20
19.2923
 30
0.0
 10
0.3304
 20
19.2923
 30
0.0
 10
0.5308
 20
19.2923
 30
0.0
 10
0.6959
 20
19.3628
 30
0.0
 10
0.8266
 20
19.5044
 30
0.0
 10
0.8266
 20
19.5044
 30
0.0
 10
0.9569
 20
19.646
 30
0.0
 10
1.0223
 20
19.8445
 30
0.0
 10
1.0223
 20
20.0999
 30
0.0
 10
1.0223
 20
20.0999
 30
0.0
 10
1.0223
 20
20.2908
 30
0.0
 10
0.9833
 20
20.4597
 30
0.0
 10
0.9052
 20
20.6055
 30
0.0
  0
SPLINE
  5
CC
330
1F
100
AcDbEntity
  8
VRSTVA_1
 62
   250
100
AcDbSpline
210
0.0
220
0.0
230
1.0
 70
    11
 71
     3
 72
    48
 73
    44
 74
     0
 42
0.0000000001
 43
0.0000000001
 40
0.0
 40
0.0
 40
0.0
 40
0.0
 40
0.0833333333333333
 40
0.0833333333333333
 40
0.0833333333333333
 40
0.0833333333333333
 40
0.1666666666666667
 40
0.1666666666666667
 40
0.1666666666666667
 40
0.1666666666666667
 40
0.25
 40
0.25
 40
0.25
 40
0.25
 40
0.3333333333333333
 40
0.3333333333333333
 40
0.3333333333333333
 40
0.3333333333333333
 40
0.4166666666666667
 40
0.4166666666666667
 40
0.4166666666666667
 40
0.4166666666666667
 40
0.5
 40
0.5
 40
0.5
 40
0.5
 40
0.5833333333333334
 40
0.5833333333333334
 40
0.5833333333333334
 40
0.5833333333333334
 40
0.6666666666666666
 40
0.6666666666666666
 40
0.6666666666666666
 40
0.6666666666666666
 40
0.75
 40
0.75
 40
0.75
 40
0.75
 40
0.8333333333333334
 40
0.8333333333333334
 40
0.8333333333333334
 40
0.8333333333333334
 40
1.0
 40
1.0
 40
1.0
 40
1.0
 10
2.3421
 20
19.098
 30
0.0
 10
2.3421
 20
19.098
 30
0.0
 10
2.3421
 20
19.5815
 30
0.0
 10
2.3421
 20
19.5815
 30
0.0
 10
2.3421
 20
19.5815
 30
0.0
 10
2.3421
 20
19.5815
 30
0.0
 10
1.4658
 20
19.5815
 30
0.0
 10
1.4658
 20
19.5815
 30
0.0
 10
1.4658
 20
19.5815
 30
0.0
 10
1.4658
 20
19.5815
 30
0.0
 10
1.4658
 20
19.8092
 30
0.0
 10
1.4658
 20
19.8092
 30
0.0
 10
1.4658
 20
19.8092
 30
0.0
 10
1.4658
 20
19.8092
 30
0.0
 10
2.3878
 20
21.1182
 30
0.0
 10
2.3878
 20
21.1182
 30
0.0
 10
2.3878
 20
21.1182
 30
0.0
 10
2.3878
 20
21.1182
 30
0.0
 10
2.5905
 20
21.1182
 30
0.0
 10
2.5905
 20
21.1182
 30
0.0
 10
2.5905
 20
21.1182
 30
0.0
 10
2.5905
 20
21.1182
 30
0.0
 10
2.5905
 20
19.8092
 30
0.0
 10
2.5905
 20
19.8092
 30
0.0
 10
2.5905
 20
19.8092
 30
0.0
 10
2.5905
 20
19.8092
 30
0.0
 10
2.8633
 20
19.8092
 30
0.0
 10
2.8633
 20
19.8092
 30
0.0
 10
2.8633
 20
19.8092
 30
0.0
 10
2.8633
 20
19.8092
 30
0.0
 10
2.8633
 20
19.5815
 30
0.0
 10
2.8633
 20
19.5815
 30
0.0
 10
2.8633
 20
19.5815
 30
0.0
 10
2.8633
 20
19.5815
 30
0.0
 10
2.5905
 20
19.5815
 30
0.0
 10
2.5905
 20
19.5815
 30
0.0
 10
2.5905
 20
19.5815
 30
0.0
 10
2.5905
 20
19.5815
 30
0.0
 10
2.5905
 20
19.098
 30
0.0
 10
2.5905
 20
19.098
 30
0.0
 10
2.5905
 20
19.098
 30
0.0
 10
2.5905
 20
19.098
 30
0.0
 10
2.3421
 20
19.098
 30
0.0
 10
2.3421
 20
19.098
 30
0.0
  0
SPLINE
  5
CD
330
1F
100
AcDbEntity
  8
VRSTVA_1
 62
   250
100
AcDbSpline
210
0.0
220
0.0
230
1.0
 70
    11
 71
     3
 72
    16
 73
    12
 74
     0
 42
0.0000000001
 43
0.0000000001
 40
0.0
 40
0.0
 40
0.0
 40
0.0
 40
0.25
 40
0.25
 40
0.25
 40
0.25
 40
0.5
 40
0.5
 40
0.5
 40
0.5
 40
1.0
 40
1.0
 40
1.0
 40
1.0
 10
2.3421
 20
19.8092
 30
0.0
 10
2.3421
 20
19.8092
 30
0.0
 10
2.3421
 20
20.7198
 30
0.0
 10
2.3421
 20
20.7198
 30
0.0
 10
2.3421
 20
20.7198
 30
0.0
 10
2.3421
 20
20.7198
 30
0.0
 10
1.71
 20
19.8092
 30
0.0
 10
1.71
 20
19.8092
 30
0.0
 10
1.71
 20
19.8092
 30
0.0
 10
1.71
 20
19.8092
 30
0.0
 10
2.3421
 20
19.8092
 30
0.0
 10
2.3421
 20
19.8092
 30
0.0
  0
SPLINE
  5
CE
330
1F
100
AcDbEntity
  8
VRSTVA_1
 62
   250
100
AcDbSpline
210
0.0
220
0.0
230
1.0
 70
    11
 71
     3
 72
    68
 73
    64
 74
     0
 42
0.0000000001
 43
0.0000000001
 40
0.0
 40
0.0
 40
0.0
 40
0.0
 40
0.0588235294117647
 40
0.0588235294117647
 40
0.0588235294117647
 40
0.0588235294117647
 40
0.1176470588235294
 40
0.1176470588235294
 40
0.1176470588235294
 40
0.1176470588235294
 40
0.1764705882352941
 40
0.1764705882352941
 40
0.1764705882352941
 40
0.1764705882352941
 40
0.2352941176470588
 40
0.2352941176470588
 40
0.2352941176470588
 40
0.2352941176470588
 40
0.2941176470588235
 40
0.2941176470588235
 40
0.2941176470588235
 40
0.2941176470588235
 40
0.3529411764705883
 40
0.3529411764705883
 40
0.3529411764705883
 40
0.3529411764705883
 40
0.4117647058823529
 40
0.4117647058823529
 40
0.4117647058823529
 40
0.4117647058823529
 40
0.4705882352941176
 40
0.4705882352941176
 40
0.4705882352941176
 40
0.4705882352941176
 40
0.5294117647058824
 40
0.5294117647058824
 40
0.5294117647058824
 40
0.5294117647058824
 40
0.5882352941176471
 40
0.5882352941176471
 40
0.5882352941176471
 40
0.5882352941176471
 40
0.6470588235294118
 40
0.6470588235294118
 40
0.6470588235294118
 40
0.6470588235294118
 40
0.7058823529411765
 40
0.7058823529411765
 40
0.7058823529411765
 40
0.7058823529411765
 40
0.7647058823529411
 40
0.7647058823529411
 40
0.7647058823529411
 40
0.7647058823529411
 40
0.8235294117647058
 40
0.8235294117647058
 40
0.8235294117647058
 40
0.8235294117647058
 40
0.8823529411764706
 40
0.8823529411764706
 40
0.8823529411764706
 40
0.8823529411764706
 40
1.0
 40
1.0
 40
1.0
 40
1.0
 10
3.4988
 20
20.1935
 30
0.0
 10
3.3957
 20
20.2311
 30
0.0
 10
3.3195
 20
20.2847
 30
0.0
 10
3.2697
 20
20.3548
 30
0.0
 10
3.2697
 20
20.3548
 30
0.0
 10
3.2203
 20
20.4244
 30
0.0
 10
3.1954
 20
20.5082
 30
0.0
 10
3.1954
 20
20.6055
 30
0.0
 10
3.1954
 20
20.6055
 30
0.0
 10
3.1954
 20
20.7527
 30
0.0
 10
3.2481
 20
20.876
 30
0.0
 10
3.3539
 20
20.9762
 30
0.0
 10
3.3539
 20
20.9762
 30
0.0
 10
3.4597
 20
21.0764
 30
0.0
 10
3.5999
 20
21.1267
 30
0.0
 10
3.7753
 20
21.1267
 30
0.0
 10
3.7753
 20
21.1267
 30
0.0
 10
3.9517
 20
21.1267
 30
0.0
 10
4.0938
 20
21.0754
 30
0.0
 10
4.2015
 20
20.9729
 30
0.0
 10
4.2015
 20
20.9729
 30
0.0
 10
4.3087
 20
20.8703
 30
0.0
 10
4.3624
 20
20.7457
 30
0.0
 10
4.3624
 20
20.5985
 30
0.0
 10
4.3624
 20
20.5985
 30
0.0
 10
4.3624
 20
20.5049
 30
0.0
 10
4.3379
 20
20.4235
 30
0.0
 10
4.289
 20
20.3539
 30
0.0
 10
4.289
 20
20.3539
 30
0.0
 10
4.2396
 20
20.2847
 30
0.0
 10
4.1653
 20
20.2311
 30
0.0
 10
4.0651
 20
20.1935
 30
0.0
 10
4.0651
 20
20.1935
 30
0.0
 10
4.1888
 20
20.153
 30
0.0
 10
4.2833
 20
20.0881
 30
0.0
 10
4.3482
 20
19.9978
 30
0.0
 10
4.3482
 20
19.9978
 30
0.0
 10
4.4127
 20
19.908
 30
0.0
 10
4.4451
 20
19.8003
 30
0.0
 10
4.4451
 20
19.6756
 30
0.0
 10
4.4451
 20
19.6756
 30
0.0
 10
4.4451
 20
19.5025
 30
0.0
 10
4.384
 20
19.3576
 30
0.0
 10
4.2622
 20
19.2401
 30
0.0
 10
4.2622
 20
19.2401
 30
0.0
 10
4.1399
 20
19.1225
 30
0.0
 10
3.979
 20
19.0637
 30
0.0
 10
3.7796
 20
19.0637
 30
0.0
 10
3.7796
 20
19.0637
 30
0.0
 10
3.5801
 20
19.0637
 30
0.0
 10
3.4197
 20
19.1225
 30
0.0
 10
3.2974
 20
19.2405
 30
0.0
 10
3.2974
 20
19.2405
 30
0.0
 10
3.1751
 20
19.3586
 30
0.0
 10
3.114
 20
19.5058
 30
0.0
 10
3.114
 20
19.6822
 30
0.0
 10
3.114
 20
19.6822
 30
0.0
 10
3.114
 20
19.8134
 30
0.0
 10
3.1474
 20
19.9235
 30
0.0
 10
3.2142
 20
20.0124
 30
0.0
 10
3.2142
 20
20.0124
 30
0.0
 10
3.2805
 20
20.1008
 30
0.0
 10
3.3755
 20
20.1615
 30
0.0
 10
3.4988
 20
20.1935
 30
0.0
  0
SPLINE
  5
CF
330
1F
100
AcDbEntity
  8
VRSTVA_1
 62
   250
100
AcDbSpline
210
0.0
220
0.0
230
1.0
 70
    11
 71
     3
 72
    36
 73
    32
 74
     0
 42
0.0000000001
 43
0.0000000001
 40
0.0
 40
0.0
 40
0.0
 40
0.0
 40
0.1111111111111111
 40
0.1111111111111111
 40
0.1111111111111111
 40
0.1111111111111111
 40
0.2222222222222222
 40
0.2222222222222222
 40
0.2222222222222222
 40
0.2222222222222222
 40
0.3333333333333333
 40
0.3333333333333333
 40
0.3333333333333333
 40
0.3333333333333333
 40
0.4444444444444444
 40
0.4444444444444444
 40
0.4444444444444444
 40
0.4444444444444444
 40
0.5555555555555556
 40
0.5555555555555556
 40
0.5555555555555556
 40
0.5555555555555556
 40
0.6666666666666666
 40
0.6666666666666666
 40
0.6666666666666666
 40
0.6666666666666666
 40
0.7777777777777778
 40
0.7777777777777778
 40
0.7777777777777778
 40
0.7777777777777778
 40
1.0
 40
1.0
 40
1.0
 40
1.0
 10
3.4489
 20
20.614
 30
0.0
 10
3.4489
 20
20.5185
 30
0.0
 10
3.4799
 20
20.4404
 30
0.0
 10
3.5411
 20
20.3797
 30
0.0
 10
3.5411
 20
20.3797
 30
0.0
 10
3.6027
 20
20.3191
 30
0.0
 10
3.6827
 20
20.2885
 30
0.0
 10
3.781
 20
20.2885
 30
0.0
 10
3.781
 20
20.2885
 30
0.0
 10
3.8765
 20
20.2885
 30
0.0
 10
3.955
 20
20.3186
 30
0.0
 10
4.0162
 20
20.3788
 30
0.0
 10
4.0162
 20
20.3788
 30
0.0
 10
4.0773
 20
20.439
 30
0.0
 10
4.1074
 20
20.5129
 30
0.0
 10
4.1074
 20
20.5999
 30
0.0
 10
4.1074
 20
20.5999
 30
0.0
 10
4.1074
 20
20.6911
 30
0.0
 10
4.0764
 20
20.7673
 30
0.0
 10
4.0133
 20
20.8294
 30
0.0
 10
4.0133
 20
20.8294
 30
0.0
 10
3.9503
 20
20.8915
 30
0.0
 10
3.8722
 20
20.9226
 30
0.0
 10
3.7782
 20
20.9226
 30
0.0
 10
3.7782
 20
20.9226
 30
0.0
 10
3.6836
 20
20.9226
 30
0.0
 10
3.6051
 20
20.892
 30
0.0
 10
3.5425
 20
20.8318
 30
0.0
 10
3.5425
 20
20.8318
 30
0.0
 10
3.4799
 20
20.7711
 30
0.0
 10
3.4489
 20
20.6982
 30
0.0
 10
3.4489
 20
20.614
 30
0.0
  0
SPLINE
  5
D0
330
1F
100
AcDbEntity
  8
VRSTVA_1
 62
   250
100
AcDbSpline
210
0.0
220
0.0
230
1.0
 70
    11
 71
     3
 72
    40
 73
    36
 74
     0
 42
0.0000000001
 43
0.0000000001
 40
0.0
 40
0.0
 40
0.0
 40
0.0
 40
0.1
 40
0.1
 40
0.1
 40
0.1
 40
0.2
 40
0.2
 40
0.2
 40
0.2
 40
0.3
 40
0.3
 40
0.3
 40
0.3
 40
0.4
 40
0.4
 40
0.4
 40
0.4
 40
0.5
 40
0.5
 40
0.5
 40
0.5
 40
0.6
 40
0.6
 40
0.6
 40
0.6
 40
0.7
 40
0.7
 40
0.7
 40
0.7
 40
0.8
 40
0.8
 40
0.8
 40
0.8
 40
1.0
 40
1.0
 40
1.0
 40
1.0
 10
3.3689
 20
19.6808
 30
0.0
 10
3.3689
 20
19.6102
 30
0.0
 10
3.3859
 20
19.5416
 30
0.0
 10
3.4193
 20
19.4757
 30
0.0
 10
3.4193
 20
19.4757
 30
0.0
 10
3.4527
 20
19.4094
 30
0.0
 10
3.5025
 20
19.3581
 30
0.0
 10
3.5688
 20
19.3219
 30
0.0
 10
3.5688
 20
19.3219
 30
0.0
 10
3.6352
 20
19.2857
 30
0.0
 10
3.7062
 20
19.2673
 30
0.0
 10
3.7824
 20
19.2673
 30
0.0
 10
3.7824
 20
19.2673
 30
0.0
 10
3.9009
 20
19.2673
 30
0.0
 10
3.9988
 20
19.3054
 30
0.0
 10
4.0759
 20
19.3821
 30
0.0
 10
4.0759
 20
19.3821
 30
0.0
 10
4.153
 20
19.4583
 30
0.0
 10
4.1916
 20
19.5552
 30
0.0
 10
4.1916
 20
19.6728
 30
0.0
 10
4.1916
 20
19.6728
 30
0.0
 10
4.1916
 20
19.7923
 30
0.0
 10
4.1521
 20
19.891
 30
0.0
 10
4.0726
 20
19.9691
 30
0.0
 10
4.0726
 20
19.9691
 30
0.0
 10
3.9931
 20
20.0472
 30
0.0
 10
3.8934
 20
20.0862
 30
0.0
 10
3.7739
 20
20.0862
 30
0.0
 10
3.7739
 20
20.0862
 30
0.0
 10
3.6573
 20
20.0862
 30
0.0
 10
3.5608
 20
20.0477
 30
0.0
 10
3.4842
 20
19.9705
 30
0.0
 10
3.4842
 20
19.9705
 30
0.0
 10
3.4075
 20
19.8929
 30
0.0
 10
3.3689
 20
19.7965
 30
0.0
 10
3.3689
 20
19.6808
 30
0.0
  0
SPLINE
  5
D1
330
1F
100
AcDbEntity
  8
VRSTVA_1
 62
   250
100
AcDbSpline
210
0.0
220
0.0
230
1.0
 70
    11
 71
     3
 72
    44
 73
    40
 74
     0
 42
0.0000000001
 43
0.0000000001
 40
0.0
 40
0.0
 40
0.0
 40
0.0
 40
0.0909090909090909
 40
0.0909090909090909
 40
0.0909090909090909
 40
0.0909090909090909
 40
0.1818181818181818
 40
0.1818181818181818
 40
0.1818181818181818
 40
0.1818181818181818
 40
0.2727272727272727
 40
0.2727272727272727
 40
0.2727272727272727
 40
0.2727272727272727
 40
0.3636363636363636
 40
0.3636363636363636
 40
0.3636363636363636
 40
0.3636363636363636
 40
0.4545454545454545
 40
0.4545454545454545
 40
0.4545454545454545
 40
0.4545454545454545
 40
0.5454545454545454
 40
0.5454545454545454
 40
0.5454545454545454
 40
0.5454545454545454
 40
0.6363636363636364
 40
0.6363636363636364
 40
0.6363636363636364
 40
0.6363636363636364
 40
0.7272727272727273
 40
0.7272727272727273
 40
0.7272727272727273
 40
0.7272727272727273
 40
0.8181818181818182
 40
0.8181818181818182
 40
0.8181818181818182
 40
0.8181818181818182
 40
1.0
 40
1.0
 40
1.0
 40
1.0
 10
4.9178
 20
18.5039
 30
0.0
 10
4.9178
 20
18.5039
 30
0.0
 10
4.74
 20
18.5039
 30
0.0
 10
4.74
 20
18.5039
 30
0.0
 10
4.74
 20
18.5039
 30
0.0
 10
5.0147
 20
18.9451
 30
0.0
 10
5.1521
 20
19.3863
 30
0.0
 10
5.1521
 20
19.8285
 30
0.0
 10
5.1521
 20
19.8285
 30
0.0
 10
5.1521
 20
20.0011
 30
0.0
 10
5.1323
 20
20.1723
 30
0.0
 10
5.0928
 20
20.3426
 30
0.0
 10
5.0928
 20
20.3426
 30
0.0
 10
5.0618
 20
20.4799
 30
0.0
 10
5.018
 20
20.6126
 30
0.0
 10
4.9621
 20
20.7391
 30
0.0
 10
4.9621
 20
20.7391
 30
0.0
 10
4.9263
 20
20.8219
 30
0.0
 10
4.8525
 20
20.9597
 30
0.0
 10
4.74
 20
21.1526
 30
0.0
 10
4.74
 20
21.1526
 30
0.0
 10
4.74
 20
21.1526
 30
0.0
 10
4.9178
 20
21.1526
 30
0.0
 10
4.9178
 20
21.1526
 30
0.0
 10
4.9178
 20
21.1526
 30
0.0
 10
5.0905
 20
20.9221
 30
0.0
 10
5.2184
 20
20.6907
 30
0.0
 10
5.3012
 20
20.4583
 30
0.0
 10
5.3012
 20
20.4583
 30
0.0
 10
5.3717
 20
20.2579
 30
0.0
 10
5.407
 20
20.0486
 30
0.0
 10
5.407
 20
19.8299
 30
0.0
 10
5.407
 20
19.8299
 30
0.0
 10
5.407
 20
19.5815
 30
0.0
 10
5.3595
 20
19.3421
 30
0.0
 10
5.2645
 20
19.1102
 30
0.0
 10
5.2645
 20
19.1102
 30
0.0
 10
5.1695
 20
18.8788
 30
0.0
 10
5.0538
 20
18.6766
 30
0.0
 10
4.9178
 20
18.5039
 30
0.0
  0
SPLINE
  5
D2
330
1F
100
AcDbEntity
  8
VRSTVA_1
 62
   250
100
AcDbSpline
210
0.0
220
0.0
230
1.0
 70
    11
 71
     3
 72
    20
 73
    16
 74
     0
 42
0.0000000001
 43
0.0000000001
 40
0.0
 40
0.0
 40
0.0
 40
0.0
 40
0.2
 40
0.2
 40
0.2
 40
0.2
 40
0.4
 40
0.4
 40
0.4
 40
0.4
 40
0.6
 40
0.6
 40
0.6
 40
0.6
 40
1.0
 40
1.0
 40
1.0
 40
1.0
 10
4.9232
 20
18.4908
 30
0.0
 10
4.9232
 20
18.4908
 30
0.0
 10
8.0483
 20
18.0497
 30
0.0
 10
8.0483
 20
18.0497
 30
0.0
 10
8.0483
 20
18.0497
 30
0.0
 10
8.0483
 20
18.0497
 30
0.0
 10
8.0483
 20
17.9518
 30
0.0
 10
8.0483
 20
17.9518
 30
0.0
 10
8.0483
 20
17.9518
 30
0.0
 10
8.0483
 20
17.9518
 30
0.0
 10
4.9232
 20
17.4814
 30
0.0
 10
4.9232
 20
17.4814
 30
0.0
 10
4.9232
 20
17.4814
 30
0.0
 10
4.9232
 20
17.4814
 30
0.0
 10
4.9232
 20
18.4908
 30
0.0
 10
4.9232
 20
18.4908
 30
0.0
  0
SPLINE
  5
D3
330
1F
100
AcDbEntity
  8
VRSTVA_1
 62
   250
100
AcDbSpline
210
0.0
220
0.0
230
1.0
 70
    11
 71
     3
 72
    20
 73
    16
 74
     0
 42
0.0000000001
 43
0.0000000001
 40
0.0
 40
0.0
 40
0.0
 40
0.0
 40
0.2
 40
0.2
 40
0.2
 40
0.2
 40
0.4
 40
0.4
 40
0.4
 40
0.4
 40
0.6
 40
0.6
 40
0.6
 40
0.6
 40
1.0
 40
1.0
 40
1.0
 40
1.0
 10
-9.0007
 20
17.5739
 30
0.0
 10
-9.0007
 20
17.5739
 30
0.0
 10
-12.1258
 20
18.0149
 30
0.0
 10
-12.1258
 20
18.0149
 30
0.0
 10
-12.1258
 20
18.0149
 30
0.0
 10
-12.1258
 20
18.0149
 30
0.0
 10
-12.1258
 20
18.1129
 30
0.0
 10
-12.1258
 20
18.1129
 30
0.0
 10
-12.1258
 20
18.1129
 30
0.0
 10
-12.1258
 20
18.1129
 30
0.0
 10
-9.0007
 20
18.5832
 30
0.0
 10
-9.0007
 20
18.5832
 30
0.0
 10
-9.0007
 20
18.5832
 30
0.0
 10
-9.0007
 20
18.5832
 30
0.0
 10
-9.0007
 20
17.5739
 30
0.0
 10
-9.0007
 20
17.5739
 30
0.0
  0
SPLINE
  5
D4
330
1F
100
AcDbEntity
  8
VRSTVA_1
 62
   250
100
AcDbSpline
210
0.0
220
0.0
230
1.0
 70
    24
 71
     3
 72
     8
 73
     4
 74
     0
 42
0.0000000001
 43
0.0000000001
 40
0.0
 40
0.0
 40
0.0
 40
0.0
 40
1.0
 40
1.0
 40
1.0
 40
1.0
 10
34.1372
 20
-9.0437
 30
0.0
 10
34.1372
 20
-9.0437
 30
0.0
 10
34.1372
 20
-24.0177
 30
0.0
 10
34.1372
 20
-24.0177
 30
0.0
  0
SPLINE
  5
D5
330
1F
100
AcDbEntity
  8
VRSTVA_1
 62
   250
100
AcDbSpline
210
0.0
220
0.0
230
1.0
 70
    11
 71
     3
 72
    84
 73
    80
 74
     0
 42
0.0000000001
 43
0.0000000001
 40
0.0
 40
0.0
 40
0.0
 40
0.0
 40
0.0476190476190476
 40
0.0476190476190476
 40
0.0476190476190476
 40
0.0476190476190476
 40
0.0952380952380952
 40
0.0952380952380952
 40
0.0952380952380952
 40
0.0952380952380952
 40
0.1428571428571428
 40
0.1428571428571428
 40
0.1428571428571428
 40
0.1428571428571428
 40
0.1904761904761905
 40
0.1904761904761905
 40
0.1904761904761905
 40
0.1904761904761905
 40
0.2380952380952381
 40
0.2380952380952381
 40
0.2380952380952381
 40
0.2380952380952381
 40
0.2857142857142857
 40
0.2857142857142857
 40
0.2857142857142857
 40
0.2857142857142857
 40
0.3333333333333333
 40
0.3333333333333333
 40
0.3333333333333333
 40
0.3333333333333333
 40
0.3809523809523809
 40
0.3809523809523809
 40
0.3809523809523809
 40
0.3809523809523809
 40
0.4285714285714285
 40
0.4285714285714285
 40
0.4285714285714285
 40
0.4285714285714285
 40
0.4761904761904762
 40
0.4761904761904762
 40
0.4761904761904762
 40
0.4761904761904762
 40
0.5238095238095238
 40
0.5238095238095238
 40
0.5238095238095238
 40
0.5238095238095238
 40
0.5714285714285714
 40
0.5714285714285714
 40
0.5714285714285714
 40
0.5714285714285714
 40
0.6190476190476191
 40
0.6190476190476191
 40
0.6190476190476191
 40
0.6190476190476191
 40
0.6666666666666666
 40
0.6666666666666666
 40
0.6666666666666666
 40
0.6666666666666666
 40
0.7142857142857143
 40
0.7142857142857143
 40
0.7142857142857143
 40
0.7142857142857143
 40
0.7619047619047619
 40
0.7619047619047619
 40
0.7619047619047619
 40
0.7619047619047619
 40
0.8095238095238095
 40
0.8095238095238095
 40
0.8095238095238095
 40
0.8095238095238095
 40
0.8571428571428571
 40
0.8571428571428571
 40
0.8571428571428571
 40
0.8571428571428571
 40
0.9047619047619048
 40
0.9047619047619048
 40
0.9047619047619048
 40
0.9047619047619048
 40
1.0
 40
1.0
 40
1.0
 40
1.0
 10
31.6826
 20
-18.1812
 30
0.0
 10
31.6826
 20
-18.1812
 30
0.0
 10
31.4235
 20
-17.9498
 30
0.0
 10
31.4235
 20
-17.9498
 30
0.0
 10
31.4235
 20
-17.9498
 30
0.0
 10
31.4235
 20
-17.9498
 30
0.0
 10
31.5392
 20
-17.8134
 30
0.0
 10
31.5392
 20
-17.8134
 30
0.0
 10
31.5392
 20
-17.8134
 30
0.0
 10
31.5392
 20
-17.8134
 30
0.0
 10
31.812
 20
-18.0556
 30
0.0
 10
31.812
 20
-18.0556
 30
0.0
 10
31.812
 20
-18.0556
 30
0.0
 10
31.9296
 20
-17.9766
 30
0.0
 10
32.0326
 20
-17.9235
 30
0.0
 10
32.1205
 20
-17.8957
 30
0.0
 10
32.1205
 20
-17.8957
 30
0.0
 10
32.2363
 20
-17.859
 30
0.0
 10
32.3661
 20
-17.8407
 30
0.0
 10
32.5091
 20
-17.8407
 30
0.0
 10
32.5091
 20
-17.8407
 30
0.0
 10
32.716
 20
-17.8407
 30
0.0
 10
32.9004
 20
-17.8825
 30
0.0
 10
33.0617
 20
-17.9663
 30
0.0
 10
33.0617
 20
-17.9663
 30
0.0
 10
33.2236
 20
-18.05
 30
0.0
 10
33.3458
 20
-18.1671
 30
0.0
 10
33.4286
 20
-18.3181
 30
0.0
 10
33.4286
 20
-18.3181
 30
0.0
 10
33.5109
 20
-18.4696
 30
0.0
 10
33.5523
 20
-18.6299
 30
0.0
 10
33.5523
 20
-18.7997
 30
0.0
 10
33.5523
 20
-18.7997
 30
0.0
 10
33.5523
 20
-18.9267
 30
0.0
 10
33.5345
 20
-19.0415
 30
0.0
 10
33.4987
 20
-19.1445
 30
0.0
 10
33.4987
 20
-19.1445
 30
0.0
 10
33.471
 20
-19.2235
 30
0.0
 10
33.4183
 20
-19.3157
 30
0.0
 10
33.3402
 20
-19.4216
 30
0.0
 10
33.3402
 20
-19.4216
 30
0.0
 10
33.3402
 20
-19.4216
 30
0.0
 10
33.5994
 20
-19.653
 30
0.0
 10
33.5994
 20
-19.653
 30
0.0
 10
33.5994
 20
-19.653
 30
0.0
 10
33.5994
 20
-19.653
 30
0.0
 10
33.4837
 20
-19.7894
 30
0.0
 10
33.4837
 20
-19.7894
 30
0.0
 10
33.4837
 20
-19.7894
 30
0.0
 10
33.4837
 20
-19.7894
 30
0.0
 10
33.2123
 20
-19.5467
 30
0.0
 10
33.2123
 20
-19.5467
 30
0.0
 10
33.2123
 20
-19.5467
 30
0.0
 10
33.0754
 20
-19.637
 30
0.0
 10
32.9583
 20
-19.6972
 30
0.0
 10
32.8614
 20
-19.7273
 30
0.0
 10
32.8614
 20
-19.7273
 30
0.0
 10
32.7645
 20
-19.7574
 30
0.0
 10
32.6478
 20
-19.7729
 30
0.0
 10
32.5119
 20
-19.7729
 30
0.0
 10
32.5119
 20
-19.7729
 30
0.0
 10
32.3045
 20
-19.7729
 30
0.0
 10
32.1196
 20
-19.7315
 30
0.0
 10
31.9573
 20
-19.6488
 30
0.0
 10
31.9573
 20
-19.6488
 30
0.0
 10
31.795
 20
-19.566
 30
0.0
 10
31.6723
 20
-19.4503
 30
0.0
 10
31.5886
 20
-19.3007
 30
0.0
 10
31.5886
 20
-19.3007
 30
0.0
 10
31.5053
 20
-19.1516
 30
0.0
 10
31.4634
 20
-18.9855
 30
0.0
 10
31.4634
 20
-18.8026
 30
0.0
 10
31.4634
 20
-18.8026
 30
0.0
 10
31.4634
 20
-18.6793
 30
0.0
 10
31.4794
 20
-18.5716
 30
0.0
 10
31.5124
 20
-18.4794
 30
0.0
 10
31.5124
 20
-18.4794
 30
0.0
 10
31.5448
 20
-18.3872
 30
0.0
 10
31.6017
 20
-18.2875
 30
0.0
 10
31.6826
 20
-18.1812
 30
0.0
  0
SPLINE
  5
D6
330
1F
100
AcDbEntity
  8
VRSTVA_1
 62
   250
100
AcDbSpline
210
0.0
220
0.0
230
1.0
 70
    11
 71
     3
 72
    32
 73
    28
 74
     0
 42
0.0000000001
 43
0.0000000001
 40
0.0
 40
0.0
 40
0.0
 40
0.0
 40
0.125
 40
0.125
 40
0.125
 40
0.125
 40
0.25
 40
0.25
 40
0.25
 40
0.25
 40
0.375
 40
0.375
 40
0.375
 40
0.375
 40
0.5
 40
0.5
 40
0.5
 40
0.5
 40
0.625
 40
0.625
 40
0.625
 40
0.625
 40
0.75
 40
0.75
 40
0.75
 40
0.75
 40
1.0
 40
1.0
 40
1.0
 40
1.0
 10
31.8684
 20
-18.3463
 30
0.0
 10
31.8007
 20
-18.4329
 30
0.0
 10
31.7541
 20
-18.5086
 30
0.0
 10
31.7292
 20
-18.573
 30
0.0
 10
31.7292
 20
-18.573
 30
0.0
 10
31.7047
 20
-18.6379
 30
0.0
 10
31.692
 20
-18.7141
 30
0.0
 10
31.692
 20
-18.8012
 30
0.0
 10
31.692
 20
-18.8012
 30
0.0
 10
31.692
 20
-19.0025
 30
0.0
 10
31.7602
 20
-19.1685
 30
0.0
 10
31.8966
 20
-19.3002
 30
0.0
 10
31.8966
 20
-19.3002
 30
0.0
 10
32.0331
 20
-19.4315
 30
0.0
 10
32.2367
 20
-19.4973
 30
0.0
 10
32.5081
 20
-19.4973
 30
0.0
 10
32.5081
 20
-19.4973
 30
0.0
 10
32.6144
 20
-19.4973
 30
0.0
 10
32.709
 20
-19.487
 30
0.0
 10
32.7918
 20
-19.4667
 30
0.0
 10
32.7918
 20
-19.4667
 30
0.0
 10
32.8534
 20
-19.4521
 30
0.0
 10
32.9291
 20
-19.4216
 30
0.0
 10
33.0189
 20
-19.3745
 30
0.0
 10
33.0189
 20
-19.3745
 30
0.0
 10
33.0189
 20
-19.3745
 30
0.0
 10
31.8684
 20
-18.3463
 30
0.0
 10
31.8684
 20
-18.3463
 30
0.0
  0
SPLINE
  5
D7
330
1F
100
AcDbEntity
  8
VRSTVA_1
 62
   250
100
AcDbSpline
210
0.0
220
0.0
230
1.0
 70
    11
 71
     3
 72
    28
 73
    24
 74
     0
 42
0.0000000001
 43
0.0000000001
 40
0.0
 40
0.0
 40
0.0
 40
0.0
 40
0.1428571428571428
 40
0.1428571428571428
 40
0.1428571428571428
 40
0.1428571428571428
 40
0.2857142857142857
 40
0.2857142857142857
 40
0.2857142857142857
 40
0.2857142857142857
 40
0.4285714285714285
 40
0.4285714285714285
 40
0.4285714285714285
 40
0.4285714285714285
 40
0.5714285714285714
 40
0.5714285714285714
 40
0.5714285714285714
 40
0.5714285714285714
 40
0.7142857142857143
 40
0.7142857142857143
 40
0.7142857142857143
 40
0.7142857142857143
 40
1.0
 40
1.0
 40
1.0
 40
1.0
 10
32.0105
 20
-18.2334
 30
0.0
 10
32.0105
 20
-18.2334
 30
0.0
 10
33.1568
 20
-19.2574
 30
0.0
 10
33.1568
 20
-19.2574
 30
0.0
 10
33.1568
 20
-19.2574
 30
0.0
 10
33.2146
 20
-19.1869
 30
0.0
 10
33.2551
 20
-19.1215
 30
0.0
 10
33.2781
 20
-19.0617
 30
0.0
 10
33.2781
 20
-19.0617
 30
0.0
 10
33.3087
 20
-18.9837
 30
0.0
 10
33.3237
 20
-18.899
 30
0.0
 10
33.3237
 20
-18.8082
 30
0.0
 10
33.3237
 20
-18.8082
 30
0.0
 10
33.3237
 20
-18.6078
 30
0.0
 10
33.2532
 20
-18.4427
 30
0.0
 10
33.1116
 20
-18.312
 30
0.0
 10
33.1116
 20
-18.312
 30
0.0
 10
32.97
 20
-18.1817
 30
0.0
 10
32.7715
 20
-18.1163
 30
0.0
 10
32.5161
 20
-18.1163
 30
0.0
 10
32.5161
 20
-18.1163
 30
0.0
 10
32.3252
 20
-18.1163
 30
0.0
 10
32.1563
 20
-18.1553
 30
0.0
 10
32.0105
 20
-18.2334
 30
0.0
  0
SPLINE
  5
D8
330
1F
100
AcDbEntity
  8
VRSTVA_1
 62
   250
100
AcDbSpline
210
0.0
220
0.0
230
1.0
 70
    11
 71
     3
 72
    48
 73
    44
 74
     0
 42
0.0000000001
 43
0.0000000001
 40
0.0
 40
0.0
 40
0.0
 40
0.0
 40
0.0833333333333333
 40
0.0833333333333333
 40
0.0833333333333333
 40
0.0833333333333333
 40
0.1666666666666667
 40
0.1666666666666667
 40
0.1666666666666667
 40
0.1666666666666667
 40
0.25
 40
0.25
 40
0.25
 40
0.25
 40
0.3333333333333333
 40
0.3333333333333333
 40
0.3333333333333333
 40
0.3333333333333333
 40
0.4166666666666667
 40
0.4166666666666667
 40
0.4166666666666667
 40
0.4166666666666667
 40
0.5
 40
0.5
 40
0.5
 40
0.5
 40
0.5833333333333334
 40
0.5833333333333334
 40
0.5833333333333334
 40
0.5833333333333334
 40
0.6666666666666666
 40
0.6666666666666666
 40
0.6666666666666666
 40
0.6666666666666666
 40
0.75
 40
0.75
 40
0.75
 40
0.75
 40
0.8333333333333334
 40
0.8333333333333334
 40
0.8333333333333334
 40
0.8333333333333334
 40
1.0
 40
1.0
 40
1.0
 40
1.0
 10
33.518
 20
-16.7965
 30
0.0
 10
33.518
 20
-16.7965
 30
0.0
 10
33.0345
 20
-16.7965
 30
0.0
 10
33.0345
 20
-16.7965
 30
0.0
 10
33.0345
 20
-16.7965
 30
0.0
 10
33.0345
 20
-16.7965
 30
0.0
 10
33.0345
 20
-17.6728
 30
0.0
 10
33.0345
 20
-17.6728
 30
0.0
 10
33.0345
 20
-17.6728
 30
0.0
 10
33.0345
 20
-17.6728
 30
0.0
 10
32.8068
 20
-17.6728
 30
0.0
 10
32.8068
 20
-17.6728
 30
0.0
 10
32.8068
 20
-17.6728
 30
0.0
 10
32.8068
 20
-17.6728
 30
0.0
 10
31.4978
 20
-16.7508
 30
0.0
 10
31.4978
 20
-16.7508
 30
0.0
 10
31.4978
 20
-16.7508
 30
0.0
 10
31.4978
 20
-16.7508
 30
0.0
 10
31.4978
 20
-16.5481
 30
0.0
 10
31.4978
 20
-16.5481
 30
0.0
 10
31.4978
 20
-16.5481
 30
0.0
 10
31.4978
 20
-16.5481
 30
0.0
 10
32.8068
 20
-16.5481
 30
0.0
 10
32.8068
 20
-16.5481
 30
0.0
 10
32.8068
 20
-16.5481
 30
0.0
 10
32.8068
 20
-16.5481
 30
0.0
 10
32.8068
 20
-16.2753
 30
0.0
 10
32.8068
 20
-16.2753
 30
0.0
 10
32.8068
 20
-16.2753
 30
0.0
 10
32.8068
 20
-16.2753
 30
0.0
 10
33.0345
 20
-16.2753
 30
0.0
 10
33.0345
 20
-16.2753
 30
0.0
 10
33.0345
 20
-16.2753
 30
0.0
 10
33.0345
 20
-16.2753
 30
0.0
 10
33.0345
 20
-16.5481
 30
0.0
 10
33.0345
 20
-16.5481
 30
0.0
 10
33.0345
 20
-16.5481
 30
0.0
 10
33.0345
 20
-16.5481
 30
0.0
 10
33.518
 20
-16.5481
 30
0.0
 10
33.518
 20
-16.5481
 30
0.0
 10
33.518
 20
-16.5481
 30
0.0
 10
33.518
 20
-16.5481
 30
0.0
 10
33.518
 20
-16.7965
 30
0.0
 10
33.518
 20
-16.7965
 30
0.0
  0
SPLINE
  5
D9
330
1F
100
AcDbEntity
  8
VRSTVA_1
 62
   250
100
AcDbSpline
210
0.0
220
0.0
230
1.0
 70
    11
 71
     3
 72
    16
 73
    12
 74
     0
 42
0.0000000001
 43
0.0000000001
 40
0.0
 40
0.0
 40
0.0
 40
0.0
 40
0.25
 40
0.25
 40
0.25
 40
0.25
 40
0.5
 40
0.5
 40
0.5
 40
0.5
 40
1.0
 40
1.0
 40
1.0
 40
1.0
 10
32.8068
 20
-16.7965
 30
0.0
 10
32.8068
 20
-16.7965
 30
0.0
 10
31.8962
 20
-16.7965
 30
0.0
 10
31.8962
 20
-16.7965
 30
0.0
 10
31.8962
 20
-16.7965
 30
0.0
 10
31.8962
 20
-16.7965
 30
0.0
 10
32.8068
 20
-17.4286
 30
0.0
 10
32.8068
 20
-17.4286
 30
0.0
 10
32.8068
 20
-17.4286
 30
0.0
 10
32.8068
 20
-17.4286
 30
0.0
 10
32.8068
 20
-16.7965
 30
0.0
 10
32.8068
 20
-16.7965
 30
0.0
  0
SPLINE
  5
DA
330
1F
100
AcDbEntity
  8
VRSTVA_1
 62
   250
100
AcDbSpline
210
0.0
220
0.0
230
1.0
 70
    11
 71
     3
 72
    52
 73
    48
 74
     0
 42
0.0000000001
 43
0.0000000001
 40
0.0
 40
0.0
 40
0.0
 40
0.0
 40
0.0769230769230769
 40
0.0769230769230769
 40
0.0769230769230769
 40
0.0769230769230769
 40
0.1538461538461539
 40
0.1538461538461539
 40
0.1538461538461539
 40
0.1538461538461539
 40
0.2307692307692308
 40
0.2307692307692308
 40
0.2307692307692308
 40
0.2307692307692308
 40
0.3076923076923077
 40
0.3076923076923077
 40
0.3076923076923077
 40
0.3076923076923077
 40
0.3846153846153846
 40
0.3846153846153846
 40
0.3846153846153846
 40
0.3846153846153846
 40
0.4615384615384616
 40
0.4615384615384616
 40
0.4615384615384616
 40
0.4615384615384616
 40
0.5384615384615384
 40
0.5384615384615384
 40
0.5384615384615384
 40
0.5384615384615384
 40
0.6153846153846154
 40
0.6153846153846154
 40
0.6153846153846154
 40
0.6153846153846154
 40
0.6923076923076923
 40
0.6923076923076923
 40
0.6923076923076923
 40
0.6923076923076923
 40
0.7692307692307693
 40
0.7692307692307693
 40
0.7692307692307693
 40
0.7692307692307693
 40
0.8461538461538461
 40
0.8461538461538461
 40
0.8461538461538461
 40
0.8461538461538461
 40
1.0
 40
1.0
 40
1.0
 40
1.0
 10
32.5218
 20
-16.0218
 30
0.0
 10
32.2828
 20
-16.0218
 30
0.0
 10
32.0904
 20
-15.9973
 30
0.0
 10
31.9451
 20
-15.9479
 30
0.0
 10
31.9451
 20
-15.9479
 30
0.0
 10
31.7993
 20
-15.899
 30
0.0
 10
31.6869
 20
-15.8256
 30
0.0
 10
31.6078
 20
-15.7287
 30
0.0
 10
31.6078
 20
-15.7287
 30
0.0
 10
31.5288
 20
-15.6318
 30
0.0
 10
31.4893
 20
-15.51
 30
0.0
 10
31.4893
 20
-15.3633
 30
0.0
 10
31.4893
 20
-15.3633
 30
0.0
 10
31.4893
 20
-15.2546
 30
0.0
 10
31.5114
 20
-15.1596
 30
0.0
 10
31.5552
 20
-15.0778
 30
0.0
 10
31.5552
 20
-15.0778
 30
0.0
 10
31.5984
 20
-14.9959
 30
0.0
 10
31.6615
 20
-14.9286
 30
0.0
 10
31.7438
 20
-14.875
 30
0.0
 10
31.7438
 20
-14.875
 30
0.0
 10
31.8261
 20
-14.8219
 30
0.0
 10
31.9263
 20
-14.78
 30
0.0
 10
32.0443
 20
-14.7499
 30
0.0
 10
32.0443
 20
-14.7499
 30
0.0
 10
32.1624
 20
-14.7193
 30
0.0
 10
32.3214
 20
-14.7043
 30
0.0
 10
32.5218
 20
-14.7043
 30
0.0
 10
32.5218
 20
-14.7043
 30
0.0
 10
32.7588
 20
-14.7043
 30
0.0
 10
32.9498
 20
-14.7287
 30
0.0
 10
33.0956
 20
-14.7772
 30
0.0
 10
33.0956
 20
-14.7772
 30
0.0
 10
33.2414
 20
-14.8261
 30
0.0
 10
33.3538
 20
-14.899
 30
0.0
 10
33.4333
 20
-14.9959
 30
0.0
 10
33.4333
 20
-14.9959
 30
0.0
 10
33.5128
 20
-15.0928
 30
0.0
 10
33.5523
 20
-15.2151
 30
0.0
 10
33.5523
 20
-15.3633
 30
0.0
 10
33.5523
 20
-15.3633
 30
0.0
 10
33.5523
 20
-15.558
 30
0.0
 10
33.4827
 20
-15.7109
 30
0.0
 10
33.343
 20
-15.8219
 30
0.0
 10
33.343
 20
-15.8219
 30
0.0
 10
33.1751
 20
-15.955
 30
0.0
 10
32.9009
 20
-16.0218
 30
0.0
 10
32.5218
 20
-16.0218
 30
0.0
  0
SPLINE
  5
DB
330
1F
100
AcDbEntity
  8
VRSTVA_1
 62
   250
100
AcDbSpline
210
0.0
220
0.0
230
1.0
 70
    11
 71
     3
 72
    36
 73
    32
 74
     0
 42
0.0000000001
 43
0.0000000001
 40
0.0
 40
0.0
 40
0.0
 40
0.0
 40
0.1111111111111111
 40
0.1111111111111111
 40
0.1111111111111111
 40
0.1111111111111111
 40
0.2222222222222222
 40
0.2222222222222222
 40
0.2222222222222222
 40
0.2222222222222222
 40
0.3333333333333333
 40
0.3333333333333333
 40
0.3333333333333333
 40
0.3333333333333333
 40
0.4444444444444444
 40
0.4444444444444444
 40
0.4444444444444444
 40
0.4444444444444444
 40
0.5555555555555556
 40
0.5555555555555556
 40
0.5555555555555556
 40
0.5555555555555556
 40
0.6666666666666666
 40
0.6666666666666666
 40
0.6666666666666666
 40
0.6666666666666666
 40
0.7777777777777778
 40
0.7777777777777778
 40
0.7777777777777778
 40
0.7777777777777778
 40
1.0
 40
1.0
 40
1.0
 40
1.0
 10
32.5218
 20
-15.7668
 30
0.0
 10
32.8534
 20
-15.7668
 30
0.0
 10
33.074
 20
-15.7278
 30
0.0
 10
33.184
 20
-15.6502
 30
0.0
 10
33.184
 20
-15.6502
 30
0.0
 10
33.2936
 20
-15.5726
 30
0.0
 10
33.3487
 20
-15.4771
 30
0.0
 10
33.3487
 20
-15.3633
 30
0.0
 10
33.3487
 20
-15.3633
 30
0.0
 10
33.3487
 20
-15.249
 30
0.0
 10
33.2932
 20
-15.1535
 30
0.0
 10
33.1831
 20
-15.0759
 30
0.0
 10
33.1831
 20
-15.0759
 30
0.0
 10
33.073
 20
-14.9983
 30
0.0
 10
32.8524
 20
-14.9592
 30
0.0
 10
32.5218
 20
-14.9592
 30
0.0
 10
32.5218
 20
-14.9592
 30
0.0
 10
32.1892
 20
-14.9592
 30
0.0
 10
31.9681
 20
-14.9983
 30
0.0
 10
31.859
 20
-15.0759
 30
0.0
 10
31.859
 20
-15.0759
 30
0.0
 10
31.7494
 20
-15.1535
 30
0.0
 10
31.6949
 20
-15.2499
 30
0.0
 10
31.6949
 20
-15.3656
 30
0.0
 10
31.6949
 20
-15.3656
 30
0.0
 10
31.6949
 20
-15.4799
 30
0.0
 10
31.7433
 20
-15.5707
 30
0.0
 10
31.8397
 20
-15.6389
 30
0.0
 10
31.8397
 20
-15.6389
 30
0.0
 10
31.9625
 20
-15.724
 30
0.0
 10
32.1902
 20
-15.7668
 30
0.0
 10
32.5218
 20
-15.7668
 30
0.0
  0
SPLINE
  5
DC
330
1F
100
AcDbEntity
  8
VRSTVA_1
 62
   250
100
AcDbSpline
210
0.0
220
0.0
230
1.0
 70
    11
 71
     3
 72
    20
 73
    16
 74
     0
 42
0.0000000001
 43
0.0000000001
 40
0.0
 40
0.0
 40
0.0
 40
0.0
 40
0.2
 40
0.2
 40
0.2
 40
0.2
 40
0.4
 40
0.4
 40
0.4
 40
0.4
 40
0.6
 40
0.6
 40
0.6
 40
0.6
 40
1.0
 40
1.0
 40
1.0
 40
1.0
 10
33.625
 20
-11.5966
 30
0.0
 10
33.625
 20
-11.5966
 30
0.0
 10
34.066
 20
-8.4715
 30
0.0
 10
34.066
 20
-8.4715
 30
0.0
 10
34.066
 20
-8.4715
 30
0.0
 10
34.066
 20
-8.4715
 30
0.0
 10
34.164
 20
-8.4715
 30
0.0
 10
34.164
 20
-8.4715
 30
0.0
 10
34.164
 20
-8.4715
 30
0.0
 10
34.164
 20
-8.4715
 30
0.0
 10
34.6343
 20
-11.5966
 30
0.0
 10
34.6343
 20
-11.5966
 30
0.0
 10
34.6343
 20
-11.5966
 30
0.0
 10
34.6343
 20
-11.5966
 30
0.0
 10
33.625
 20
-11.5966
 30
0.0
 10
33.625
 20
-11.5966
 30
0.0
  0
SPLINE
  5
DD
330
1F
100
AcDbEntity
  8
VRSTVA_1
 62
   250
100
AcDbSpline
210
0.0
220
0.0
230
1.0
 70
    11
 71
     3
 72
    20
 73
    16
 74
     0
 42
0.0000000001
 43
0.0000000001
 40
0.0
 40
0.0
 40
0.0
 40
0.0
 40
0.2
 40
0.2
 40
0.2
 40
0.2
 40
0.4
 40
0.4
 40
0.4
 40
0.4
 40
0.6
 40
0.6
 40
0.6
 40
0.6
 40
1.0
 40
1.0
 40
1.0
 40
1.0
 10
34.6418
 20
-21.039
 30
0.0
 10
34.6418
 20
-21.039
 30
0.0
 10
34.2008
 20
-24.1641
 30
0.0
 10
34.2008
 20
-24.1641
 30
0.0
 10
34.2008
 20
-24.1641
 30
0.0
 10
34.2008
 20
-24.1641
 30
0.0
 10
34.1029
 20
-24.1641
 30
0.0
 10
34.1029
 20
-24.1641
 30
0.0
 10
34.1029
 20
-24.1641
 30
0.0
 10
34.1029
 20
-24.1641
 30
0.0
 10
33.6325
 20
-21.039
 30
0.0
 10
33.6325
 20
-21.039
 30
0.0
 10
33.6325
 20
-21.039
 30
0.0
 10
33.6325
 20
-21.039
 30
0.0
 10
34.6418
 20
-21.039
 30
0.0
 10
34.6418
 20
-21.039
 30
0.0
  0
SPLINE
  5
DE
330
1F
100
AcDbEntity
  8
VRSTVA_1
 62
     7
100
AcDbSpline
210
0.0
220
0.0
230
1.0
 70
     8
 71
     3
 72
     8
 73
     4
 74
     0
 42
0.0000000001
 43
0.0000000001
 40
0.0
 40
0.0
 40
0.0
 40
0.0
 40
1.0
 40
1.0
 40
1.0
 40
1.0
 10
17.3288
 20
13.7419
 30
0.0
 10
17.3137
 20
13.9208
 30
0.0
 10
17.1817
 20
14.0762
 30
0.0
 10
17.0078
 20
14.1197
 30
0.0
  0
SPLINE
  5
DF
330
1F
100
AcDbEntity
  8
VRSTVA_1
100
AcDbSpline
210
0.0
220
0.0
230
1.0
 70
     8
 71
     3
 72
     8
 73
     4
 74
     0
 42
0.0000000001
 43
0.0000000001
 40
0.0
 40
0.0
 40
0.0
 40
0.0
 40
1.0
 40
1.0
 40
1.0
 40
1.0
 10
17.3288
 20
13.7419
 30
0.0
 10
17.3137
 20
13.9208
 30
0.0
 10
17.1817
 20
14.0762
 30
0.0
 10
17.0078
 20
14.1197
 30
0.0
  0
SPLINE
  5
E0
330
1F
100
AcDbEntity
  8
VRSTVA_1
 62
     7
100
AcDbSpline
210
0.0
220
0.0
230
1.0
 70
     8
 71
     3
 72
     8
 73
     4
 74
     0
 42
0.0000000001
 43
0.0000000001
 40
0.0
 40
0.0
 40
0.0
 40
0.0
 40
1.0
 40
1.0
 40
1.0
 40
1.0
 10
-20.9154
 20
14.1197
 30
0.0
 10
-21.0892
 20
14.0762
 30
0.0
 10
-21.2213
 20
13.9208
 30
0.0
 10
-21.2363
 20
13.7419
 30
0.0
  0
SPLINE
  5
E1
330
1F
100
AcDbEntity
  8
VRSTVA_1
100
AcDbSpline
210
0.0
220
0.0
230
1.0
 70
     8
 71
     3
 72
     8
 73
     4
 74
     0
 42
0.0000000001
 43
0.0000000001
 40
0.0
 40
0.0
 40
0.0
 40
0.0
 40
1.0
 40
1.0
 40
1.0
 40
1.0
 10
-20.9154
 20
14.1197
 30
0.0
 10
-21.0892
 20
14.0762
 30
0.0
 10
-21.2213
 20
13.9208
 30
0.0
 10
-21.2363
 20
13.7419
 30
0.0
  0
SPLINE
  5
E2
330
1F
100
AcDbEntity
  8
VRSTVA_1
 62
     7
100
AcDbSpline
210
0.0
220
0.0
230
1.0
 70
     8
 71
     3
 72
     8
 73
     4
 74
     0
 42
0.0000000001
 43
0.0000000001
 40
0.0
 40
0.0
 40
0.0
 40
0.0
 40
1.0
 40
1.0
 40
1.0
 40
1.0
 10
17.0015
 20
14.0833
 30
0.0
 10
11.8866
 20
15.2868
 30
0.0
 10
5.5682
 20
16.4903
 30
0.0
 10
0.1524
 20
16.4903
 30
0.0
  0
SPLINE
  5
E3
330
1F
100
AcDbEntity
  8
VRSTVA_1
100
AcDbSpline
210
0.0
220
0.0
230
1.0
 70
     8
 71
     3
 72
     8
 73
     4
 74
     0
 42
0.0000000001
 43
0.0000000001
 40
0.0
 40
0.0
 40
0.0
 40
0.0
 40
1.0
 40
1.0
 40
1.0
 40
1.0
 10
17.0015
 20
14.0833
 30
0.0
 10
11.8866
 20
15.2868
 30
0.0
 10
5.5682
 20
16.4903
 30
0.0
 10
0.1524
 20
16.4903
 30
0.0
  0
SPLINE
  5
E4
330
1F
100
AcDbEntity
  8
VRSTVA_1
 62
     7
100
AcDbSpline
210
0.0
220
0.0
230
1.0
 70
     8
 71
     3
 72
     8
 73
     4
 74
     0
 42
0.0000000001
 43
0.0000000001
 40
0.0
 40
0.0
 40
0.0
 40
0.0
 40
1.0
 40
1.0
 40
1.0
 40
1.0
 10
-4.0599
 20
16.4903
 30
0.0
 10
-9.4757
 20
16.4903
 30
0.0
 10
-15.7941
 20
15.2868
 30
0.0
 10
-20.9091
 20
14.0833
 30
0.0
  0
SPLINE
  5
E5
330
1F
100
AcDbEntity
  8
VRSTVA_1
100
AcDbSpline
210
0.0
220
0.0
230
1.0
 70
     8
 71
     3
 72
     8
 73
     4
 74
     0
 42
0.0000000001
 43
0.0000000001
 40
0.0
 40
0.0
 40
0.0
 40
0.0
 40
1.0
 40
1.0
 40
1.0
 40
1.0
 10
-4.0599
 20
16.4903
 30
0.0
 10
-9.4757
 20
16.4903
 30
0.0
 10
-15.7941
 20
15.2868
 30
0.0
 10
-20.9091
 20
14.0833
 30
0.0
  0
SPLINE
  5
E6
330
1F
100
AcDbEntity
  8
VRSTVA_1
100
AcDbSpline
210
0.0
220
0.0
230
1.0
 70
    24
 71
     3
 72
     8
 73
     4
 74
     0
 42
0.0000000001
 43
0.0000000001
 40
0.0
 40
0.0
 40
0.0
 40
0.0
 40
1.0
 40
1.0
 40
1.0
 40
1.0
 10
-21.2364
 20
13.7424
 30
0.0
 10
-21.2364
 20
13.7424
 30
0.0
 10
-21.3288
 20
12.6865
 30
0.0
 10
-21.3288
 20
12.6865
 30
0.0
  0
SPLINE
  5
E7
330
1F
100
AcDbEntity
  8
VRSTVA_1
100
AcDbSpline
210
0.0
220
0.0
230
1.0
 70
    24
 71
     3
 72
     8
 73
     4
 74
     0
 42
0.0000000001
 43
0.0000000001
 40
0.0
 40
0.0
 40
0.0
 40
0.0
 40
1.0
 40
1.0
 40
1.0
 40
1.0
 10
-4.1053
 20
16.4603
 30
0.0
 10
-4.1053
 20
16.4603
 30
0.0
 10
0.1977
 20
16.4603
 30
0.0
 10
0.1977
 20
16.4603
 30
0.0
  0
SPLINE
  5
E8
330
1F
100
AcDbEntity
  8
VRSTVA_1
100
AcDbSpline
210
0.0
220
0.0
230
1.0
 70
    24
 71
     3
 72
     8
 73
     4
 74
     0
 42
0.0000000001
 43
0.0000000001
 40
0.0
 40
0.0
 40
0.0
 40
0.0
 40
1.0
 40
1.0
 40
1.0
 40
1.0
 10
-19.7123
 20
11.3553
 30
0.0
 10
-19.7123
 20
11.3553
 30
0.0
 10
-19.7123
 20
10.9274
 30
0.0
 10
-19.7123
 20
10.9274
 30
0.0
  0
SPLINE
  5
E9
330
1F
100
AcDbEntity
  8
VRSTVA_1
100
AcDbSpline
210
0.0
220
0.0
230
1.0
 70
    24
 71
     3
 72
     8
 73
     4
 74
     0
 42
0.0000000001
 43
0.0000000001
 40
0.0
 40
0.0
 40
0.0
 40
0.0
 40
1.0
 40
1.0
 40
1.0
 40
1.0
 10
17.0079
 20
14.1199
 30
0.0
 10
17.0079
 20
14.1199
 30
0.0
 10
-20.9154
 20
14.1199
 30
0.0
 10
-20.9154
 20
14.1199
 30
0.0
  0
SPLINE
  5
EA
330
1F
100
AcDbEntity
  8
VRSTVA_1
100
AcDbSpline
210
0.0
220
0.0
230
1.0
 70
    24
 71
     3
 72
     8
 73
     4
 74
     0
 42
0.0000000001
 43
0.0000000001
 40
0.0
 40
0.0
 40
0.0
 40
0.0
 40
1.0
 40
1.0
 40
1.0
 40
1.0
 10
17.3288
 20
13.7424
 30
0.0
 10
17.3288
 20
13.7424
 30
0.0
 10
-21.2364
 20
13.7424
 30
0.0
 10
-21.2364
 20
13.7424
 30
0.0
  0
SPLINE
  5
EB
330
1F
100
AcDbEntity
  8
VRSTVA_1
100
AcDbSpline
210
0.0
220
0.0
230
1.0
 70
    24
 71
     3
 72
     8
 73
     4
 74
     0
 42
0.0000000001
 43
0.0000000001
 40
0.0
 40
0.0
 40
0.0
 40
0.0
 40
1.0
 40
1.0
 40
1.0
 40
1.0
 10
17.4212
 20
12.6865
 30
0.0
 10
17.4212
 20
12.6865
 30
0.0
 10
-21.3288
 20
12.6865
 30
0.0
 10
-21.3288
 20
12.6865
 30
0.0
  0
SPLINE
  5
EC
330
1F
100
AcDbEntity
  8
VRSTVA_1
100
AcDbSpline
210
0.0
220
0.0
230
1.0
 70
    24
 71
     3
 72
     8
 73
     4
 74
     0
 42
0.0000000001
 43
0.0000000001
 40
0.0
 40
0.0
 40
0.0
 40
0.0
 40
1.0
 40
1.0
 40
1.0
 40
1.0
 10
-19.7123
 20
11.3553
 30
0.0
 10
-19.7123
 20
11.3553
 30
0.0
 10
15.8047
 20
11.3553
 30
0.0
 10
15.8047
 20
11.3553
 30
0.0
  0
SPLINE
  5
ED
330
1F
100
AcDbEntity
  8
VRSTVA_1
100
AcDbSpline
210
0.0
220
0.0
230
1.0
 70
    24
 71
     3
 72
     8
 73
     4
 74
     0
 42
0.0000000001
 43
0.0000000001
 40
0.0
 40
0.0
 40
0.0
 40
0.0
 40
1.0
 40
1.0
 40
1.0
 40
1.0
 10
-19.7123
 20
10.9274
 30
0.0
 10
-19.7123
 20
10.9274
 30
0.0
 10
15.8047
 20
10.9274
 30
0.0
 10
15.8047
 20
10.9274
 30
0.0
  0
SPLINE
  5
EE
330
1F
100
AcDbEntity
  8
VRSTVA_1
100
AcDbSpline
210
0.0
220
0.0
230
1.0
 70
    24
 71
     3
 72
     8
 73
     4
 74
     0
 42
0.0000000001
 43
0.0000000001
 40
0.0
 40
0.0
 40
0.0
 40
0.0
 40
1.0
 40
1.0
 40
1.0
 40
1.0
 10
-15.861
 20
10.0716
 30
0.0
 10
-15.861
 20
10.0716
 30
0.0
 10
11.9534
 20
10.0716
 30
0.0
 10
11.9534
 20
10.0716
 30
0.0
  0
SPLINE
  5
EF
330
1F
100
AcDbEntity
  8
VRSTVA_1
100
AcDbSpline
210
0.0
220
0.0
230
1.0
 70
    24
 71
     3
 72
     8
 73
     4
 74
     0
 42
0.0000000001
 43
0.0000000001
 40
0.0
 40
0.0
 40
0.0
 40
0.0
 40
1.0
 40
1.0
 40
1.0
 40
1.0
 10
-15.1217
 20
12.6865
 30
0.0
 10
-15.1217
 20
12.6865
 30
0.0
 10
-15.0052
 20
11.3553
 30
0.0
 10
-15.0052
 20
11.3553
 30
0.0
  0
SPLINE
  5
F0
330
1F
100
AcDbEntity
  8
VRSTVA_1
100
AcDbSpline
210
0.0
220
0.0
230
1.0
 70
    24
 71
     3
 72
     8
 73
     4
 74
     0
 42
0.0000000001
 43
0.0000000001
 40
0.0
 40
0.0
 40
0.0
 40
0.0
 40
1.0
 40
1.0
 40
1.0
 40
1.0
 10
-15.1147
 20
12.6865
 30
0.0
 10
-15.1147
 20
12.6865
 30
0.0
 10
-14.9982
 20
11.3553
 30
0.0
 10
-14.9982
 20
11.3553
 30
0.0
  0
SPLINE
  5
F1
330
1F
100
AcDbEntity
  8
VRSTVA_1
100
AcDbSpline
210
0.0
220
0.0
230
1.0
 70
    24
 71
     3
 72
     8
 73
     4
 74
     0
 42
0.0000000001
 43
0.0000000001
 40
0.0
 40
0.0
 40
0.0
 40
0.0
 40
1.0
 40
1.0
 40
1.0
 40
1.0
 10
-13.5654
 20
12.6865
 30
0.0
 10
-13.5654
 20
12.6865
 30
0.0
 10
-13.4645
 20
11.3553
 30
0.0
 10
-13.4645
 20
11.3553
 30
0.0
  0
SPLINE
  5
F2
330
1F
100
AcDbEntity
  8
VRSTVA_1
100
AcDbSpline
210
0.0
220
0.0
230
1.0
 70
    24
 71
     3
 72
     8
 73
     4
 74
     0
 42
0.0000000001
 43
0.0000000001
 40
0.0
 40
0.0
 40
0.0
 40
0.0
 40
1.0
 40
1.0
 40
1.0
 40
1.0
 10
-13.1375
 20
12.6865
 30
0.0
 10
-13.1375
 20
12.6865
 30
0.0
 10
-13.0366
 20
11.3553
 30
0.0
 10
-13.0366
 20
11.3553
 30
0.0
  0
SPLINE
  5
F3
330
1F
100
AcDbEntity
  8
VRSTVA_1
100
AcDbSpline
210
0.0
220
0.0
230
1.0
 70
    24
 71
     3
 72
     8
 73
     4
 74
     0
 42
0.0000000001
 43
0.0000000001
 40
0.0
 40
0.0
 40
0.0
 40
0.0
 40
1.0
 40
1.0
 40
1.0
 40
1.0
 10
-12.0098
 20
10.0716
 30
0.0
 10
-12.0098
 20
10.0716
 30
0.0
 10
-12.0098
 20
3.2249
 30
0.0
 10
-12.0098
 20
3.2249
 30
0.0
  0
SPLINE
  5
F4
330
1F
100
AcDbEntity
  8
VRSTVA_1
100
AcDbSpline
210
0.0
220
0.0
230
1.0
 70
    24
 71
     3
 72
     8
 73
     4
 74
     0
 42
0.0000000001
 43
0.0000000001
 40
0.0
 40
0.0
 40
0.0
 40
0.0
 40
1.0
 40
1.0
 40
1.0
 40
1.0
 10
15.8047
 20
10.9274
 30
0.0
 10
15.8047
 20
10.9274
 30
0.0
 10
11.9534
 20
10.0716
 30
0.0
 10
11.9534
 20
10.0716
 30
0.0
  0
SPLINE
  5
F5
330
1F
100
AcDbEntity
  8
VRSTVA_1
100
AcDbSpline
210
0.0
220
0.0
230
1.0
 70
    24
 71
     3
 72
     8
 73
     4
 74
     0
 42
0.0000000001
 43
0.0000000001
 40
0.0
 40
0.0
 40
0.0
 40
0.0
 40
1.0
 40
1.0
 40
1.0
 40
1.0
 10
-10.1318
 20
11.3553
 30
0.0
 10
-10.1318
 20
11.3553
 30
0.0
 10
-10.0308
 20
12.6865
 30
0.0
 10
-10.0308
 20
12.6865
 30
0.0
  0
SPLINE
  5
F6
330
1F
100
AcDbEntity
  8
VRSTVA_1
100
AcDbSpline
210
0.0
220
0.0
230
1.0
 70
    24
 71
     3
 72
     8
 73
     4
 74
     0
 42
0.0000000001
 43
0.0000000001
 40
0.0
 40
0.0
 40
0.0
 40
0.0
 40
1.0
 40
1.0
 40
1.0
 40
1.0
 10
-19.7123
 20
10.9274
 30
0.0
 10
-19.7123
 20
10.9274
 30
0.0
 10
-15.861
 20
10.0716
 30
0.0
 10
-15.861
 20
10.0716
 30
0.0
  0
SPLINE
  5
F7
330
1F
100
AcDbEntity
  8
VRSTVA_1
100
AcDbSpline
210
0.0
220
0.0
230
1.0
 70
    24
 71
     3
 72
     8
 73
     4
 74
     0
 42
0.0000000001
 43
0.0000000001
 40
0.0
 40
0.0
 40
0.0
 40
0.0
 40
1.0
 40
1.0
 40
1.0
 40
1.0
 10
-8.9048
 20
12.6865
 30
0.0
 10
-8.9048
 20
12.6865
 30
0.0
 10
-8.8466
 20
11.3553
 30
0.0
 10
-8.8466
 20
11.3553
 30
0.0
  0
SPLINE
  5
F8
330
1F
100
AcDbEntity
  8
VRSTVA_1
100
AcDbSpline
210
0.0
220
0.0
230
1.0
 70
    24
 71
     3
 72
     8
 73
     4
 74
     0
 42
0.0000000001
 43
0.0000000001
 40
0.0
 40
0.0
 40
0.0
 40
0.0
 40
1.0
 40
1.0
 40
1.0
 40
1.0
 10
-8.1636
 20
12.6865
 30
0.0
 10
-8.1636
 20
12.6865
 30
0.0
 10
-8.1054
 20
11.3553
 30
0.0
 10
-8.1054
 20
11.3553
 30
0.0
  0
SPLINE
  5
F9
330
1F
100
AcDbEntity
  8
VRSTVA_1
100
AcDbSpline
210
0.0
220
0.0
230
1.0
 70
    24
 71
     3
 72
     8
 73
     4
 74
     0
 42
0.0000000001
 43
0.0000000001
 40
0.0
 40
0.0
 40
0.0
 40
0.0
 40
1.0
 40
1.0
 40
1.0
 40
1.0
 10
-9.5036
 20
11.3553
 30
0.0
 10
-9.5036
 20
11.3553
 30
0.0
 10
-9.5323
 20
12.6865
 30
0.0
 10
-9.5323
 20
12.6865
 30
0.0
  0
SPLINE
  5
FA
330
1F
100
AcDbEntity
  8
VRSTVA_1
100
AcDbSpline
210
0.0
220
0.0
230
1.0
 70
    24
 71
     3
 72
     8
 73
     4
 74
     0
 42
0.0000000001
 43
0.0000000001
 40
0.0
 40
0.0
 40
0.0
 40
0.0
 40
1.0
 40
1.0
 40
1.0
 40
1.0
 10
-4.9361
 20
12.6865
 30
0.0
 10
-4.9361
 20
12.6865
 30
0.0
 10
-4.9945
 20
11.3553
 30
0.0
 10
-4.9945
 20
11.3553
 30
0.0
  0
SPLINE
  5
FB
330
1F
100
AcDbEntity
  8
VRSTVA_1
100
AcDbSpline
210
0.0
220
0.0
230
1.0
 70
    24
 71
     3
 72
     8
 73
     4
 74
     0
 42
0.0000000001
 43
0.0000000001
 40
0.0
 40
0.0
 40
0.0
 40
0.0
 40
1.0
 40
1.0
 40
1.0
 40
1.0
 10
-2.9665
 20
11.3553
 30
0.0
 10
-2.9665
 20
11.3553
 30
0.0
 10
-2.9942
 20
12.6865
 30
0.0
 10
-2.9942
 20
12.6865
 30
0.0
  0
SPLINE
  5
FC
330
1F
100
AcDbEntity
  8
VRSTVA_1
100
AcDbSpline
210
0.0
220
0.0
230
1.0
 70
    24
 71
     3
 72
     8
 73
     4
 74
     0
 42
0.0000000001
 43
0.0000000001
 40
0.0
 40
0.0
 40
0.0
 40
0.0
 40
1.0
 40
1.0
 40
1.0
 40
1.0
 10
-2.3817
 20
12.6865
 30
0.0
 10
-2.3817
 20
12.6865
 30
0.0
 10
-2.3817
 20
11.3553
 30
0.0
 10
-2.3817
 20
11.3553
 30
0.0
  0
SPLINE
  5
FD
330
1F
100
AcDbEntity
  8
VRSTVA_1
100
AcDbSpline
210
0.0
220
0.0
230
1.0
 70
    24
 71
     3
 72
     8
 73
     4
 74
     0
 42
0.0000000001
 43
0.0000000001
 40
0.0
 40
0.0
 40
0.0
 40
0.0
 40
1.0
 40
1.0
 40
1.0
 40
1.0
 10
-1.5258
 20
12.6865
 30
0.0
 10
-1.5258
 20
12.6865
 30
0.0
 10
-1.5258
 20
11.3553
 30
0.0
 10
-1.5258
 20
11.3553
 30
0.0
  0
SPLINE
  5
FE
330
1F
100
AcDbEntity
  8
VRSTVA_1
100
AcDbSpline
210
0.0
220
0.0
230
1.0
 70
    24
 71
     3
 72
     8
 73
     4
 74
     0
 42
0.0000000001
 43
0.0000000001
 40
0.0
 40
0.0
 40
0.0
 40
0.0
 40
1.0
 40
1.0
 40
1.0
 40
1.0
 10
-0.9054
 20
11.3553
 30
0.0
 10
-0.9054
 20
11.3553
 30
0.0
 10
-0.8721
 20
12.6865
 30
0.0
 10
-0.8721
 20
12.6865
 30
0.0
  0
SPLINE
  5
FF
330
1F
100
AcDbEntity
  8
VRSTVA_1
100
AcDbSpline
210
0.0
220
0.0
230
1.0
 70
    24
 71
     3
 72
     8
 73
     4
 74
     0
 42
0.0000000001
 43
0.0000000001
 40
0.0
 40
0.0
 40
0.0
 40
0.0
 40
1.0
 40
1.0
 40
1.0
 40
1.0
 10
1.0286
 20
12.6865
 30
0.0
 10
1.0286
 20
12.6865
 30
0.0
 10
1.0869
 20
11.3553
 30
0.0
 10
1.0869
 20
11.3553
 30
0.0
  0
SPLINE
  5
100
330
1F
100
AcDbEntity
  8
VRSTVA_1
100
AcDbSpline
210
0.0
220
0.0
230
1.0
 70
    24
 71
     3
 72
     8
 73
     4
 74
     0
 42
0.0000000001
 43
0.0000000001
 40
0.0
 40
0.0
 40
0.0
 40
0.0
 40
1.0
 40
1.0
 40
1.0
 40
1.0
 10
4.2561
 20
12.6865
 30
0.0
 10
4.2561
 20
12.6865
 30
0.0
 10
4.1978
 20
11.3553
 30
0.0
 10
4.1978
 20
11.3553
 30
0.0
  0
SPLINE
  5
101
330
1F
100
AcDbEntity
  8
VRSTVA_1
100
AcDbSpline
210
0.0
220
0.0
230
1.0
 70
    24
 71
     3
 72
     8
 73
     4
 74
     0
 42
0.0000000001
 43
0.0000000001
 40
0.0
 40
0.0
 40
0.0
 40
0.0
 40
1.0
 40
1.0
 40
1.0
 40
1.0
 10
4.9973
 20
12.6865
 30
0.0
 10
4.9973
 20
12.6865
 30
0.0
 10
4.939
 20
11.3553
 30
0.0
 10
4.939
 20
11.3553
 30
0.0
  0
SPLINE
  5
102
330
1F
100
AcDbEntity
  8
VRSTVA_1
100
AcDbSpline
210
0.0
220
0.0
230
1.0
 70
    24
 71
     3
 72
     8
 73
     4
 74
     0
 42
0.0000000001
 43
0.0000000001
 40
0.0
 40
0.0
 40
0.0
 40
0.0
 40
1.0
 40
1.0
 40
1.0
 40
1.0
 10
5.5428
 20
11.3553
 30
0.0
 10
5.5428
 20
11.3553
 30
0.0
 10
5.5632
 20
12.6865
 30
0.0
 10
5.5632
 20
12.6865
 30
0.0
  0
SPLINE
  5
103
330
1F
100
AcDbEntity
  8
VRSTVA_1
100
AcDbSpline
210
0.0
220
0.0
230
1.0
 70
    24
 71
     3
 72
     8
 73
     4
 74
     0
 42
0.0000000001
 43
0.0000000001
 40
0.0
 40
0.0
 40
0.0
 40
0.0
 40
1.0
 40
1.0
 40
1.0
 40
1.0
 10
6.1233
 20
12.6865
 30
0.0
 10
6.1233
 20
12.6865
 30
0.0
 10
6.2243
 20
11.3553
 30
0.0
 10
6.2243
 20
11.3553
 30
0.0
  0
SPLINE
  5
104
330
1F
100
AcDbEntity
  8
VRSTVA_1
100
AcDbSpline
210
0.0
220
0.0
230
1.0
 70
    24
 71
     3
 72
     8
 73
     4
 74
     0
 42
0.0000000001
 43
0.0000000001
 40
0.0
 40
0.0
 40
0.0
 40
0.0
 40
1.0
 40
1.0
 40
1.0
 40
1.0
 10
8.1022
 20
10.0716
 30
0.0
 10
8.1022
 20
10.0716
 30
0.0
 10
8.1022
 20
3.2249
 30
0.0
 10
8.1022
 20
3.2249
 30
0.0
  0
SPLINE
  5
105
330
1F
100
AcDbEntity
  8
VRSTVA_1
100
AcDbSpline
210
0.0
220
0.0
230
1.0
 70
    24
 71
     3
 72
     8
 73
     4
 74
     0
 42
0.0000000001
 43
0.0000000001
 40
0.0
 40
0.0
 40
0.0
 40
0.0
 40
1.0
 40
1.0
 40
1.0
 40
1.0
 10
9.2299
 20
12.6865
 30
0.0
 10
9.2299
 20
12.6865
 30
0.0
 10
9.129
 20
11.3553
 30
0.0
 10
9.129
 20
11.3553
 30
0.0
  0
SPLINE
  5
106
330
1F
100
AcDbEntity
  8
VRSTVA_1
100
AcDbSpline
210
0.0
220
0.0
230
1.0
 70
    24
 71
     3
 72
     8
 73
     4
 74
     0
 42
0.0000000001
 43
0.0000000001
 40
0.0
 40
0.0
 40
0.0
 40
0.0
 40
1.0
 40
1.0
 40
1.0
 40
1.0
 10
9.6579
 20
12.6865
 30
0.0
 10
9.6579
 20
12.6865
 30
0.0
 10
9.5569
 20
11.3553
 30
0.0
 10
9.5569
 20
11.3553
 30
0.0
  0
SPLINE
  5
107
330
1F
100
AcDbEntity
  8
VRSTVA_1
100
AcDbSpline
210
0.0
220
0.0
230
1.0
 70
    24
 71
     3
 72
     8
 73
     4
 74
     0
 42
0.0000000001
 43
0.0000000001
 40
0.0
 40
0.0
 40
0.0
 40
0.0
 40
1.0
 40
1.0
 40
1.0
 40
1.0
 10
11.2071
 20
12.6865
 30
0.0
 10
11.2071
 20
12.6865
 30
0.0
 10
11.0906
 20
11.3553
 30
0.0
 10
11.0906
 20
11.3553
 30
0.0
  0
SPLINE
  5
108
330
1F
100
AcDbEntity
  8
VRSTVA_1
100
AcDbSpline
210
0.0
220
0.0
230
1.0
 70
    24
 71
     3
 72
     8
 73
     4
 74
     0
 42
0.0000000001
 43
0.0000000001
 40
0.0
 40
0.0
 40
0.0
 40
0.0
 40
1.0
 40
1.0
 40
1.0
 40
1.0
 10
11.2141
 20
12.6865
 30
0.0
 10
11.2141
 20
12.6865
 30
0.0
 10
11.0976
 20
11.3553
 30
0.0
 10
11.0976
 20
11.3553
 30
0.0
  0
SPLINE
  5
109
330
1F
100
AcDbEntity
  8
VRSTVA_1
100
AcDbSpline
210
0.0
220
0.0
230
1.0
 70
    24
 71
     3
 72
     8
 73
     4
 74
     0
 42
0.0000000001
 43
0.0000000001
 40
0.0
 40
0.0
 40
0.0
 40
0.0
 40
1.0
 40
1.0
 40
1.0
 40
1.0
 10
15.8047
 20
11.3553
 30
0.0
 10
15.8047
 20
11.3553
 30
0.0
 10
15.8047
 20
10.9274
 30
0.0
 10
15.8047
 20
10.9274
 30
0.0
  0
SPLINE
  5
10A
330
1F
100
AcDbEntity
  8
VRSTVA_1
100
AcDbSpline
210
0.0
220
0.0
230
1.0
 70
    24
 71
     3
 72
     8
 73
     4
 74
     0
 42
0.0000000001
 43
0.0000000001
 40
0.0
 40
0.0
 40
0.0
 40
0.0
 40
1.0
 40
1.0
 40
1.0
 40
1.0
 10
17.3288
 20
13.7424
 30
0.0
 10
17.3288
 20
13.7424
 30
0.0
 10
17.4212
 20
12.6865
 30
0.0
 10
17.4212
 20
12.6865
 30
0.0
  0
SPLINE
  5
10B
330
1F
100
AcDbEntity
  8
VRSTVA_1
100
AcDbSpline
210
0.0
220
0.0
230
1.0
 70
    24
 71
     3
 72
     8
 73
     4
 74
     0
 42
0.0000000001
 43
0.0000000001
 40
0.0
 40
0.0
 40
0.0
 40
0.0
 40
1.0
 40
1.0
 40
1.0
 40
1.0
 10
-6.1972
 20
3.2249
 30
0.0
 10
-6.1972
 20
3.2249
 30
0.0
 10
8.1459
 20
3.7227
 30
0.0
 10
8.1459
 20
3.7227
 30
0.0
  0
SPLINE
  5
10C
330
1F
100
AcDbEntity
  8
VRSTVA_1
100
AcDbSpline
210
0.0
220
0.0
230
1.0
 70
    24
 71
     3
 72
     8
 73
     4
 74
     0
 42
0.0000000001
 43
0.0000000001
 40
0.0
 40
0.0
 40
0.0
 40
0.0
 40
1.0
 40
1.0
 40
1.0
 40
1.0
 10
-12.0391
 20
9.4417
 30
0.0
 10
-12.0391
 20
9.4417
 30
0.0
 10
6.1114
 20
10.0716
 30
0.0
 10
6.1114
 20
10.0716
 30
0.0
  0
SPLINE
  5
10D
330
1F
100
AcDbEntity
  8
VRSTVA_1
100
AcDbSpline
210
0.0
220
0.0
230
1.0
 70
    24
 71
     3
 72
     8
 73
     4
 74
     0
 42
0.0000000001
 43
0.0000000001
 40
0.0
 40
0.0
 40
0.0
 40
0.0
 40
1.0
 40
1.0
 40
1.0
 40
1.0
 10
-12.0169
 20
8.8002
 30
0.0
 10
-12.0169
 20
8.8002
 30
0.0
 10
8.1236
 20
9.4992
 30
0.0
 10
8.1236
 20
9.4992
 30
0.0
  0
SPLINE
  5
10E
330
1F
100
AcDbEntity
  8
VRSTVA_1
100
AcDbSpline
210
0.0
220
0.0
230
1.0
 70
    24
 71
     3
 72
     8
 73
     4
 74
     0
 42
0.0000000001
 43
0.0000000001
 40
0.0
 40
0.0
 40
0.0
 40
0.0
 40
1.0
 40
1.0
 40
1.0
 40
1.0
 10
-12.0169
 20
8.1583
 30
0.0
 10
-12.0169
 20
8.1583
 30
0.0
 10
8.1236
 20
8.8572
 30
0.0
 10
8.1236
 20
8.8572
 30
0.0
  0
SPLINE
  5
10F
330
1F
100
AcDbEntity
  8
VRSTVA_1
100
AcDbSpline
210
0.0
220
0.0
230
1.0
 70
    24
 71
     3
 72
     8
 73
     4
 74
     0
 42
0.0000000001
 43
0.0000000001
 40
0.0
 40
0.0
 40
0.0
 40
0.0
 40
1.0
 40
1.0
 40
1.0
 40
1.0
 10
-12.0169
 20
7.5165
 30
0.0
 10
-12.0169
 20
7.5165
 30
0.0
 10
8.1236
 20
8.2154
 30
0.0
 10
8.1236
 20
8.2154
 30
0.0
  0
SPLINE
  5
110
330
1F
100
AcDbEntity
  8
VRSTVA_1
100
AcDbSpline
210
0.0
220
0.0
230
1.0
 70
    24
 71
     3
 72
     8
 73
     4
 74
     0
 42
0.0000000001
 43
0.0000000001
 40
0.0
 40
0.0
 40
0.0
 40
0.0
 40
1.0
 40
1.0
 40
1.0
 40
1.0
 10
-12.0169
 20
6.8746
 30
0.0
 10
-12.0169
 20
6.8746
 30
0.0
 10
8.1236
 20
7.5735
 30
0.0
 10
8.1236
 20
7.5735
 30
0.0
  0
SPLINE
  5
111
330
1F
100
AcDbEntity
  8
VRSTVA_1
100
AcDbSpline
210
0.0
220
0.0
230
1.0
 70
    24
 71
     3
 72
     8
 73
     4
 74
     0
 42
0.0000000001
 43
0.0000000001
 40
0.0
 40
0.0
 40
0.0
 40
0.0
 40
1.0
 40
1.0
 40
1.0
 40
1.0
 10
-12.0169
 20
6.2327
 30
0.0
 10
-12.0169
 20
6.2327
 30
0.0
 10
8.1236
 20
6.9316
 30
0.0
 10
8.1236
 20
6.9316
 30
0.0
  0
SPLINE
  5
112
330
1F
100
AcDbEntity
  8
VRSTVA_1
100
AcDbSpline
210
0.0
220
0.0
230
1.0
 70
    24
 71
     3
 72
     8
 73
     4
 74
     0
 42
0.0000000001
 43
0.0000000001
 40
0.0
 40
0.0
 40
0.0
 40
0.0
 40
1.0
 40
1.0
 40
1.0
 40
1.0
 10
-12.0169
 20
5.5908
 30
0.0
 10
-12.0169
 20
5.5908
 30
0.0
 10
8.1236
 20
6.2898
 30
0.0
 10
8.1236
 20
6.2898
 30
0.0
  0
SPLINE
  5
113
330
1F
100
AcDbEntity
  8
VRSTVA_1
100
AcDbSpline
210
0.0
220
0.0
230
1.0
 70
    24
 71
     3
 72
     8
 73
     4
 74
     0
 42
0.0000000001
 43
0.0000000001
 40
0.0
 40
0.0
 40
0.0
 40
0.0
 40
1.0
 40
1.0
 40
1.0
 40
1.0
 10
-12.0169
 20
4.949
 30
0.0
 10
-12.0169
 20
4.949
 30
0.0
 10
8.1236
 20
5.6479
 30
0.0
 10
8.1236
 20
5.6479
 30
0.0
  0
SPLINE
  5
114
330
1F
100
AcDbEntity
  8
VRSTVA_1
100
AcDbSpline
210
0.0
220
0.0
230
1.0
 70
    24
 71
     3
 72
     8
 73
     4
 74
     0
 42
0.0000000001
 43
0.0000000001
 40
0.0
 40
0.0
 40
0.0
 40
0.0
 40
1.0
 40
1.0
 40
1.0
 40
1.0
 10
-12.0169
 20
4.3071
 30
0.0
 10
-12.0169
 20
4.3071
 30
0.0
 10
8.1236
 20
5.006
 30
0.0
 10
8.1236
 20
5.006
 30
0.0
  0
SPLINE
  5
115
330
1F
100
AcDbEntity
  8
VRSTVA_1
100
AcDbSpline
210
0.0
220
0.0
230
1.0
 70
    24
 71
     3
 72
     8
 73
     4
 74
     0
 42
0.0000000001
 43
0.0000000001
 40
0.0
 40
0.0
 40
0.0
 40
0.0
 40
1.0
 40
1.0
 40
1.0
 40
1.0
 10
-12.0169
 20
3.6652
 30
0.0
 10
-12.0169
 20
3.6652
 30
0.0
 10
8.1236
 20
4.3642
 30
0.0
 10
8.1236
 20
4.3642
 30
0.0
  0
ENDSEC
  0
SECTION
  2
OBJECTS
  0
DICTIONARY
  5
C
330
0
100
AcDbDictionary
  3
ACAD_GROUP
350
D
  3
ACAD_LAYOUT
350
1A
  3
ACAD_MATERIAL
350
3B
  3
ACAD_MLEADERSTYLE
350
138
  3
ACAD_MLINESTYLE
350
17
  3
ACAD_PLOTSETTINGS
350
19
  3
ACAD_VISUALSTYLE
350
2A
  3
ACDBHEADERROUNDTRIPXREC
350
116
  3
ACDBVARIABLEDICTIONARY
350
136
  0
DICTIONARY
  5
D
102
{ACAD_REACTORS
330
C
102
}
330
C
100
AcDbDictionary
  0
DICTIONARY
  5
1A
102
{ACAD_REACTORS
330
C
102
}
330
C
100
AcDbDictionary
  0
DICTIONARY
  5
3B
102
{ACAD_REACTORS
330
C
102
}
330
C
100
AcDbDictionary
  3
BYBLOCK
350
3D
  3
BYLAYER
350
3C
  3
GLOBAL
350
3E
  0
DICTIONARY
  5
138
102
{ACAD_REACTORS
330
C
102
}
330
C
100
AcDbDictionary
  0
DICTIONARY
  5
17
102
{ACAD_REACTORS
330
C
102
}
330
C
100
AcDbDictionary
  3
STANDARD
350
18
  0
DICTIONARY
  5
19
102
{ACAD_REACTORS
330
C
102
}
330
C
100
AcDbDictionary
  0
DICTIONARY
  5
2A
102
{ACAD_REACTORS
330
C
102
}
330
C
100
AcDbDictionary
  3
2DWIREFRAME
350
2F
  3
3D_HIDDEN
350
31
  3
3DWIREFRAME
350
30
  3
BASIC
350
32
  3
BRIGHTEN
350
36
  3
COLORCHANGE
350
3A
  3
CONCEPTUAL
350
34
  3
DIM
350
35
  3
FACEPATTERN
350
39
  3
FLAT
350
2B
  3
FLATWITHEDGES
350
2C
  3
GOURAUD
350
2D
  3
GOURAUDWITHEDGES
350
2E
  3
LINEPATTERN
350
38
  3
REALISTIC
350
33
  3
THICKEN
350
37
  0
DICTIONARY
  5
116
102
{ACAD_REACTORS
330
C
102
}
330
C
100
AcDbDictionary
  3
CEPSNTYPE
350
11F
  3
DIMSTYLEDATA
350
135
  3
FINGERPRINTGUID
350
120
  3
HYPERLINKBASE
350
119
  3
INSUNITS
350
11E
  3
LAYOUTDICT
350
11B
  3
LWETCUNION
350
11D
  3
PLOTSETDICT
350
11C
  3
PSVPSCALE
350
122
  3
PUCSBASE
350
125
  3
PUCSORGBACK
350
12B
  3
PUCSORGBOTTOM
350
127
  3
PUCSORGFRONT
350
12A
  3
PUCSORGLEFT
350
128
  3
PUCSORGRIGHT
350
129
  3
PUCSORGTOP
350
126
  3
PUCSORTHOREF
350
123
  3
PUCSORTHOVIEW
350
124
  3
STYLESHEET
350
11A
  3
TSTACKALIGN
350
117
  3
TSTACKSIZE
350
118
  3
UCSBASE
350
12E
  3
UCSORGBACK
350
134
  3
UCSORGBOTTOM
350
130
  3
UCSORGFRONT
350
133
  3
UCSORGLEFT
350
131
  3
UCSORGRIGHT
350
132
  3
UCSORGTOP
350
12F
  3
UCSORTHOREF
350
12C
  3
UCSORTHOVIEW
350
12D
  3
VERSIONGUID
350
121
  0
DICTIONARY
  5
136
102
{ACAD_REACTORS
330
C
102
}
330
C
100
AcDbDictionary
  3
DIMASSOC
350
139
  3
HIDETEXT
350
13A
  0
MATERIAL
  5
3D
102
{ACAD_REACTORS
330
3B
102
}
102
{ACAD_XDICTIONARY
360
13D
102
}
330
3B
100
AcDbMaterial
  1
ByBlock
  0
MATERIAL
  5
3C
102
{ACAD_REACTORS
330
3B
102
}
102
{ACAD_XDICTIONARY
360
13B
102
}
330
3B
100
AcDbMaterial
  1
ByLayer
  0
MATERIAL
  5
3E
102
{ACAD_REACTORS
330
3B
102
}
102
{ACAD_XDICTIONARY
360
13F
102
}
330
3B
100
AcDbMaterial
  1
Global
  0
MLINESTYLE
  5
18
102
{ACAD_REACTORS
330
17
102
}
330
17
100
AcDbMlineStyle
  2
Standard
 70
     0
  3

 62
   256
 51
90.0
 52
90.0
 71
     2
 49
0.5
 62
   256
  6
BYLAYER
 49
-0.5
 62
   256
  6
BYLAYER
  0
ACAD_PROXY_OBJECT
  5
2F
102
{ACAD_REACTORS
330
2A
102
}
330
2A
100
AcDbProxyObject
 90
      499
 91
      501
 93
      436
310
42CC9915DA5C99599C985B595049028333333333333E3BF0000000000000FB0107901411070040501600405405064090741402480A0340
1001
ACAD
1000
AcDbSavedByObjectVersion
1070
     0
  0
ACAD_PROXY_OBJECT
  5
31
102
{ACAD_REACTORS
330
2A
102
}
330
2A
100
AcDbProxyObject
 90
      499
 91
      501
 93
      500
310
424CD108121A5919195B90640502408333333333333E3BF0000000000000FB01079024090700405020000000000001110200405405064090740C02480A0340
1001
ACAD
1000
AcDbSavedByObjectVersion
1070
     0
  0
ACAD_PROXY_OBJECT
  5
30
102
{ACAD_REACTORS
330
2A
102
}
330
2A
100
AcDbProxyObject
 90
      499
 91
      501
 93
      436
310
42CCD915DA5C99599C985B595059028333333333333E3BF0000000000000FB0107901411070040501600405405064090741402480A0340
1001
ACAD
1000
AcDbSavedByObjectVersion
1070
     0
  0
ACAD_PROXY_OBJECT
  5
32
102
{ACAD_REACTORS
330
2A
102
}
330
2A
100
AcDbProxyObject
 90
      499
 91
      501
 93
      388
310
4150985CDA58D07406404333333333333E3BF0000000000000FB0107A41107004050150841D405064090741402480A0350
1001
ACAD
1000
AcDbSavedByObjectVersion
1070
     0
  0
ACAD_PROXY_OBJECT
  5
36
102
{ACAD_REACTORS
330
2A
102
}
330
2A
100
AcDbProxyObject
 90
      499
 91
      501
 93
      428
310
42109C9A59DA1D195B90C409028333333333333E3BF0000000000000FB010790141107004050150841D405064090741402480A029950
1001
ACAD
1000
AcDbSavedByObjectVersion
1070
     0
  0
ACAD_PROXY_OBJECT
  5
3A
102
{ACAD_REACTORS
330
2A
102
}
330
2A
100
AcDbProxyObject
 90
      499
 91
      501
 93
      452
310
42D0DBDB1BDC90DA185B99D95104090240C333333333333E3BF0000000000000FB0108901411070040501508421405064090741402480A0350
1001
ACAD
1000
AcDbSavedByObjectVersion
1070
     0
  0
ACAD_PROXY_OBJECT
  5
34
102
{ACAD_REACTORS
330
2A
102
}
330
2A
100
AcDbProxyObject
 90
      499
 91
      501
 93
      500
310
4290DBDB98D95C1D1D585B10940D028333333333333E3BF0000000000000FB0107902409070040501000000000000111010841D405064090740C02480A0340
1001
ACAD
1000
AcDbSavedByObjectVersion
1070
     0
  0
ACAD_PROXY_OBJECT
  5
35
102
{ACAD_REACTORS
330
2A
102
}
330
2A
100
AcDbProxyObject
 90
      499
 91
      501
 93
      412
310
40D11A5B50B409028333333333333E3BF0000000000000FB010790141107004050150841D405064090741402480A02677FFFFFD0
1001
ACAD
1000
AcDbSavedByObjectVersion
1070
     0
  0
ACAD_PROXY_OBJECT
  5
39
102
{ACAD_REACTORS
330
2A
102
}
330
2A
100
AcDbProxyObject
 90
      499
 91
      501
 93
      444
310
42D19858D95C185D1D195C9B90F409028333333333333E3BF0000000000000FB010790141107004050150841D405064090741402480A0350
1001
ACAD
1000
AcDbSavedByObjectVersion
1070
     0
  0
ACAD_PROXY_OBJECT
  5
2B
102
{ACAD_REACTORS
330
2A
102
}
330
2A
100
AcDbProxyObject
 90
      499
 91
      501
 93
      388
310
41119B185D240901404333333333333E3BF0000000000000F9010740A41107004050150841D405064090741402480A1B50
1001
ACAD
1000
AcDbSavedByObjectVersion
1070
     0
  0
ACAD_PROXY_OBJECT
  5
2C
102
{ACAD_REACTORS
330
2A
102
}
330
2A
100
AcDbProxyObject
 90
      499
 91
      501
 93
      476
310
43519B185D15DA5D1A115919D95CD0140901404333333333333E3BF0000000000000F9010740901411070040501600405405064090741402480A1B50
1001
ACAD
1000
AcDbSavedByObjectVersion
1070
     0
  0
ACAD_PROXY_OBJECT
  5
2D
102
{ACAD_REACTORS
330
2A
102
}
330
2A
100
AcDbProxyObject
 90
      499
 91
      501
 93
      412
310
41D1DBDD5C985D5910240902404333333333333E3BF0000000000000F9010740A411070040501641D405064090741402480A1B50
1001
ACAD
1000
AcDbSavedByObjectVersion
1070
     0
  0
ACAD_PROXY_OBJECT
  5
2E
102
{ACAD_REACTORS
330
2A
102
}
330
2A
100
AcDbProxyObject
 90
      499
 91
      501
 93
      500
310
4411DBDD5C985D5915DA5D1A115919D95CD0340902404333333333333E3BF0000000000000F9010740901411070040501600405405064090741402480A1B50
1001
ACAD
1000
AcDbSavedByObjectVersion
1070
     0
  0
ACAD_PROXY_OBJECT
  5
38
102
{ACAD_REACTORS
330
2A
102
}
330
2A
100
AcDbProxyObject
 90
      499
 91
      501
 93
      444
310
42D31A5B995C185D1D195C9B90E409028333333333333E3BF0000000000000FB010790141107004050750841D405064090741402483A0350
1001
ACAD
1000
AcDbSavedByObjectVersion
1070
     0
  0
ACAD_PROXY_OBJECT
  5
33
102
{ACAD_REACTORS
330
2A
102
}
330
2A
100
AcDbProxyObject
 90
      499
 91
      501
 93
      420
310
425499585B1A5CDD1A58D08409028333333333333E3BF0000000000000FB01079019070040501508421405064090741402480A1B40
1001
ACAD
1000
AcDbSavedByObjectVersion
1070
     0
  0
ACAD_PROXY_OBJECT
  5
37
102
{ACAD_REACTORS
330
2A
102
}
330
2A
100
AcDbProxyObject
 90
      499
 91
      501
 93
      412
310
41D51A1A58DAD95B90D409028333333333333E3BF0000000000000FB010790141107004050150C41D405064090741402480A0350
1001
ACAD
1000
AcDbSavedByObjectVersion
1070
     0
  0
XRECORD
  5
11F
102
{ACAD_REACTORS
330
116
102
}
330
116
100
AcDbXrecord
 90
        0
  0
XRECORD
  5
135
102
{ACAD_REACTORS
330
116
102
}
330
116
100
AcDbXrecord
1000
DSTYLE
1002
{
1070
   340
340
11
1002
}
  0
XRECORD
  5
120
102
{ACAD_REACTORS
330
116
102
}
330
116
100
AcDbXrecord
  1
{751D15C3-C3F5-4032-A011-B10DB050277C}
  0
XRECORD
  5
119
102
{ACAD_REACTORS
330
116
102
}
330
116
100
AcDbXrecord
  1

  0
XRECORD
  5
11E
102
{ACAD_REACTORS
330
116
102
}
330
116
100
AcDbXrecord
 90
        4
  0
XRECORD
  5
11B
102
{ACAD_REACTORS
330
116
102
}
330
116
100
AcDbXrecord
340
1A
  0
XRECORD
  5
11D
102
{ACAD_REACTORS
330
116
102
}
330
116
100
AcDbXrecord
 90
    10781
  0
XRECORD
  5
11C
102
{ACAD_REACTORS
330
116
102
}
330
116
100
AcDbXrecord
340
19
  0
XRECORD
  5
122
102
{ACAD_REACTORS
330
116
102
}
330
116
100
AcDbXrecord
 40
0.0
  0
XRECORD
  5
125
102
{ACAD_REACTORS
330
116
102
}
330
116
100
AcDbXrecord
340
0
  0
XRECORD
  5
12B
102
{ACAD_REACTORS
330
116
102
}
330
116
100
AcDbXrecord
 10
0.0
 20
0.0
 30
0.0
  0
XRECORD
  5
127
102
{ACAD_REACTORS
330
116
102
}
330
116
100
AcDbXrecord
 10
0.0
 20
0.0
 30
0.0
  0
XRECORD
  5
12A
102
{ACAD_REACTORS
330
116
102
}
330
116
100
AcDbXrecord
 10
0.0
 20
0.0
 30
0.0
  0
XRECORD
  5
128
102
{ACAD_REACTORS
330
116
102
}
330
116
100
AcDbXrecord
 10
0.0
 20
0.0
 30
0.0
  0
XRECORD
  5
129
102
{ACAD_REACTORS
330
116
102
}
330
116
100
AcDbXrecord
 10
0.0
 20
0.0
 30
0.0
  0
XRECORD
  5
126
102
{ACAD_REACTORS
330
116
102
}
330
116
100
AcDbXrecord
 10
0.0
 20
0.0
 30
0.0
  0
XRECORD
  5
123
102
{ACAD_REACTORS
330
116
102
}
330
116
100
AcDbXrecord
340
0
  0
XRECORD
  5
124
102
{ACAD_REACTORS
330
116
102
}
330
116
100
AcDbXrecord
 70
     0
  0
XRECORD
  5
11A
102
{ACAD_REACTORS
330
116
102
}
330
116
100
AcDbXrecord
  1

  0
XRECORD
  5
117
102
{ACAD_REACTORS
330
116
102
}
330
116
100
AcDbXrecord
 90
        1
  0
XRECORD
  5
118
102
{ACAD_REACTORS
330
116
102
}
330
116
100
AcDbXrecord
 90
       70
  0
XRECORD
  5
12E
102
{ACAD_REACTORS
330
116
102
}
330
116
100
AcDbXrecord
340
0
  0
XRECORD
  5
134
102
{ACAD_REACTORS
330
116
102
}
330
116
100
AcDbXrecord
 10
0.0
 20
0.0
 30
0.0
  0
XRECORD
  5
130
102
{ACAD_REACTORS
330
116
102
}
330
116
100
AcDbXrecord
 10
0.0
 20
0.0
 30
0.0
  0
XRECORD
  5
133
102
{ACAD_REACTORS
330
116
102
}
330
116
100
AcDbXrecord
 10
0.0
 20
0.0
 30
0.0
  0
XRECORD
  5
131
102
{ACAD_REACTORS
330
116
102
}
330
116
100
AcDbXrecord
 10
0.0
 20
0.0
 30
0.0
  0
XRECORD
  5
132
102
{ACAD_REACTORS
330
116
102
}
330
116
100
AcDbXrecord
 10
0.0
 20
0.0
 30
0.0
  0
XRECORD
  5
12F
102
{ACAD_REACTORS
330
116
102
}
330
116
100
AcDbXrecord
 10
0.0
 20
0.0
 30
0.0
  0
XRECORD
  5
12C
102
{ACAD_REACTORS
330
116
102
}
330
116
100
AcDbXrecord
340
0
  0
XRECORD
  5
12D
102
{ACAD_REACTORS
330
116
102
}
330
116
100
AcDbXrecord
 70
     0
  0
XRECORD
  5
121
102
{ACAD_REACTORS
330
116
102
}
330
116
100
AcDbXrecord
  1
{FAEB1C32-E019-11D5-929B-00C0DF256EC4}
  0
DICTIONARYVAR
  5
139
102
{ACAD_REACTORS
330
136
102
}
330
136
100
DictionaryVariables
280
     0
  1
2
  0
DICTIONARYVAR
  5
13A
102
{ACAD_REACTORS
330
136
102
}
330
136
100
DictionaryVariables
280
     0
  1
1
  0
DICTIONARY
  5
13D
330
3D
100
AcDbDictionary
280
     1
  3
ACAD_XREC_ROUNDTRIP
360
13E
  0
DICTIONARY
  5
13B
330
3C
100
AcDbDictionary
280
     1
  3
ACAD_XREC_ROUNDTRIP
360
13C
  0
DICTIONARY
  5
13F
330
3E
100
AcDbDictionary
280
     1
  3
ACAD_XREC_ROUNDTRIP
360
140
  0
XRECORD
  5
13E
102
{ACAD_REACTORS
330
13D
102
}
330
13D
100
AcDbXrecord
102
MATERIAL
148
0.0
149
0.0
149
0.0
 93
        0
 94
      127
282
     0
 72
     1
 77
     1
171
     1
175
     1
179
     1
273
     0
  0
XRECORD
  5
13C
102
{ACAD_REACTORS
330
13B
102
}
330
13B
100
AcDbXrecord
102
MATERIAL
148
0.0
149
0.0
149
0.0
 93
        0
 94
      127
282
     0
 72
     1
 77
     1
171
     1
175
     1
179
     1
273
     0
  0
XRECORD
  5
140
102
{ACAD_REACTORS
330
13F
102
}
330
13F
100
AcDbXrecord
102
MATERIAL
148
0.0
149
0.0
149
0.0
 93
        0
 94
      127
282
     0
 72
     1
 77
     1
171
     1
175
     1
179
     1
273
     0
  0
ENDSEC
  0
EOF
