  0
SECTION
  2
HEADER
  9
$ACADVER
  1
AC1015
  9
$ACADMAINTVER
 70
     6
  9
$DWGCODEPAGE
  3
ANSI_1250
  9
$INSBASE
 10
0.0
 20
0.0
 30
0.0
  9
$EXTMIN
 10
-26.9127
 20
-12.0209
 30
0.0
  9
$EXTMAX
 10
26.9067
 20
12.0288
 30
0.0
  9
$LIMMIN
 10
0.0
 20
0.0
  9
$LIMMAX
 10
12.0
 20
9.0
  9
$ORTHOMODE
 70
     0
  9
$REGENMODE
 70
     1
  9
$FILLMODE
 70
     1
  9
$QTEXTMODE
 70
     0
  9
$MIRRTEXT
 70
     1
  9
$LTSCALE
 40
1.0
  9
$ATTMODE
 70
     1
  9
$TEXTSIZE
 40
0.2
  9
$TRACEWID
 40
0.05
  9
$TEXTSTYLE
  7
Standard
  9
$CLAYER
  8
0
  9
$CELTYPE
  6
ByLayer
  9
$CECOLOR
 62
   256
  9
$CELTSCALE
 40
1.0
  9
$DISPSILH
 70
     0
  9
$DIMSCALE
 40
1.0
  9
$DIMASZ
 40
0.18
  9
$DIMEXO
 40
0.0625
  9
$DIMDLI
 40
0.38
  9
$DIMRND
 40
0.0
  9
$DIMDLE
 40
0.0
  9
$DIMEXE
 40
0.18
  9
$DIMTP
 40
0.0
  9
$DIMTM
 40
0.0
  9
$DIMTXT
 40
0.18
  9
$DIMCEN
 40
0.09
  9
$DIMTSZ
 40
0.0
  9
$DIMTOL
 70
     0
  9
$DIMLIM
 70
     0
  9
$DIMTIH
 70
     1
  9
$DIMTOH
 70
     1
  9
$DIMSE1
 70
     0
  9
$DIMSE2
 70
     0
  9
$DIMTAD
 70
     0
  9
$DIMZIN
 70
     0
  9
$DIMBLK
  1

  9
$DIMASO
 70
     1
  9
$DIMSHO
 70
     1
  9
$DIMPOST
  1

  9
$DIMAPOST
  1

  9
$DIMALT
 70
     0
  9
$DIMALTD
 70
     2
  9
$DIMALTF
 40
25.4
  9
$DIMLFAC
 40
1.0
  9
$DIMTOFL
 70
     0
  9
$DIMTVP
 40
0.0
  9
$DIMTIX
 70
     0
  9
$DIMSOXD
 70
     0
  9
$DIMSAH
 70
     0
  9
$DIMBLK1
  1

  9
$DIMBLK2
  1

  9
$DIMSTYLE
  2
Standard
  9
$DIMCLRD
 70
     0
  9
$DIMCLRE
 70
     0
  9
$DIMCLRT
 70
     0
  9
$DIMTFAC
 40
1.0
  9
$DIMGAP
 40
0.09
  9
$DIMJUST
 70
     0
  9
$DIMSD1
 70
     0
  9
$DIMSD2
 70
     0
  9
$DIMTOLJ
 70
     1
  9
$DIMTZIN
 70
     0
  9
$DIMALTZ
 70
     0
  9
$DIMALTTZ
 70
     0
  9
$DIMUPT
 70
     0
  9
$DIMDEC
 70
     4
  9
$DIMTDEC
 70
     4
  9
$DIMALTU
 70
     2
  9
$DIMALTTD
 70
     2
  9
$DIMTXSTY
  7
Standard
  9
$DIMAUNIT
 70
     0
  9
$DIMADEC
 70
     0
  9
$DIMALTRND
 40
0.0
  9
$DIMAZIN
 70
     0
  9
$DIMDSEP
 70
    46
  9
$DIMATFIT
 70
     3
  9
$DIMFRAC
 70
     0
  9
$DIMLDRBLK
  1

  9
$DIMLUNIT
 70
     2
  9
$DIMLWD
 70
    -2
  9
$DIMLWE
 70
    -2
  9
$DIMTMOVE
 70
     0
  9
$LUNITS
 70
     2
  9
$LUPREC
 70
     4
  9
$SKETCHINC
 40
0.1
  9
$FILLETRAD
 40
0.5
  9
$AUNITS
 70
     0
  9
$AUPREC
 70
     0
  9
$MENU
  1
.
  9
$ELEVATION
 40
0.0
  9
$PELEVATION
 40
0.0
  9
$THICKNESS
 40
0.0
  9
$LIMCHECK
 70
     0
  9
$CHAMFERA
 40
0.5
  9
$CHAMFERB
 40
0.5
  9
$CHAMFERC
 40
1.0
  9
$CHAMFERD
 40
0.0
  9
$SKPOLY
 70
     0
  9
$TDCREATE
 40
2458023.424629132
  9
$TDUCREATE
 40
2458023.341295799
  9
$TDUPDATE
 40
2458023.424629143
  9
$TDUUPDATE
 40
2458023.34129581
  9
$TDINDWG
 40
0.0000000116
  9
$TDUSRTIMER
 40
0.0000000116
  9
$USRTIMER
 70
     1
  9
$ANGBASE
 50
0.0
  9
$ANGDIR
 70
     0
  9
$PDMODE
 70
     0
  9
$PDSIZE
 40
0.0
  9
$PLINEWID
 40
0.0
  9
$SPLFRAME
 70
     0
  9
$SPLINETYPE
 70
     6
  9
$SPLINESEGS
 70
     8
  9
$HANDSEED
  5
129
  9
$SURFTAB1
 70
     6
  9
$SURFTAB2
 70
     6
  9
$SURFTYPE
 70
     6
  9
$SURFU
 70
     6
  9
$SURFV
 70
     6
  9
$UCSBASE
  2

  9
$UCSNAME
  2

  9
$UCSORG
 10
0.0
 20
0.0
 30
0.0
  9
$UCSXDIR
 10
1.0
 20
0.0
 30
0.0
  9
$UCSYDIR
 10
0.0
 20
1.0
 30
0.0
  9
$UCSORTHOREF
  2

  9
$UCSORTHOVIEW
 70
     0
  9
$UCSORGTOP
 10
0.0
 20
0.0
 30
0.0
  9
$UCSORGBOTTOM
 10
0.0
 20
0.0
 30
0.0
  9
$UCSORGLEFT
 10
0.0
 20
0.0
 30
0.0
  9
$UCSORGRIGHT
 10
0.0
 20
0.0
 30
0.0
  9
$UCSORGFRONT
 10
0.0
 20
0.0
 30
0.0
  9
$UCSORGBACK
 10
0.0
 20
0.0
 30
0.0
  9
$PUCSBASE
  2

  9
$PUCSNAME
  2

  9
$PUCSORG
 10
0.0
 20
0.0
 30
0.0
  9
$PUCSXDIR
 10
1.0
 20
0.0
 30
0.0
  9
$PUCSYDIR
 10
0.0
 20
1.0
 30
0.0
  9
$PUCSORTHOREF
  2

  9
$PUCSORTHOVIEW
 70
     0
  9
$PUCSORGTOP
 10
0.0
 20
0.0
 30
0.0
  9
$PUCSORGBOTTOM
 10
0.0
 20
0.0
 30
0.0
  9
$PUCSORGLEFT
 10
0.0
 20
0.0
 30
0.0
  9
$PUCSORGRIGHT
 10
0.0
 20
0.0
 30
0.0
  9
$PUCSORGFRONT
 10
0.0
 20
0.0
 30
0.0
  9
$PUCSORGBACK
 10
0.0
 20
0.0
 30
0.0
  9
$USERI1
 70
     0
  9
$USERI2
 70
     0
  9
$USERI3
 70
     0
  9
$USERI4
 70
     0
  9
$USERI5
 70
     0
  9
$USERR1
 40
0.0
  9
$USERR2
 40
0.0
  9
$USERR3
 40
0.0
  9
$USERR4
 40
0.0
  9
$USERR5
 40
0.0
  9
$WORLDVIEW
 70
     1
  9
$SHADEDGE
 70
     3
  9
$SHADEDIF
 70
    70
  9
$TILEMODE
 70
     1
  9
$MAXACTVP
 70
    64
  9
$PINSBASE
 10
0.0
 20
0.0
 30
0.0
  9
$PLIMCHECK
 70
     0
  9
$PEXTMIN
 10
1.000000000000000E+20
 20
1.000000000000000E+20
 30
1.000000000000000E+20
  9
$PEXTMAX
 10
-1.000000000000000E+20
 20
-1.000000000000000E+20
 30
-1.000000000000000E+20
  9
$PLIMMIN
 10
0.0
 20
0.0
  9
$PLIMMAX
 10
12.0
 20
9.0
  9
$UNITMODE
 70
     0
  9
$VISRETAIN
 70
     1
  9
$PLINEGEN
 70
     0
  9
$PSLTSCALE
 70
     1
  9
$TREEDEPTH
 70
  3020
  9
$CMLSTYLE
  2
Standard
  9
$CMLJUST
 70
     0
  9
$CMLSCALE
 40
1.0
  9
$PROXYGRAPHICS
 70
     1
  9
$MEASUREMENT
 70
     0
  9
$CELWEIGHT
370
    -1
  9
$ENDCAPS
280
     0
  9
$JOINSTYLE
280
     0
  9
$LWDISPLAY
290
     0
  9
$INSUNITS
 70
     4
  9
$HYPERLINKBASE
  1

  9
$STYLESHEET
  1

  9
$XEDIT
290
     1
  9
$CEPSNTYPE
380
     0
  9
$PSTYLEMODE
290
     1
  9
$FINGERPRINTGUID
  2
{427FE739-856C-410E-A2DD-CD1C9F84DB40}
  9
$VERSIONGUID
  2
{FAEB1C32-E019-11D5-929B-00C0DF256EC4}
  9
$EXTNAMES
290
     1
  9
$PSVPSCALE
 40
0.0
  9
$OLESTARTUP
290
     0
  0
ENDSEC
  0
SECTION
  2
CLASSES
  0
CLASS
  1
ACDBDICTIONARYWDFLT
  2
AcDbDictionaryWithDefault
  3
ObjectDBX Classes
 90
        0
280
     0
281
     0
  0
CLASS
  1
VISUALSTYLE
  2
AcDbVisualStyle
  3
ObjectDBX Classes
 90
     4095
280
     0
281
     0
  0
CLASS
  1
MATERIAL
  2
AcDbMaterial
  3
ObjectDBX Classes
 90
     1153
280
     0
281
     0
  0
CLASS
  1
DICTIONARYVAR
  2
AcDbDictionaryVar
  3
ObjectDBX Classes
 90
        0
280
     0
281
     0
  0
CLASS
  1
ACDBPLACEHOLDER
  2
AcDbPlaceHolder
  3
ObjectDBX Classes
 90
        0
280
     0
281
     0
  0
CLASS
  1
LAYOUT
  2
AcDbLayout
  3
ObjectDBX Classes
 90
        0
280
     0
281
     0
  0
ENDSEC
  0
SECTION
  2
TABLES
  0
TABLE
  2
VPORT
  5
8
330
0
100
AcDbSymbolTable
 70
     1
  0
VPORT
  5
29
330
8
100
AcDbSymbolTableRecord
100
AcDbViewportTableRecord
  2
*Active
 70
     0
 10
0.0
 20
0.0
 11
1.0
 21
1.0
 12
10.42990654205607
 22
4.5
 13
0.0
 23
0.0
 14
0.5
 24
0.5
 15
0.5
 25
0.5
 16
0.0
 26
0.0
 36
1.0
 17
0.0
 27
0.0
 37
0.0
 40
9.0
 41
1.972972972850329
 42
50.0
 43
0.0
 44
0.0
 50
0.0
 51
0.0
 71
     0
 72
   100
 73
     1
 74
     3
 75
     0
 76
     0
 77
     0
 78
     0
281
     0
 65
     1
110
0.0
120
0.0
130
0.0
111
1.0
121
0.0
131
0.0
112
0.0
122
1.0
132
0.0
 79
     0
146
0.0
  0
ENDTAB
  0
TABLE
  2
LTYPE
  5
5
330
0
100
AcDbSymbolTable
 70
     9
  0
LTYPE
  5
14
330
5
100
AcDbSymbolTableRecord
100
AcDbLinetypeTableRecord
  2
ByBlock
 70
     0
  3

 72
    65
 73
     0
 40
0.0
  0
LTYPE
  5
15
330
5
100
AcDbSymbolTableRecord
100
AcDbLinetypeTableRecord
  2
ByLayer
 70
     0
  3

 72
    65
 73
     0
 40
0.0
  0
LTYPE
  5
16
330
5
100
AcDbSymbolTableRecord
100
AcDbLinetypeTableRecord
  2
Continuous
 70
     0
  3
Solid line
 72
    65
 73
     0
 40
0.0
  0
LTYPE
  5
C2
330
5
100
AcDbSymbolTableRecord
100
AcDbLinetypeTableRecord
  2
New Line1
 70
     0
  3

 72
    65
 73
     4
 40
1.2
 49
0.5
 74
     4
 75
     0
340
0
 46
1.0
 50
0.0
 44
0.0
 45
0.0
 49
-0.3
 74
     4
 75
     0
340
0
 46
1.0
 50
0.0
 44
0.0
 45
0.0
 49
0.1
 74
     4
 75
     0
340
0
 46
1.0
 50
0.0
 44
0.0
 45
0.0
 49
-0.3
 74
     4
 75
     0
340
0
 46
1.0
 50
0.0
 44
0.0
 45
0.0
  0
LTYPE
  5
D8
330
5
100
AcDbSymbolTableRecord
100
AcDbLinetypeTableRecord
  2
New Line2
 70
     0
  3

 72
    65
 73
     4
 40
1.2
 49
0.5
 74
     4
 75
     0
340
0
 46
1.0
 50
0.0
 44
0.0
 45
0.0
 49
-0.3
 74
     4
 75
     0
340
0
 46
1.0
 50
0.0
 44
0.0
 45
0.0
 49
0.1
 74
     4
 75
     0
340
0
 46
1.0
 50
0.0
 44
0.0
 45
0.0
 49
-0.3
 74
     4
 75
     0
340
0
 46
1.0
 50
0.0
 44
0.0
 45
0.0
  0
LTYPE
  5
E1
330
5
100
AcDbSymbolTableRecord
100
AcDbLinetypeTableRecord
  2
New Line3
 70
     0
  3

 72
    65
 73
     4
 40
1.2
 49
0.5
 74
     4
 75
     0
340
0
 46
1.0
 50
0.0
 44
0.0
 45
0.0
 49
-0.3
 74
     4
 75
     0
340
0
 46
1.0
 50
0.0
 44
0.0
 45
0.0
 49
0.1
 74
     4
 75
     0
340
0
 46
1.0
 50
0.0
 44
0.0
 45
0.0
 49
-0.3
 74
     4
 75
     0
340
0
 46
1.0
 50
0.0
 44
0.0
 45
0.0
  0
LTYPE
  5
E3
330
5
100
AcDbSymbolTableRecord
100
AcDbLinetypeTableRecord
  2
New Line4
 70
     0
  3

 72
    65
 73
     4
 40
1.2
 49
0.5
 74
     4
 75
     0
340
0
 46
1.0
 50
0.0
 44
0.0
 45
0.0
 49
-0.3
 74
     4
 75
     0
340
0
 46
1.0
 50
0.0
 44
0.0
 45
0.0
 49
0.1
 74
     4
 75
     0
340
0
 46
1.0
 50
0.0
 44
0.0
 45
0.0
 49
-0.3
 74
     4
 75
     0
340
0
 46
1.0
 50
0.0
 44
0.0
 45
0.0
  0
LTYPE
  5
E5
330
5
100
AcDbSymbolTableRecord
100
AcDbLinetypeTableRecord
  2
New Line5
 70
     0
  3

 72
    65
 73
     4
 40
1.2
 49
0.5
 74
     4
 75
     0
340
0
 46
1.0
 50
0.0
 44
0.0
 45
0.0
 49
-0.3
 74
     4
 75
     0
340
0
 46
1.0
 50
0.0
 44
0.0
 45
0.0
 49
0.1
 74
     4
 75
     0
340
0
 46
1.0
 50
0.0
 44
0.0
 45
0.0
 49
-0.3
 74
     4
 75
     0
340
0
 46
1.0
 50
0.0
 44
0.0
 45
0.0
  0
LTYPE
  5
E7
330
5
100
AcDbSymbolTableRecord
100
AcDbLinetypeTableRecord
  2
New Line6
 70
     0
  3

 72
    65
 73
     4
 40
1.2
 49
0.5
 74
     4
 75
     0
340
0
 46
1.0
 50
0.0
 44
0.0
 45
0.0
 49
-0.3
 74
     4
 75
     0
340
0
 46
1.0
 50
0.0
 44
0.0
 45
0.0
 49
0.1
 74
     4
 75
     0
340
0
 46
1.0
 50
0.0
 44
0.0
 45
0.0
 49
-0.3
 74
     4
 75
     0
340
0
 46
1.0
 50
0.0
 44
0.0
 45
0.0
  0
LTYPE
  5
E9
330
5
100
AcDbSymbolTableRecord
100
AcDbLinetypeTableRecord
  2
New Line7
 70
     0
  3

 72
    65
 73
     4
 40
1.2
 49
0.5
 74
     4
 75
     0
340
0
 46
1.0
 50
0.0
 44
0.0
 45
0.0
 49
-0.3
 74
     4
 75
     0
340
0
 46
1.0
 50
0.0
 44
0.0
 45
0.0
 49
0.1
 74
     4
 75
     0
340
0
 46
1.0
 50
0.0
 44
0.0
 45
0.0
 49
-0.3
 74
     4
 75
     0
340
0
 46
1.0
 50
0.0
 44
0.0
 45
0.0
  0
LTYPE
  5
EB
330
5
100
AcDbSymbolTableRecord
100
AcDbLinetypeTableRecord
  2
New Line8
 70
     0
  3

 72
    65
 73
     4
 40
1.2
 49
0.5
 74
     4
 75
     0
340
0
 46
1.0
 50
0.0
 44
0.0
 45
0.0
 49
-0.3
 74
     4
 75
     0
340
0
 46
1.0
 50
0.0
 44
0.0
 45
0.0
 49
0.1
 74
     4
 75
     0
340
0
 46
1.0
 50
0.0
 44
0.0
 45
0.0
 49
-0.3
 74
     4
 75
     0
340
0
 46
1.0
 50
0.0
 44
0.0
 45
0.0
  0
ENDTAB
  0
TABLE
  2
LAYER
  5
2
330
0
100
AcDbSymbolTable
 70
     2
  0
LAYER
  5
10
330
2
100
AcDbSymbolTableRecord
100
AcDbLayerTableRecord
  2
0
 70
     0
 62
     7
  6
Continuous
370
    -3
390
F
  0
LAYER
  5
40
330
2
100
AcDbSymbolTableRecord
100
AcDbLayerTableRecord
  2
ROUND
 70
     0
 62
     7
  6
Continuous
370
    -3
390
F
  0
ENDTAB
  0
TABLE
  2
STYLE
  5
3
330
0
100
AcDbSymbolTable
 70
     1
  0
STYLE
  5
11
330
3
100
AcDbSymbolTableRecord
100
AcDbTextStyleTableRecord
  2
Standard
 70
     0
 40
0.0
 41
1.0
 50
0.0
 71
     0
 42
0.2
  3
txt
  4

  0
ENDTAB
  0
TABLE
  2
VIEW
  5
6
330
0
100
AcDbSymbolTable
 70
     0
  0
ENDTAB
  0
TABLE
  2
UCS
  5
7
330
0
100
AcDbSymbolTable
 70
     0
  0
ENDTAB
  0
TABLE
  2
APPID
  5
9
330
0
100
AcDbSymbolTable
 70
     2
  0
APPID
  5
12
330
9
100
AcDbSymbolTableRecord
100
AcDbRegAppTableRecord
  2
ACAD
 70
     0
  0
APPID
  5
3F
330
9
100
AcDbSymbolTableRecord
100
AcDbRegAppTableRecord
  2
ODA
 70
     0
  0
ENDTAB
  0
TABLE
  2
DIMSTYLE
  5
A
330
0
100
AcDbSymbolTable
 70
     1
100
AcDbDimStyleTable
  0
DIMSTYLE
105
27
330
A
100
AcDbSymbolTableRecord
100
AcDbDimStyleTableRecord
  2
Standard
 70
     0
340
11
  0
ENDTAB
  0
TABLE
  2
BLOCK_RECORD
  5
1
330
0
100
AcDbSymbolTable
 70
     1
  0
BLOCK_RECORD
  5
1F
330
1
100
AcDbSymbolTableRecord
100
AcDbBlockTableRecord
  2
*Model_Space
340
22
  0
BLOCK_RECORD
  5
1B
330
1
100
AcDbSymbolTableRecord
100
AcDbBlockTableRecord
  2
*Paper_Space
340
1E
  0
BLOCK_RECORD
  5
23
330
1
100
AcDbSymbolTableRecord
100
AcDbBlockTableRecord
  2
*Paper_Space0
340
26
  0
ENDTAB
  0
ENDSEC
  0
SECTION
  2
BLOCKS
  0
BLOCK
  5
20
330
1F
100
AcDbEntity
  8
0
100
AcDbBlockBegin
  2
*Model_Space
 70
     0
 10
0.0
 20
0.0
 30
0.0
  3
*Model_Space
  1

  0
ENDBLK
  5
21
330
1F
100
AcDbEntity
  8
0
100
AcDbBlockEnd
  0
BLOCK
  5
1C
330
1B
100
AcDbEntity
 67
     1
  8
0
100
AcDbBlockBegin
  2
*Paper_Space
 70
     0
 10
0.0
 20
0.0
 30
0.0
  3
*Paper_Space
  1

  0
ENDBLK
  5
1D
330
1B
100
AcDbEntity
 67
     1
  8
0
100
AcDbBlockEnd
  0
BLOCK
  5
24
330
23
100
AcDbEntity
  8
0
100
AcDbBlockBegin
  2
*Paper_Space0
 70
     0
 10
0.0
 20
0.0
 30
0.0
  3
*Paper_Space0
  1

  0
ENDBLK
  5
25
330
23
100
AcDbEntity
  8
0
100
AcDbBlockEnd
  0
ENDSEC
  0
SECTION
  2
ENTITIES
  0
SPLINE
  5
41
330
1F
100
AcDbEntity
  8
ROUND
 62
   250
370
    30
100
AcDbSpline
210
0.0
220
0.0
230
1.0
 70
    24
 71
     3
 72
     8
 73
     4
 74
     0
 42
0.0000000001
 43
0.0000000001
 40
0.0
 40
0.0
 40
0.0
 40
0.0
 40
1.0
 40
1.0
 40
1.0
 40
1.0
 10
-25.6045
 20
5.7695
 30
0.0
 10
-25.6045
 20
5.7695
 30
0.0
 10
-25.8923
 20
9.0593
 30
0.0
 10
-25.8923
 20
9.0593
 30
0.0
  0
SPLINE
  5
42
330
1F
100
AcDbEntity
  8
ROUND
 62
   250
370
    30
100
AcDbSpline
210
0.0
220
0.0
230
1.0
 70
    24
 71
     3
 72
     8
 73
     4
 74
     0
 42
0.0000000001
 43
0.0000000001
 40
0.0
 40
0.0
 40
0.0
 40
0.0
 40
1.0
 40
1.0
 40
1.0
 40
1.0
 10
-25.6185
 20
5.9299
 30
0.0
 10
-25.6185
 20
5.9299
 30
0.0
 10
-25.0908
 20
-0.1003
 30
0.0
 10
-25.0908
 20
-0.1003
 30
0.0
  0
SPLINE
  5
43
330
1F
100
AcDbEntity
  8
ROUND
 62
   250
370
    30
100
AcDbSpline
210
0.0
220
0.0
230
1.0
 70
    24
 71
     3
 72
     8
 73
     4
 74
     0
 42
0.0000000001
 43
0.0000000001
 40
0.0
 40
0.0
 40
0.0
 40
0.0
 40
1.0
 40
1.0
 40
1.0
 40
1.0
 10
-1.5815
 20
3.2032
 30
0.0
 10
-1.5815
 20
3.2032
 30
0.0
 10
-1.5815
 20
5.3411
 30
0.0
 10
-1.5815
 20
5.3411
 30
0.0
  0
SPLINE
  5
44
330
1F
100
AcDbEntity
  8
ROUND
 62
   250
370
    30
100
AcDbSpline
210
0.0
220
0.0
230
1.0
 70
    24
 71
     3
 72
     8
 73
     4
 74
     0
 42
0.0000000001
 43
0.0000000001
 40
0.0
 40
0.0
 40
0.0
 40
0.0
 40
1.0
 40
1.0
 40
1.0
 40
1.0
 10
0.9929
 20
5.5663
 30
0.0
 10
0.9929
 20
5.5663
 30
0.0
 10
-2.315
 20
5.2768
 30
0.0
 10
-2.315
 20
5.2768
 30
0.0
  0
SPLINE
  5
45
330
1F
100
AcDbEntity
  8
ROUND
 62
   250
370
    30
100
AcDbSpline
210
0.0
220
0.0
230
1.0
 70
    24
 71
     3
 72
     8
 73
     4
 74
     0
 42
0.0000000001
 43
0.0000000001
 40
0.0
 40
0.0
 40
0.0
 40
0.0
 40
1.0
 40
1.0
 40
1.0
 40
1.0
 10
-14.8638
 20
1.5948
 30
0.0
 10
-14.8638
 20
1.5948
 30
0.0
 10
-15.5261
 20
9.1658
 30
0.0
 10
-15.5261
 20
9.1658
 30
0.0
  0
SPLINE
  5
46
330
1F
100
AcDbEntity
  8
ROUND
 62
   250
370
    30
100
AcDbSpline
210
0.0
220
0.0
230
1.0
 70
     8
 71
     3
 72
    20
 73
    16
 74
     0
 42
0.0000000001
 43
0.0000000001
 40
0.0
 40
0.0
 40
0.0
 40
0.0
 40
0.2
 40
0.2
 40
0.2
 40
0.2
 40
0.4
 40
0.4
 40
0.4
 40
0.4
 40
0.6
 40
0.6
 40
0.6
 40
0.6
 40
1.0
 40
1.0
 40
1.0
 40
1.0
 10
-16.2479
 20
10.0563
 30
0.0
 10
-16.2479
 20
10.0563
 30
0.0
 10
-16.6264
 20
10.0231
 30
0.0
 10
-16.6264
 20
10.0231
 30
0.0
 10
-16.6264
 20
10.0231
 30
0.0
 10
-16.6264
 20
10.0231
 30
0.0
 10
-24.9592
 20
9.2941
 30
0.0
 10
-24.9592
 20
9.2941
 30
0.0
 10
-24.9592
 20
9.2941
 30
0.0
 10
-24.9592
 20
9.2941
 30
0.0
 10
-25.3377
 20
9.2611
 30
0.0
 10
-25.3377
 20
9.2611
 30
0.0
 10
-25.3377
 20
9.2611
 30
0.0
 10
-25.3377
 20
9.2611
 30
0.0
 10
-25.8923
 20
9.0593
 30
0.0
 10
-25.8923
 20
9.0593
 30
0.0
  0
SPLINE
  5
47
330
1F
100
AcDbEntity
  8
ROUND
 62
   250
370
    30
100
AcDbSpline
210
0.0
220
0.0
230
1.0
 70
     8
 71
     3
 72
     8
 73
     4
 74
     0
 42
0.0000000001
 43
0.0000000001
 40
0.0
 40
0.0
 40
0.0
 40
0.0
 40
1.0
 40
1.0
 40
1.0
 40
1.0
 10
-15.4199
 20
0.5925
 30
0.0
 10
-18.4499
 20
0.3273
 30
0.0
 10
-21.4798
 20
0.0623
 30
0.0
 10
-24.5097
 20
-0.2028
 30
0.0
  0
SPLINE
  5
48
330
1F
100
AcDbEntity
  8
ROUND
 62
   250
370
    30
100
AcDbSpline
210
0.0
220
0.0
230
1.0
 70
    24
 71
     3
 72
     8
 73
     4
 74
     0
 42
0.0000000001
 43
0.0000000001
 40
0.0
 40
0.0
 40
0.0
 40
0.0
 40
1.0
 40
1.0
 40
1.0
 40
1.0
 10
-24.5097
 20
-0.2028
 30
0.0
 10
-24.5097
 20
-0.2028
 30
0.0
 10
-25.0908
 20
-0.1003
 30
0.0
 10
-25.0908
 20
-0.1003
 30
0.0
  0
SPLINE
  5
49
330
1F
100
AcDbEntity
  8
ROUND
 62
   250
370
    30
100
AcDbSpline
210
0.0
220
0.0
230
1.0
 70
     8
 71
     3
 72
    12
 73
     8
 74
     0
 42
0.0000000001
 43
0.0000000001
 40
0.0
 40
0.0
 40
0.0
 40
0.0
 40
0.3333333333333333
 40
0.3333333333333333
 40
0.3333333333333333
 40
0.3333333333333333
 40
1.0
 40
1.0
 40
1.0
 40
1.0
 10
-15.5261
 20
9.1658
 30
0.0
 10
-15.5261
 20
9.1658
 30
0.0
 10
-15.1476
 20
9.199
 30
0.0
 10
-15.1476
 20
9.199
 30
0.0
 10
-15.1476
 20
9.199
 30
0.0
 10
-15.1476
 20
9.199
 30
0.0
 10
1.5087
 20
10.6562
 30
0.0
 10
1.5087
 20
10.6562
 30
0.0
  0
SPLINE
  5
4A
330
1F
100
AcDbEntity
  8
ROUND
 62
   250
370
    30
100
AcDbSpline
210
0.0
220
0.0
230
1.0
 70
     8
 71
     3
 72
    24
 73
    20
 74
     0
 42
0.0000000001
 43
0.0000000001
 40
0.0
 40
0.0
 40
0.0
 40
0.0
 40
0.1666666666666667
 40
0.1666666666666667
 40
0.1666666666666667
 40
0.1666666666666667
 40
0.3333333333333333
 40
0.3333333333333333
 40
0.3333333333333333
 40
0.3333333333333333
 40
0.5
 40
0.5
 40
0.5
 40
0.5
 40
0.6666666666666666
 40
0.6666666666666666
 40
0.6666666666666666
 40
0.6666666666666666
 40
1.0
 40
1.0
 40
1.0
 40
1.0
 10
1.5087
 20
10.6562
 30
0.0
 10
2.028
 20
10.7016
 30
0.0
 10
2.5287
 20
10.7256
 30
0.0
 10
3.0418
 20
10.6117
 30
0.0
 10
3.0418
 20
10.6117
 30
0.0
 10
3.4218
 20
10.5273
 30
0.0
 10
3.7884
 20
10.3842
 30
0.0
 10
4.1249
 20
10.1887
 30
0.0
 10
4.1249
 20
10.1887
 30
0.0
 10
4.3942
 20
10.0326
 30
0.0
 10
4.6441
 20
9.8431
 30
0.0
 10
4.8673
 20
9.6259
 30
0.0
 10
4.8673
 20
9.6259
 30
0.0
 10
5.4266
 20
9.0817
 30
0.0
 10
5.8093
 20
8.3672
 30
0.0
 10
5.9523
 20
7.6
 30
0.0
 10
5.9523
 20
7.6
 30
0.0
 10
6.0189
 20
7.2425
 30
0.0
 10
6.0185
 20
6.8862
 30
0.0
 10
6.0185
 20
6.5238
 30
0.0
  0
SPLINE
  5
4B
330
1F
100
AcDbEntity
  8
ROUND
 62
   250
370
    30
100
AcDbSpline
210
0.0
220
0.0
230
1.0
 70
    24
 71
     3
 72
    12
 73
     8
 74
     0
 42
0.0000000001
 43
0.0000000001
 40
0.0
 40
0.0
 40
0.0
 40
0.0
 40
0.3333333333333333
 40
0.3333333333333333
 40
0.3333333333333333
 40
0.3333333333333333
 40
1.0
 40
1.0
 40
1.0
 40
1.0
 10
6.0185
 20
6.5238
 30
0.0
 10
6.0185
 20
6.5238
 30
0.0
 10
6.0185
 20
3.5831
 30
0.0
 10
6.0185
 20
3.5831
 30
0.0
 10
6.0185
 20
3.5831
 30
0.0
 10
6.0185
 20
3.5831
 30
0.0
 10
6.0185
 20
3.2032
 30
0.0
 10
6.0185
 20
3.2032
 30
0.0
  0
SPLINE
  5
4C
330
1F
100
AcDbEntity
  8
ROUND
 62
   250
370
    30
100
AcDbSpline
210
0.0
220
0.0
230
1.0
 70
     8
 71
     3
 72
    12
 73
     8
 74
     0
 42
0.0000000001
 43
0.0000000001
 40
0.0
 40
0.0
 40
0.0
 40
0.0
 40
0.3333333333333333
 40
0.3333333333333333
 40
0.3333333333333333
 40
0.3333333333333333
 40
1.0
 40
1.0
 40
1.0
 40
1.0
 10
-16.2471
 20
10.0486
 30
0.0
 10
-16.2471
 20
10.0486
 30
0.0
 10
-16.2777
 20
10.3969
 30
0.0
 10
-16.2777
 20
10.3969
 30
0.0
 10
-16.2777
 20
10.3969
 30
0.0
 10
-16.2777
 20
10.3969
 30
0.0
 10
-16.2742
 20
10.4163
 30
0.0
 10
-16.2742
 20
10.4163
 30
0.0
  0
SPLINE
  5
4D
330
1F
100
AcDbEntity
  8
ROUND
 62
   250
370
    30
100
AcDbSpline
210
0.0
220
0.0
230
1.0
 70
     8
 71
     3
 72
     8
 73
     4
 74
     0
 42
0.0000000001
 43
0.0000000001
 40
0.0
 40
0.0
 40
0.0
 40
0.0
 40
1.0
 40
1.0
 40
1.0
 40
1.0
 10
-16.2742
 20
10.4163
 30
0.0
 10
-16.2683
 20
10.429
 30
0.0
 10
-16.2567
 20
10.4367
 30
0.0
 10
-16.2431
 20
10.4381
 30
0.0
  0
SPLINE
  5
4E
330
1F
100
AcDbEntity
  8
ROUND
 62
   250
370
    30
100
AcDbSpline
210
0.0
220
0.0
230
1.0
 70
    24
 71
     3
 72
     8
 73
     4
 74
     0
 42
0.0000000001
 43
0.0000000001
 40
0.0
 40
0.0
 40
0.0
 40
0.0
 40
1.0
 40
1.0
 40
1.0
 40
1.0
 10
-16.2431
 20
10.4381
 30
0.0
 10
-16.2431
 20
10.4381
 30
0.0
 10
-16.0261
 20
10.4572
 30
0.0
 10
-16.0261
 20
10.4572
 30
0.0
  0
SPLINE
  5
4F
330
1F
100
AcDbEntity
  8
ROUND
 62
   250
370
    30
100
AcDbSpline
210
0.0
220
0.0
230
1.0
 70
     8
 71
     3
 72
    12
 73
     8
 74
     0
 42
0.0000000001
 43
0.0000000001
 40
0.0
 40
0.0
 40
0.0
 40
0.0
 40
0.3333333333333333
 40
0.3333333333333333
 40
0.3333333333333333
 40
0.3333333333333333
 40
1.0
 40
1.0
 40
1.0
 40
1.0
 10
-16.0261
 20
10.4572
 30
0.0
 10
-16.0089
 20
10.4584
 30
0.0
 10
-15.9931
 20
10.4484
 30
0.0
 10
-15.9871
 20
10.4323
 30
0.0
 10
-15.9871
 20
10.4323
 30
0.0
 10
-15.8297
 20
10.0115
 30
0.0
 10
-15.6797
 20
9.5879
 30
0.0
 10
-15.5261
 20
9.1658
 30
0.0
  0
SPLINE
  5
50
330
1F
100
AcDbEntity
  8
ROUND
 62
   250
370
    30
100
AcDbSpline
210
0.0
220
0.0
230
1.0
 70
     8
 71
     3
 72
    16
 73
    12
 74
     0
 42
0.0000000001
 43
0.0000000001
 40
0.0
 40
0.0
 40
0.0
 40
0.0
 40
0.25
 40
0.25
 40
0.25
 40
0.25
 40
0.5
 40
0.5
 40
0.5
 40
0.5
 40
1.0
 40
1.0
 40
1.0
 40
1.0
 10
-14.8638
 20
1.5948
 30
0.0
 10
-14.8638
 20
1.5948
 30
0.0
 10
-14.9297
 20
1.2205
 30
0.0
 10
-14.9297
 20
1.2205
 30
0.0
 10
-14.9297
 20
1.2205
 30
0.0
 10
-14.9297
 20
1.2205
 30
0.0
 10
-15.0318
 20
0.6417
 30
0.0
 10
-15.0318
 20
0.6417
 30
0.0
 10
-15.0318
 20
0.6417
 30
0.0
 10
-15.0318
 20
0.6417
 30
0.0
 10
-15.0977
 20
0.2675
 30
0.0
 10
-15.0977
 20
0.2675
 30
0.0
  0
SPLINE
  5
51
330
1F
100
AcDbEntity
  8
ROUND
 62
   250
370
    30
100
AcDbSpline
210
0.0
220
0.0
230
1.0
 70
     8
 71
     3
 72
     8
 73
     4
 74
     0
 42
0.0000000001
 43
0.0000000001
 40
0.0
 40
0.0
 40
0.0
 40
0.0
 40
1.0
 40
1.0
 40
1.0
 40
1.0
 10
-15.0977
 20
0.2675
 30
0.0
 10
-15.1009
 20
0.2505
 30
0.0
 10
-15.1148
 20
0.238
 30
0.0
 10
-15.1319
 20
0.2362
 30
0.0
  0
SPLINE
  5
52
330
1F
100
AcDbEntity
  8
ROUND
 62
   250
370
    30
100
AcDbSpline
210
0.0
220
0.0
230
1.0
 70
    24
 71
     3
 72
     8
 73
     4
 74
     0
 42
0.0000000001
 43
0.0000000001
 40
0.0
 40
0.0
 40
0.0
 40
0.0
 40
1.0
 40
1.0
 40
1.0
 40
1.0
 10
-15.1319
 20
0.2362
 30
0.0
 10
-15.1319
 20
0.2362
 30
0.0
 10
-15.3489
 20
0.2172
 30
0.0
 10
-15.3489
 20
0.2172
 30
0.0
  0
SPLINE
  5
53
330
1F
100
AcDbEntity
  8
ROUND
 62
   250
370
    30
100
AcDbSpline
210
0.0
220
0.0
230
1.0
 70
     8
 71
     3
 72
     8
 73
     4
 74
     0
 42
0.0000000001
 43
0.0000000001
 40
0.0
 40
0.0
 40
0.0
 40
0.0
 40
1.0
 40
1.0
 40
1.0
 40
1.0
 10
-15.3489
 20
0.2172
 30
0.0
 10
-15.3697
 20
0.2209
 30
0.0
 10
-15.3876
 20
0.2267
 30
0.0
 10
-15.3901
 20
0.2518
 30
0.0
  0
SPLINE
  5
54
330
1F
100
AcDbEntity
  8
ROUND
 62
   250
370
    30
100
AcDbSpline
210
0.0
220
0.0
230
1.0
 70
     8
 71
     3
 72
    16
 73
    12
 74
     0
 42
0.0000000001
 43
0.0000000001
 40
0.0
 40
0.0
 40
0.0
 40
0.0
 40
0.25
 40
0.25
 40
0.25
 40
0.25
 40
0.5
 40
0.5
 40
0.5
 40
0.5
 40
1.0
 40
1.0
 40
1.0
 40
1.0
 10
-15.3901
 20
0.2518
 30
0.0
 10
-15.3901
 20
0.2518
 30
0.0
 10
-15.4232
 20
0.6303
 30
0.0
 10
-15.4232
 20
0.6303
 30
0.0
 10
-15.4232
 20
0.6303
 30
0.0
 10
-15.4232
 20
0.6303
 30
0.0
 10
-16.2436
 20
10.0087
 30
0.0
 10
-16.2436
 20
10.0087
 30
0.0
 10
-16.2436
 20
10.0087
 30
0.0
 10
-16.2436
 20
10.0087
 30
0.0
 10
-16.2768
 20
10.3873
 30
0.0
 10
-16.2768
 20
10.3873
 30
0.0
  0
SPLINE
  5
55
330
1F
100
AcDbEntity
  8
ROUND
 62
   250
370
    30
100
AcDbSpline
210
0.0
220
0.0
230
1.0
 70
     8
 71
     3
 72
    16
 73
    12
 74
     0
 42
0.0000000001
 43
0.0000000001
 40
0.0
 40
0.0
 40
0.0
 40
0.0
 40
0.25
 40
0.25
 40
0.25
 40
0.25
 40
0.5
 40
0.5
 40
0.5
 40
0.5
 40
1.0
 40
1.0
 40
1.0
 40
1.0
 10
-1.5815
 20
5.3411
 30
0.0
 10
-1.5815
 20
5.3411
 30
0.0
 10
-1.9482
 20
5.309
 30
0.0
 10
-1.9482
 20
5.309
 30
0.0
 10
-1.9482
 20
5.309
 30
0.0
 10
-1.9482
 20
5.309
 30
0.0
 10
-2.315
 20
5.2768
 30
0.0
 10
-2.315
 20
5.2768
 30
0.0
 10
-2.315
 20
5.2768
 30
0.0
 10
-2.315
 20
5.2768
 30
0.0
 10
-2.4205
 20
5.2617
 30
0.0
 10
-2.4205
 20
5.2617
 30
0.0
  0
SPLINE
  5
56
330
1F
100
AcDbEntity
  8
ROUND
 62
   250
370
    30
100
AcDbSpline
210
0.0
220
0.0
230
1.0
 70
     8
 71
     3
 72
     8
 73
     4
 74
     0
 42
0.0000000001
 43
0.0000000001
 40
0.0
 40
0.0
 40
0.0
 40
0.0
 40
1.0
 40
1.0
 40
1.0
 40
1.0
 10
-2.4205
 20
5.2617
 30
0.0
 10
-2.6319
 20
5.2189
 30
0.0
 10
-2.8197
 20
5.1042
 30
0.0
 10
-2.96
 20
4.9412
 30
0.0
  0
SPLINE
  5
57
330
1F
100
AcDbEntity
  8
ROUND
 62
   250
370
    30
100
AcDbSpline
210
0.0
220
0.0
230
1.0
 70
     8
 71
     3
 72
    28
 73
    24
 74
     0
 42
0.0000000001
 43
0.0000000001
 40
0.0
 40
0.0
 40
0.0
 40
0.0
 40
0.1428571428571428
 40
0.1428571428571428
 40
0.1428571428571428
 40
0.1428571428571428
 40
0.2857142857142857
 40
0.2857142857142857
 40
0.2857142857142857
 40
0.2857142857142857
 40
0.4285714285714285
 40
0.4285714285714285
 40
0.4285714285714285
 40
0.4285714285714285
 40
0.5714285714285714
 40
0.5714285714285714
 40
0.5714285714285714
 40
0.5714285714285714
 40
0.7142857142857143
 40
0.7142857142857143
 40
0.7142857142857143
 40
0.7142857142857143
 40
1.0
 40
1.0
 40
1.0
 40
1.0
 10
-2.96
 20
4.9412
 30
0.0
 10
-2.96
 20
4.9412
 30
0.0
 10
-3.2042
 20
4.6501
 30
0.0
 10
-3.2042
 20
4.6501
 30
0.0
 10
-3.2042
 20
4.6501
 30
0.0
 10
-3.2042
 20
4.6501
 30
0.0
 10
-4.8031
 20
2.7446
 30
0.0
 10
-4.8031
 20
2.7446
 30
0.0
 10
-4.8031
 20
2.7446
 30
0.0
 10
-4.8031
 20
2.7446
 30
0.0
 10
-5.0473
 20
2.4535
 30
0.0
 10
-5.0473
 20
2.4535
 30
0.0
 10
-5.0473
 20
2.4535
 30
0.0
 10
-5.0473
 20
2.4535
 30
0.0
 10
-5.4259
 20
2.4204
 30
0.0
 10
-5.4259
 20
2.4204
 30
0.0
 10
-5.4259
 20
2.4204
 30
0.0
 10
-5.4259
 20
2.4204
 30
0.0
 10
-14.4851
 20
1.6278
 30
0.0
 10
-14.4851
 20
1.6278
 30
0.0
 10
-14.4851
 20
1.6278
 30
0.0
 10
-14.4851
 20
1.6278
 30
0.0
 10
-14.8638
 20
1.5948
 30
0.0
 10
-14.8638
 20
1.5948
 30
0.0
  0
SPLINE
  5
58
330
1F
100
AcDbEntity
  8
ROUND
 62
   250
370
    30
100
AcDbSpline
210
0.0
220
0.0
230
1.0
 70
    24
 71
     3
 72
     8
 73
     4
 74
     0
 42
0.0000000001
 43
0.0000000001
 40
0.0
 40
0.0
 40
0.0
 40
0.0
 40
1.0
 40
1.0
 40
1.0
 40
1.0
 10
-2.9939
 20
-7.0569
 30
0.0
 10
-2.9939
 20
-7.0569
 30
0.0
 10
-2.9939
 20
-7.4368
 30
0.0
 10
-2.9939
 20
-7.4368
 30
0.0
  0
SPLINE
  5
59
330
1F
100
AcDbEntity
  8
ROUND
 62
   250
370
    30
100
AcDbSpline
210
0.0
220
0.0
230
1.0
 70
    24
 71
     3
 72
     8
 73
     4
 74
     0
 42
0.0000000001
 43
0.0000000001
 40
0.0
 40
0.0
 40
0.0
 40
0.0
 40
1.0
 40
1.0
 40
1.0
 40
1.0
 10
-2.9939
 20
-7.0569
 30
0.0
 10
-2.9939
 20
-7.0569
 30
0.0
 10
25.5058
 20
-7.0569
 30
0.0
 10
25.5058
 20
-7.0569
 30
0.0
  0
SPLINE
  5
5A
330
1F
100
AcDbEntity
  8
ROUND
 62
   250
370
    30
100
AcDbSpline
210
0.0
220
0.0
230
1.0
 70
    24
 71
     3
 72
     8
 73
     4
 74
     0
 42
0.0000000001
 43
0.0000000001
 40
0.0
 40
0.0
 40
0.0
 40
0.0
 40
1.0
 40
1.0
 40
1.0
 40
1.0
 10
25.5058
 20
-7.4368
 30
0.0
 10
25.5058
 20
-7.4368
 30
0.0
 10
25.5058
 20
-7.0569
 30
0.0
 10
25.5058
 20
-7.0569
 30
0.0
  0
SPLINE
  5
5B
330
1F
100
AcDbEntity
  8
ROUND
 62
   250
370
    30
100
AcDbSpline
210
0.0
220
0.0
230
1.0
 70
    24
 71
     3
 72
     8
 73
     4
 74
     0
 42
0.0000000001
 43
0.0000000001
 40
0.0
 40
0.0
 40
0.0
 40
0.0
 40
1.0
 40
1.0
 40
1.0
 40
1.0
 10
25.5058
 20
-7.4368
 30
0.0
 10
25.5058
 20
-7.4368
 30
0.0
 10
-3.0031
 20
-7.4368
 30
0.0
 10
-3.0031
 20
-7.4368
 30
0.0
  0
SPLINE
  5
5C
330
1F
100
AcDbEntity
  8
ROUND
 62
   250
370
    30
100
AcDbSpline
210
0.0
220
0.0
230
1.0
 70
    24
 71
     3
 72
     8
 73
     4
 74
     0
 42
0.0000000001
 43
0.0000000001
 40
0.0
 40
0.0
 40
0.0
 40
0.0
 40
1.0
 40
1.0
 40
1.0
 40
1.0
 10
-2.9908
 20
-6.4488
 30
0.0
 10
-2.9908
 20
-6.4488
 30
0.0
 10
-2.9908
 20
-7.0569
 30
0.0
 10
-2.9908
 20
-7.0569
 30
0.0
  0
SPLINE
  5
5D
330
1F
100
AcDbEntity
  8
ROUND
 62
   250
370
    30
100
AcDbSpline
210
0.0
220
0.0
230
1.0
 70
    24
 71
     3
 72
     8
 73
     4
 74
     0
 42
0.0000000001
 43
0.0000000001
 40
0.0
 40
0.0
 40
0.0
 40
0.0
 40
1.0
 40
1.0
 40
1.0
 40
1.0
 10
-2.1145
 20
-0.3231
 30
0.0
 10
-2.1145
 20
-0.3231
 30
0.0
 10
-1.9016
 20
-0.5018
 30
0.0
 10
-1.9016
 20
-0.5018
 30
0.0
  0
SPLINE
  5
5E
330
1F
100
AcDbEntity
  8
ROUND
 62
   250
370
    30
100
AcDbSpline
210
0.0
220
0.0
230
1.0
 70
    24
 71
     3
 72
     8
 73
     4
 74
     0
 42
0.0000000001
 43
0.0000000001
 40
0.0
 40
0.0
 40
0.0
 40
0.0
 40
1.0
 40
1.0
 40
1.0
 40
1.0
 10
-2.1145
 20
-0.3231
 30
0.0
 10
-2.1145
 20
-0.3231
 30
0.0
 10
-2.0937
 20
-0.3118
 30
0.0
 10
-2.0937
 20
-0.3118
 30
0.0
  0
SPLINE
  5
5F
330
1F
100
AcDbEntity
  8
ROUND
 62
   250
370
    30
100
AcDbSpline
210
0.0
220
0.0
230
1.0
 70
    24
 71
     3
 72
     8
 73
     4
 74
     0
 42
0.0000000001
 43
0.0000000001
 40
0.0
 40
0.0
 40
0.0
 40
0.0
 40
1.0
 40
1.0
 40
1.0
 40
1.0
 10
25.5026
 20
-6.4488
 30
0.0
 10
25.5026
 20
-6.4488
 30
0.0
 10
-2.9908
 20
-6.4488
 30
0.0
 10
-2.9908
 20
-6.4488
 30
0.0
  0
SPLINE
  5
60
330
1F
100
AcDbEntity
  8
ROUND
 62
   250
370
    30
100
AcDbSpline
210
0.0
220
0.0
230
1.0
 70
    24
 71
     3
 72
     8
 73
     4
 74
     0
 42
0.0000000001
 43
0.0000000001
 40
0.0
 40
0.0
 40
0.0
 40
0.0
 40
1.0
 40
1.0
 40
1.0
 40
1.0
 10
-2.4701
 20
-6.4488
 30
0.0
 10
-2.4701
 20
-6.4488
 30
0.0
 10
-2.3193
 20
-6.4488
 30
0.0
 10
-2.3193
 20
-6.4488
 30
0.0
  0
SPLINE
  5
61
330
1F
100
AcDbEntity
  8
ROUND
 62
   250
370
    30
100
AcDbSpline
210
0.0
220
0.0
230
1.0
 70
    24
 71
     3
 72
     8
 73
     4
 74
     0
 42
0.0000000001
 43
0.0000000001
 40
0.0
 40
0.0
 40
0.0
 40
0.0
 40
1.0
 40
1.0
 40
1.0
 40
1.0
 10
-2.9655
 20
-6.4488
 30
0.0
 10
-2.9655
 20
-6.4488
 30
0.0
 10
-2.9908
 20
-6.4488
 30
0.0
 10
-2.9908
 20
-6.4488
 30
0.0
  0
SPLINE
  5
62
330
1F
100
AcDbEntity
  8
ROUND
 62
   250
370
    30
100
AcDbSpline
210
0.0
220
0.0
230
1.0
 70
    24
 71
     3
 72
     8
 73
     4
 74
     0
 42
0.0000000001
 43
0.0000000001
 40
0.0
 40
0.0
 40
0.0
 40
0.0
 40
1.0
 40
1.0
 40
1.0
 40
1.0
 10
25.5026
 20
-7.0569
 30
0.0
 10
25.5026
 20
-7.0569
 30
0.0
 10
25.5026
 20
-6.4488
 30
0.0
 10
25.5026
 20
-6.4488
 30
0.0
  0
SPLINE
  5
63
330
1F
100
AcDbEntity
  8
ROUND
 62
   250
370
    30
100
AcDbSpline
210
0.0
220
0.0
230
1.0
 70
    24
 71
     3
 72
     8
 73
     4
 74
     0
 42
0.0000000001
 43
0.0000000001
 40
0.0
 40
0.0
 40
0.0
 40
0.0
 40
1.0
 40
1.0
 40
1.0
 40
1.0
 10
6.3635
 20
-0.5018
 30
0.0
 10
6.3635
 20
-0.5018
 30
0.0
 10
-1.9016
 20
-0.5018
 30
0.0
 10
-1.9016
 20
-0.5018
 30
0.0
  0
SPLINE
  5
64
330
1F
100
AcDbEntity
  8
ROUND
 62
   250
370
    30
100
AcDbSpline
210
0.0
220
0.0
230
1.0
 70
    24
 71
     3
 72
     8
 73
     4
 74
     0
 42
0.0000000001
 43
0.0000000001
 40
0.0
 40
0.0
 40
0.0
 40
0.0
 40
1.0
 40
1.0
 40
1.0
 40
1.0
 10
6.36
 20
-0.9843
 30
0.0
 10
6.36
 20
-0.9843
 30
0.0
 10
6.3635
 20
-0.5018
 30
0.0
 10
6.3635
 20
-0.5018
 30
0.0
  0
SPLINE
  5
65
330
1F
100
AcDbEntity
  8
ROUND
 62
   250
370
    30
100
AcDbSpline
210
0.0
220
0.0
230
1.0
 70
    24
 71
     3
 72
     8
 73
     4
 74
     0
 42
0.0000000001
 43
0.0000000001
 40
0.0
 40
0.0
 40
0.0
 40
0.0
 40
1.0
 40
1.0
 40
1.0
 40
1.0
 10
16.9591
 20
-2.4968
 30
0.0
 10
16.9591
 20
-2.4968
 30
0.0
 10
16.9518
 20
-2.6101
 30
0.0
 10
16.9518
 20
-2.6101
 30
0.0
  0
SPLINE
  5
66
330
1F
100
AcDbEntity
  8
ROUND
 62
   250
370
    30
100
AcDbSpline
210
0.0
220
0.0
230
1.0
 70
     8
 71
     3
 72
     8
 73
     4
 74
     0
 42
0.0000000001
 43
0.0000000001
 40
0.0
 40
0.0
 40
0.0
 40
0.0
 40
1.0
 40
1.0
 40
1.0
 40
1.0
 10
-2.4609
 20
-6.4474
 30
0.0
 10
-2.4379
 20
-6.4395
 30
0.0
 10
-2.4144
 20
-6.4202
 30
0.0
 10
-2.4133
 20
-6.3928
 30
0.0
  0
SPLINE
  5
67
330
1F
100
AcDbEntity
  8
ROUND
 62
   250
370
    30
100
AcDbSpline
210
0.0
220
0.0
230
1.0
 70
     8
 71
     3
 72
    12
 73
     8
 74
     0
 42
0.0000000001
 43
0.0000000001
 40
0.0
 40
0.0
 40
0.0
 40
0.0
 40
0.3333333333333333
 40
0.3333333333333333
 40
0.3333333333333333
 40
0.3333333333333333
 40
1.0
 40
1.0
 40
1.0
 40
1.0
 10
-2.4133
 20
-6.3928
 30
0.0
 10
-2.4133
 20
-6.3928
 30
0.0
 10
-2.4067
 20
-6.0128
 30
0.0
 10
-2.4067
 20
-6.0128
 30
0.0
 10
-2.4067
 20
-6.0128
 30
0.0
 10
-2.4067
 20
-6.0128
 30
0.0
 10
-2.3664
 20
-3.7053
 30
0.0
 10
-2.3664
 20
-3.7053
 30
0.0
  0
SPLINE
  5
68
330
1F
100
AcDbEntity
  8
ROUND
 62
   250
370
    30
100
AcDbSpline
210
0.0
220
0.0
230
1.0
 70
     8
 71
     3
 72
    12
 73
     8
 74
     0
 42
0.0000000001
 43
0.0000000001
 40
0.0
 40
0.0
 40
0.0
 40
0.0
 40
0.3333333333333333
 40
0.3333333333333333
 40
0.3333333333333333
 40
0.3333333333333333
 40
1.0
 40
1.0
 40
1.0
 40
1.0
 10
24.9175
 20
-6.3787
 30
0.0
 10
24.9175
 20
-6.3787
 30
0.0
 10
24.9156
 20
-6.1743
 30
0.0
 10
24.9156
 20
-6.1743
 30
0.0
 10
24.9156
 20
-6.1743
 30
0.0
 10
24.9156
 20
-6.1743
 30
0.0
 10
24.9034
 20
-4.9334
 30
0.0
 10
24.9034
 20
-4.9334
 30
0.0
  0
SPLINE
  5
69
330
1F
100
AcDbEntity
  8
ROUND
 62
   250
370
    30
100
AcDbSpline
210
0.0
220
0.0
230
1.0
 70
     8
 71
     3
 72
    24
 73
    20
 74
     0
 42
0.0000000001
 43
0.0000000001
 40
0.0
 40
0.0
 40
0.0
 40
0.0
 40
0.1666666666666667
 40
0.1666666666666667
 40
0.1666666666666667
 40
0.1666666666666667
 40
0.3333333333333333
 40
0.3333333333333333
 40
0.3333333333333333
 40
0.3333333333333333
 40
0.5
 40
0.5
 40
0.5
 40
0.5
 40
0.6666666666666666
 40
0.6666666666666666
 40
0.6666666666666666
 40
0.6666666666666666
 40
1.0
 40
1.0
 40
1.0
 40
1.0
 10
-2.3664
 20
-3.7053
 30
0.0
 10
-2.3626
 20
-3.4833
 30
0.0
 10
-2.3761
 20
-3.2456
 30
0.0
 10
-2.3277
 20
-3.0254
 30
0.0
 10
-2.3277
 20
-3.0254
 30
0.0
 10
-2.2952
 20
-2.8776
 30
0.0
 10
-2.2404
 20
-2.7349
 30
0.0
 10
-2.1659
 20
-2.6031
 30
0.0
 10
-2.1659
 20
-2.6031
 30
0.0
 10
-2.1111
 20
-2.5061
 30
0.0
 10
-2.0428
 20
-2.4249
 30
0.0
 10
-1.9946
 20
-2.324
 30
0.0
 10
-1.9946
 20
-2.324
 30
0.0
 10
-1.9339
 20
-2.1974
 30
0.0
 10
-1.9008
 20
-2.0541
 30
0.0
 10
-1.8985
 20
-1.9136
 30
0.0
 10
-1.8985
 20
-1.9136
 30
0.0
 10
-1.8907
 20
-1.4433
 30
0.0
 10
-1.9006
 20
-0.9722
 30
0.0
 10
-1.9016
 20
-0.5018
 30
0.0
  0
SPLINE
  5
6A
330
1F
100
AcDbEntity
  8
ROUND
 62
   250
370
    30
100
AcDbSpline
210
0.0
220
0.0
230
1.0
 70
     8
 71
     3
 72
     8
 73
     4
 74
     0
 42
0.0000000001
 43
0.0000000001
 40
0.0
 40
0.0
 40
0.0
 40
0.0
 40
1.0
 40
1.0
 40
1.0
 40
1.0
 10
24.9822
 20
-6.4488
 30
0.0
 10
24.9477
 20
-6.4438
 30
0.0
 10
24.9366
 20
-6.4235
 30
0.0
 10
24.9252
 20
-6.3928
 30
0.0
  0
SPLINE
  5
6B
330
1F
100
AcDbEntity
  8
ROUND
 62
   250
370
    30
100
AcDbSpline
210
0.0
220
0.0
230
1.0
 70
     8
 71
     3
 72
     8
 73
     4
 74
     0
 42
0.0000000001
 43
0.0000000001
 40
0.0
 40
0.0
 40
0.0
 40
0.0
 40
1.0
 40
1.0
 40
1.0
 40
1.0
 10
-1.9852
 20
-0.3118
 30
0.0
 10
-2.0238
 20
-0.3134
 30
0.0
 10
-2.0798
 20
-0.3051
 30
0.0
 10
-2.1145
 20
-0.3231
 30
0.0
  0
SPLINE
  5
6C
330
1F
100
AcDbEntity
  8
ROUND
 62
   250
370
    30
100
AcDbSpline
210
0.0
220
0.0
230
1.0
 70
     8
 71
     3
 72
     8
 73
     4
 74
     0
 42
0.0000000001
 43
0.0000000001
 40
0.0
 40
0.0
 40
0.0
 40
0.0
 40
1.0
 40
1.0
 40
1.0
 40
1.0
 10
15.1901
 20
-3.4375
 30
0.0
 10
14.8843
 20
-3.4054
 30
0.0
 10
14.5947
 20
-3.3488
 30
0.0
 10
14.2936
 20
-3.2847
 30
0.0
  0
SPLINE
  5
6D
330
1F
100
AcDbEntity
  8
ROUND
 62
   250
370
    30
100
AcDbSpline
210
0.0
220
0.0
230
1.0
 70
     8
 71
     3
 72
    16
 73
    12
 74
     0
 42
0.0000000001
 43
0.0000000001
 40
0.0
 40
0.0
 40
0.0
 40
0.0
 40
0.25
 40
0.25
 40
0.25
 40
0.25
 40
0.5
 40
0.5
 40
0.5
 40
0.5
 40
1.0
 40
1.0
 40
1.0
 40
1.0
 10
14.2936
 20
-3.2847
 30
0.0
 10
14.2936
 20
-3.2847
 30
0.0
 10
8.2203
 20
-1.9939
 30
0.0
 10
8.2203
 20
-1.9939
 30
0.0
 10
8.2203
 20
-1.9939
 30
0.0
 10
8.2203
 20
-1.9939
 30
0.0
 10
7.8486
 20
-1.9149
 30
0.0
 10
7.8486
 20
-1.9149
 30
0.0
 10
7.8486
 20
-1.9149
 30
0.0
 10
7.8486
 20
-1.9149
 30
0.0
 10
7.5873
 20
-1.8687
 30
0.0
 10
7.5873
 20
-1.8687
 30
0.0
  0
SPLINE
  5
6E
330
1F
100
AcDbEntity
  8
ROUND
 62
   250
370
    30
100
AcDbSpline
210
0.0
220
0.0
230
1.0
 70
     8
 71
     3
 72
     8
 73
     4
 74
     0
 42
0.0000000001
 43
0.0000000001
 40
0.0
 40
0.0
 40
0.0
 40
0.0
 40
1.0
 40
1.0
 40
1.0
 40
1.0
 10
7.5873
 20
-1.8687
 30
0.0
 10
7.285
 20
-1.8263
 30
0.0
 10
6.9831
 20
-1.8319
 30
0.0
 10
6.6786
 20
-1.8319
 30
0.0
  0
SPLINE
  5
6F
330
1F
100
AcDbEntity
  8
ROUND
 62
   250
370
    30
100
AcDbSpline
210
0.0
220
0.0
230
1.0
 70
    24
 71
     3
 72
    12
 73
     8
 74
     0
 42
0.0000000001
 43
0.0000000001
 40
0.0
 40
0.0
 40
0.0
 40
0.0
 40
0.3333333333333333
 40
0.3333333333333333
 40
0.3333333333333333
 40
0.3333333333333333
 40
1.0
 40
1.0
 40
1.0
 40
1.0
 10
6.6786
 20
-1.8319
 30
0.0
 10
6.6786
 20
-1.8319
 30
0.0
 10
6.2491
 20
-1.8319
 30
0.0
 10
6.2491
 20
-1.8319
 30
0.0
 10
6.2491
 20
-1.8319
 30
0.0
 10
6.2491
 20
-1.8319
 30
0.0
 10
5.8691
 20
-1.8319
 30
0.0
 10
5.8691
 20
-1.8319
 30
0.0
  0
SPLINE
  5
70
330
1F
100
AcDbEntity
  8
ROUND
 62
   250
370
    30
100
AcDbSpline
210
0.0
220
0.0
230
1.0
 70
     8
 71
     3
 72
    12
 73
     8
 74
     0
 42
0.0000000001
 43
0.0000000001
 40
0.0
 40
0.0
 40
0.0
 40
0.0
 40
0.3333333333333333
 40
0.3333333333333333
 40
0.3333333333333333
 40
0.3333333333333333
 40
1.0
 40
1.0
 40
1.0
 40
1.0
 10
6.3609
 20
-0.8885
 30
0.0
 10
6.371
 20
-1.0185
 30
0.0
 10
6.3883
 20
-1.1417
 30
0.0
 10
6.4402
 20
-1.2628
 30
0.0
 10
6.4402
 20
-1.2628
 30
0.0
 10
6.5861
 20
-1.6032
 30
0.0
 10
6.9006
 20
-1.7991
 30
0.0
 10
7.26
 20
-1.8372
 30
0.0
  0
SPLINE
  5
71
330
1F
100
AcDbEntity
  8
ROUND
 62
   250
370
    30
100
AcDbSpline
210
0.0
220
0.0
230
1.0
 70
    24
 71
     3
 72
     8
 73
     4
 74
     0
 42
0.0000000001
 43
0.0000000001
 40
0.0
 40
0.0
 40
0.0
 40
0.0
 40
1.0
 40
1.0
 40
1.0
 40
1.0
 10
6.3572
 20
-0.5018
 30
0.0
 10
6.3572
 20
-0.5018
 30
0.0
 10
6.5899
 20
-0.3118
 30
0.0
 10
6.5899
 20
-0.3118
 30
0.0
  0
SPLINE
  5
72
330
1F
100
AcDbEntity
  8
ROUND
 62
   250
370
    30
100
AcDbSpline
210
0.0
220
0.0
230
1.0
 70
     8
 71
     3
 72
    12
 73
     8
 74
     0
 42
0.0000000001
 43
0.0000000001
 40
0.0
 40
0.0
 40
0.0
 40
0.0
 40
0.3333333333333333
 40
0.3333333333333333
 40
0.3333333333333333
 40
0.3333333333333333
 40
1.0
 40
1.0
 40
1.0
 40
1.0
 10
16.0059
 20
-3.4469
 30
0.0
 10
16.1247
 20
-3.4399
 30
0.0
 10
16.2338
 20
-3.4277
 30
0.0
 10
16.3461
 20
-3.385
 30
0.0
 10
16.3461
 20
-3.385
 30
0.0
 10
16.6469
 20
-3.2707
 30
0.0
 10
16.8384
 20
-3.0225
 30
0.0
 10
16.9313
 20
-2.7231
 30
0.0
  0
SPLINE
  5
73
330
1F
100
AcDbEntity
  8
ROUND
 62
   250
370
    30
100
AcDbSpline
210
0.0
220
0.0
230
1.0
 70
     8
 71
     3
 72
     8
 73
     4
 74
     0
 42
0.0000000001
 43
0.0000000001
 40
0.0
 40
0.0
 40
0.0
 40
0.0
 40
1.0
 40
1.0
 40
1.0
 40
1.0
 10
15.0576
 20
-3.4316
 30
0.0
 10
15.9147
 20
-3.4644
 30
0.0
 10
16.7732
 20
-3.4469
 30
0.0
 10
17.6309
 20
-3.4469
 30
0.0
  0
SPLINE
  5
74
330
1F
100
AcDbEntity
  8
ROUND
 62
   250
370
    30
100
AcDbSpline
210
0.0
220
0.0
230
1.0
 70
     8
 71
     3
 72
    16
 73
    12
 74
     0
 42
0.0000000001
 43
0.0000000001
 40
0.0
 40
0.0
 40
0.0
 40
0.0
 40
0.25
 40
0.25
 40
0.25
 40
0.25
 40
0.5
 40
0.5
 40
0.5
 40
0.5
 40
1.0
 40
1.0
 40
1.0
 40
1.0
 10
24.8998
 20
-4.9403
 30
0.0
 10
24.8901
 20
-4.7329
 30
0.0
 10
24.857
 20
-4.5402
 30
0.0
 10
24.772
 20
-4.349
 30
0.0
 10
24.772
 20
-4.349
 30
0.0
 10
24.7073
 20
-4.2036
 30
0.0
 10
24.6183
 20
-4.0794
 30
0.0
 10
24.5813
 20
-3.9216
 30
0.0
 10
24.5813
 20
-3.9216
 30
0.0
 10
24.5355
 20
-3.7278
 30
0.0
 10
24.5531
 20
-3.5173
 30
0.0
 10
24.553
 20
-3.3229
 30
0.0
  0
SPLINE
  5
75
330
1F
100
AcDbEntity
  8
ROUND
 62
   250
370
    30
100
AcDbSpline
210
0.0
220
0.0
230
1.0
 70
     8
 71
     3
 72
    12
 73
     8
 74
     0
 42
0.0000000001
 43
0.0000000001
 40
0.0
 40
0.0
 40
0.0
 40
0.0
 40
0.3333333333333333
 40
0.3333333333333333
 40
0.3333333333333333
 40
0.3333333333333333
 40
1.0
 40
1.0
 40
1.0
 40
1.0
 10
24.553
 20
-3.3229
 30
0.0
 10
24.553
 20
-3.3229
 30
0.0
 10
24.5529
 20
-2.8768
 30
0.0
 10
24.5529
 20
-2.8768
 30
0.0
 10
24.5529
 20
-2.8768
 30
0.0
 10
24.5529
 20
-2.8768
 30
0.0
 10
24.5529
 20
-2.4968
 30
0.0
 10
24.5529
 20
-2.4968
 30
0.0
  0
SPLINE
  5
76
330
1F
100
AcDbEntity
  8
ROUND
 62
   250
370
    30
100
AcDbSpline
210
0.0
220
0.0
230
1.0
 70
    24
 71
     3
 72
     8
 73
     4
 74
     0
 42
0.0000000001
 43
0.0000000001
 40
0.0
 40
0.0
 40
0.0
 40
0.0
 40
1.0
 40
1.0
 40
1.0
 40
1.0
 10
7.456
 20
-0.3118
 30
0.0
 10
7.456
 20
-0.3118
 30
0.0
 10
-2.9941
 20
-0.3118
 30
0.0
 10
-2.9941
 20
-0.3118
 30
0.0
  0
SPLINE
  5
77
330
1F
100
AcDbEntity
  8
ROUND
 62
   250
370
    30
100
AcDbSpline
210
0.0
220
0.0
230
1.0
 70
    24
 71
     3
 72
     8
 73
     4
 74
     0
 42
0.0000000001
 43
0.0000000001
 40
0.0
 40
0.0
 40
0.0
 40
0.0
 40
1.0
 40
1.0
 40
1.0
 40
1.0
 10
-2.9802
 20
0.2581
 30
0.0
 10
-2.9802
 20
0.2581
 30
0.0
 10
-1.7226
 20
0.2581
 30
0.0
 10
-1.7226
 20
0.2581
 30
0.0
  0
SPLINE
  5
78
330
1F
100
AcDbEntity
  8
ROUND
 62
   250
370
    30
100
AcDbSpline
210
0.0
220
0.0
230
1.0
 70
    24
 71
     3
 72
     8
 73
     4
 74
     0
 42
0.0000000001
 43
0.0000000001
 40
0.0
 40
0.0
 40
0.0
 40
0.0
 40
1.0
 40
1.0
 40
1.0
 40
1.0
 10
-1.1852
 20
0.2581
 30
0.0
 10
-1.1852
 20
0.2581
 30
0.0
 10
1.851
 20
0.2581
 30
0.0
 10
1.851
 20
0.2581
 30
0.0
  0
SPLINE
  5
79
330
1F
100
AcDbEntity
  8
ROUND
 62
   250
370
    30
100
AcDbSpline
210
0.0
220
0.0
230
1.0
 70
    24
 71
     3
 72
     8
 73
     4
 74
     0
 42
0.0000000001
 43
0.0000000001
 40
0.0
 40
0.0
 40
0.0
 40
0.0
 40
1.0
 40
1.0
 40
1.0
 40
1.0
 10
2.6109
 20
0.2581
 30
0.0
 10
2.6109
 20
0.2581
 30
0.0
 10
5.6471
 20
0.2581
 30
0.0
 10
5.6471
 20
0.2581
 30
0.0
  0
SPLINE
  5
7A
330
1F
100
AcDbEntity
  8
ROUND
 62
   250
370
    30
100
AcDbSpline
210
0.0
220
0.0
230
1.0
 70
    24
 71
     3
 72
     8
 73
     4
 74
     0
 42
0.0000000001
 43
0.0000000001
 40
0.0
 40
0.0
 40
0.0
 40
0.0
 40
1.0
 40
1.0
 40
1.0
 40
1.0
 10
7.4421
 20
0.2581
 30
0.0
 10
7.4421
 20
0.2581
 30
0.0
 10
6.1845
 20
0.2581
 30
0.0
 10
6.1845
 20
0.2581
 30
0.0
  0
SPLINE
  5
7B
330
1F
100
AcDbEntity
  8
ROUND
 62
   250
370
    30
100
AcDbSpline
210
0.0
220
0.0
230
1.0
 70
    24
 71
     3
 72
     8
 73
     4
 74
     0
 42
0.0000000001
 43
0.0000000001
 40
0.0
 40
0.0
 40
0.0
 40
0.0
 40
1.0
 40
1.0
 40
1.0
 40
1.0
 10
7.456
 20
-0.3118
 30
0.0
 10
7.456
 20
-0.3118
 30
0.0
 10
7.456
 20
2.3482
 30
0.0
 10
7.456
 20
2.3482
 30
0.0
  0
SPLINE
  5
7C
330
1F
100
AcDbEntity
  8
ROUND
 62
   250
370
    30
100
AcDbSpline
210
0.0
220
0.0
230
1.0
 70
    24
 71
     3
 72
     8
 73
     4
 74
     0
 42
0.0000000001
 43
0.0000000001
 40
0.0
 40
0.0
 40
0.0
 40
0.0
 40
1.0
 40
1.0
 40
1.0
 40
1.0
 10
7.361
 20
2.3482
 30
0.0
 10
7.361
 20
2.3482
 30
0.0
 10
7.456
 20
2.3482
 30
0.0
 10
7.456
 20
2.3482
 30
0.0
  0
SPLINE
  5
7D
330
1F
100
AcDbEntity
  8
ROUND
 62
   250
370
    30
100
AcDbSpline
210
0.0
220
0.0
230
1.0
 70
    24
 71
     3
 72
     8
 73
     4
 74
     0
 42
0.0000000001
 43
0.0000000001
 40
0.0
 40
0.0
 40
0.0
 40
0.0
 40
1.0
 40
1.0
 40
1.0
 40
1.0
 10
-2.9941
 20
2.3482
 30
0.0
 10
-2.9941
 20
2.3482
 30
0.0
 10
-2.899
 20
2.3482
 30
0.0
 10
-2.899
 20
2.3482
 30
0.0
  0
SPLINE
  5
7E
330
1F
100
AcDbEntity
  8
ROUND
 62
   250
370
    30
100
AcDbSpline
210
0.0
220
0.0
230
1.0
 70
    24
 71
     3
 72
     8
 73
     4
 74
     0
 42
0.0000000001
 43
0.0000000001
 40
0.0
 40
0.0
 40
0.0
 40
0.0
 40
1.0
 40
1.0
 40
1.0
 40
1.0
 10
-2.9941
 20
2.3482
 30
0.0
 10
-2.9941
 20
2.3482
 30
0.0
 10
-2.9941
 20
-0.3118
 30
0.0
 10
-2.9941
 20
-0.3118
 30
0.0
  0
SPLINE
  5
7F
330
1F
100
AcDbEntity
  8
ROUND
 62
   250
370
    30
100
AcDbSpline
210
0.0
220
0.0
230
1.0
 70
    24
 71
     3
 72
     8
 73
     4
 74
     0
 42
0.0000000001
 43
0.0000000001
 40
0.0
 40
0.0
 40
0.0
 40
0.0
 40
1.0
 40
1.0
 40
1.0
 40
1.0
 10
1.855
 20
2.0246
 30
0.0
 10
1.855
 20
2.0246
 30
0.0
 10
1.851
 20
1.9681
 30
0.0
 10
1.851
 20
1.9681
 30
0.0
  0
SPLINE
  5
80
330
1F
100
AcDbEntity
  8
ROUND
 62
   250
370
    30
100
AcDbSpline
210
0.0
220
0.0
230
1.0
 70
    24
 71
     3
 72
     8
 73
     4
 74
     0
 42
0.0000000001
 43
0.0000000001
 40
0.0
 40
0.0
 40
0.0
 40
0.0
 40
1.0
 40
1.0
 40
1.0
 40
1.0
 10
25.981
 20
1.0182
 30
0.0
 10
25.981
 20
1.0182
 30
0.0
 10
15.5309
 20
1.0182
 30
0.0
 10
15.5309
 20
1.0182
 30
0.0
  0
SPLINE
  5
81
330
1F
100
AcDbEntity
  8
ROUND
 62
   250
370
    30
100
AcDbSpline
210
0.0
220
0.0
230
1.0
 70
    24
 71
     3
 72
     8
 73
     4
 74
     0
 42
0.0000000001
 43
0.0000000001
 40
0.0
 40
0.0
 40
0.0
 40
0.0
 40
1.0
 40
1.0
 40
1.0
 40
1.0
 10
15.5448
 20
0.4482
 30
0.0
 10
15.5448
 20
0.4482
 30
0.0
 10
16.8024
 20
0.4482
 30
0.0
 10
16.8024
 20
0.4482
 30
0.0
  0
SPLINE
  5
82
330
1F
100
AcDbEntity
  8
ROUND
 62
   250
370
    30
100
AcDbSpline
210
0.0
220
0.0
230
1.0
 70
    24
 71
     3
 72
     8
 73
     4
 74
     0
 42
0.0000000001
 43
0.0000000001
 40
0.0
 40
0.0
 40
0.0
 40
0.0
 40
1.0
 40
1.0
 40
1.0
 40
1.0
 10
17.3398
 20
0.4482
 30
0.0
 10
17.3398
 20
0.4482
 30
0.0
 10
20.3759
 20
0.4482
 30
0.0
 10
20.3759
 20
0.4482
 30
0.0
  0
SPLINE
  5
83
330
1F
100
AcDbEntity
  8
ROUND
 62
   250
370
    30
100
AcDbSpline
210
0.0
220
0.0
230
1.0
 70
    24
 71
     3
 72
     8
 73
     4
 74
     0
 42
0.0000000001
 43
0.0000000001
 40
0.0
 40
0.0
 40
0.0
 40
0.0
 40
1.0
 40
1.0
 40
1.0
 40
1.0
 10
21.22
 20
1.0182
 30
0.0
 10
21.22
 20
1.0182
 30
0.0
 10
20.6012
 20
1.0182
 30
0.0
 10
20.6012
 20
1.0182
 30
0.0
  0
SPLINE
  5
84
330
1F
100
AcDbEntity
  8
ROUND
 62
   250
370
    30
100
AcDbSpline
210
0.0
220
0.0
230
1.0
 70
    24
 71
     3
 72
     8
 73
     4
 74
     0
 42
0.0000000001
 43
0.0000000001
 40
0.0
 40
0.0
 40
0.0
 40
0.0
 40
1.0
 40
1.0
 40
1.0
 40
1.0
 10
24.1721
 20
0.4482
 30
0.0
 10
24.1721
 20
0.4482
 30
0.0
 10
21.136
 20
0.4482
 30
0.0
 10
21.136
 20
0.4482
 30
0.0
  0
SPLINE
  5
85
330
1F
100
AcDbEntity
  8
ROUND
 62
   250
370
    30
100
AcDbSpline
210
0.0
220
0.0
230
1.0
 70
    24
 71
     3
 72
     8
 73
     4
 74
     0
 42
0.0000000001
 43
0.0000000001
 40
0.0
 40
0.0
 40
0.0
 40
0.0
 40
1.0
 40
1.0
 40
1.0
 40
1.0
 10
25.9671
 20
0.4482
 30
0.0
 10
25.9671
 20
0.4482
 30
0.0
 10
24.7095
 20
0.4482
 30
0.0
 10
24.7095
 20
0.4482
 30
0.0
  0
SPLINE
  5
86
330
1F
100
AcDbEntity
  8
ROUND
 62
   250
370
    30
100
AcDbSpline
210
0.0
220
0.0
230
1.0
 70
    24
 71
     3
 72
     8
 73
     4
 74
     0
 42
0.0000000001
 43
0.0000000001
 40
0.0
 40
0.0
 40
0.0
 40
0.0
 40
1.0
 40
1.0
 40
1.0
 40
1.0
 10
25.981
 20
1.0182
 30
0.0
 10
25.981
 20
1.0182
 30
0.0
 10
25.981
 20
-1.6418
 30
0.0
 10
25.981
 20
-1.6418
 30
0.0
  0
SPLINE
  5
87
330
1F
100
AcDbEntity
  8
ROUND
 62
   250
370
    30
100
AcDbSpline
210
0.0
220
0.0
230
1.0
 70
    24
 71
     3
 72
     8
 73
     4
 74
     0
 42
0.0000000001
 43
0.0000000001
 40
0.0
 40
0.0
 40
0.0
 40
0.0
 40
1.0
 40
1.0
 40
1.0
 40
1.0
 10
25.8859
 20
-1.6418
 30
0.0
 10
25.8859
 20
-1.6418
 30
0.0
 10
25.981
 20
-1.6418
 30
0.0
 10
25.981
 20
-1.6418
 30
0.0
  0
SPLINE
  5
88
330
1F
100
AcDbEntity
  8
ROUND
 62
   250
370
    30
100
AcDbSpline
210
0.0
220
0.0
230
1.0
 70
    24
 71
     3
 72
     8
 73
     4
 74
     0
 42
0.0000000001
 43
0.0000000001
 40
0.0
 40
0.0
 40
0.0
 40
0.0
 40
1.0
 40
1.0
 40
1.0
 40
1.0
 10
15.5309
 20
-1.6418
 30
0.0
 10
15.5309
 20
-1.6418
 30
0.0
 10
15.6259
 20
-1.6418
 30
0.0
 10
15.6259
 20
-1.6418
 30
0.0
  0
SPLINE
  5
89
330
1F
100
AcDbEntity
  8
ROUND
 62
   250
370
    30
100
AcDbSpline
210
0.0
220
0.0
230
1.0
 70
    24
 71
     3
 72
     8
 73
     4
 74
     0
 42
0.0000000001
 43
0.0000000001
 40
0.0
 40
0.0
 40
0.0
 40
0.0
 40
1.0
 40
1.0
 40
1.0
 40
1.0
 10
15.5309
 20
-1.6418
 30
0.0
 10
15.5309
 20
-1.6418
 30
0.0
 10
15.5309
 20
1.0182
 30
0.0
 10
15.5309
 20
1.0182
 30
0.0
  0
SPLINE
  5
8A
330
1F
100
AcDbEntity
  8
ROUND
 62
   250
370
    30
100
AcDbSpline
210
0.0
220
0.0
230
1.0
 70
    24
 71
     3
 72
     8
 73
     4
 74
     0
 42
0.0000000001
 43
0.0000000001
 40
0.0
 40
0.0
 40
0.0
 40
0.0
 40
1.0
 40
1.0
 40
1.0
 40
1.0
 10
21.136
 20
-1.2618
 30
0.0
 10
21.136
 20
-1.2618
 30
0.0
 10
21.1318
 20
-1.3182
 30
0.0
 10
21.1318
 20
-1.3182
 30
0.0
  0
SPLINE
  5
8B
330
1F
100
AcDbEntity
  8
ROUND
 62
   250
370
    30
100
AcDbSpline
210
0.0
220
0.0
230
1.0
 70
     8
 71
     3
 72
    12
 73
     8
 74
     0
 42
0.0000000001
 43
0.0000000001
 40
0.0
 40
0.0
 40
0.0
 40
0.0
 40
0.3333333333333333
 40
0.3333333333333333
 40
0.3333333333333333
 40
0.3333333333333333
 40
1.0
 40
1.0
 40
1.0
 40
1.0
 10
5.8385
 20
2.3471
 30
0.0
 10
5.8962
 20
2.3478
 30
0.0
 10
5.9538
 20
2.3548
 30
0.0
 10
6.0076
 20
2.3296
 30
0.0
 10
6.0076
 20
2.3296
 30
0.0
 10
6.1385
 20
2.2681
 30
0.0
 10
6.1836
 20
2.1005
 30
0.0
 10
6.1845
 20
1.9681
 30
0.0
  0
SPLINE
  5
8C
330
1F
100
AcDbEntity
  8
ROUND
 62
   250
370
    30
100
AcDbSpline
210
0.0
220
0.0
230
1.0
 70
    24
 71
     3
 72
    16
 73
    12
 74
     0
 42
0.0000000001
 43
0.0000000001
 40
0.0
 40
0.0
 40
0.0
 40
0.0
 40
0.25
 40
0.25
 40
0.25
 40
0.25
 40
0.5
 40
0.5
 40
0.5
 40
0.5
 40
1.0
 40
1.0
 40
1.0
 40
1.0
 10
6.1845
 20
1.9681
 30
0.0
 10
6.1845
 20
1.9681
 30
0.0
 10
6.1845
 20
1.5882
 30
0.0
 10
6.1845
 20
1.5882
 30
0.0
 10
6.1845
 20
1.5882
 30
0.0
 10
6.1845
 20
1.5882
 30
0.0
 10
6.1845
 20
0.6382
 30
0.0
 10
6.1845
 20
0.6382
 30
0.0
 10
6.1845
 20
0.6382
 30
0.0
 10
6.1845
 20
0.6382
 30
0.0
 10
6.1845
 20
0.2581
 30
0.0
 10
6.1845
 20
0.2581
 30
0.0
  0
SPLINE
  5
8D
330
1F
100
AcDbEntity
  8
ROUND
 62
   250
370
    30
100
AcDbSpline
210
0.0
220
0.0
230
1.0
 70
    24
 71
     3
 72
     8
 73
     4
 74
     0
 42
0.0000000001
 43
0.0000000001
 40
0.0
 40
0.0
 40
0.0
 40
0.0
 40
1.0
 40
1.0
 40
1.0
 40
1.0
 10
7.361
 20
2.3482
 30
0.0
 10
7.361
 20
2.3482
 30
0.0
 10
7.361
 20
2.5856
 30
0.0
 10
7.361
 20
2.5856
 30
0.0
  0
SPLINE
  5
8E
330
1F
100
AcDbEntity
  8
ROUND
 62
   250
370
    30
100
AcDbSpline
210
0.0
220
0.0
230
1.0
 70
     8
 71
     3
 72
    16
 73
    12
 74
     0
 42
0.0000000001
 43
0.0000000001
 40
0.0
 40
0.0
 40
0.0
 40
0.0
 40
0.25
 40
0.25
 40
0.25
 40
0.25
 40
0.5
 40
0.5
 40
0.5
 40
0.5
 40
1.0
 40
1.0
 40
1.0
 40
1.0
 10
7.361
 20
2.5856
 30
0.0
 10
7.361
 20
2.7878
 30
0.0
 10
7.3873
 20
2.9975
 30
0.0
 10
7.2045
 20
3.1305
 30
0.0
 10
7.2045
 20
3.1305
 30
0.0
 10
7.1722
 20
3.1539
 30
0.0
 10
7.1364
 20
3.1722
 30
0.0
 10
7.0984
 20
3.1846
 30
0.0
 10
7.0984
 20
3.1846
 30
0.0
 10
7.0592
 20
3.1973
 30
0.0
 10
7.0222
 20
3.2027
 30
0.0
 10
6.981
 20
3.2032
 30
0.0
  0
SPLINE
  5
8F
330
1F
100
AcDbEntity
  8
ROUND
 62
   250
370
    30
100
AcDbSpline
210
0.0
220
0.0
230
1.0
 70
    24
 71
     3
 72
    16
 73
    12
 74
     0
 42
0.0000000001
 43
0.0000000001
 40
0.0
 40
0.0
 40
0.0
 40
0.0
 40
0.25
 40
0.25
 40
0.25
 40
0.25
 40
0.5
 40
0.5
 40
0.5
 40
0.5
 40
1.0
 40
1.0
 40
1.0
 40
1.0
 10
6.981
 20
3.2032
 30
0.0
 10
6.981
 20
3.2032
 30
0.0
 10
6.601
 20
3.2032
 30
0.0
 10
6.601
 20
3.2032
 30
0.0
 10
6.601
 20
3.2032
 30
0.0
 10
6.601
 20
3.2032
 30
0.0
 10
-2.1391
 20
3.2032
 30
0.0
 10
-2.1391
 20
3.2032
 30
0.0
 10
-2.1391
 20
3.2032
 30
0.0
 10
-2.1391
 20
3.2032
 30
0.0
 10
-2.519
 20
3.2032
 30
0.0
 10
-2.519
 20
3.2032
 30
0.0
  0
SPLINE
  5
90
330
1F
100
AcDbEntity
  8
ROUND
 62
   250
370
    30
100
AcDbSpline
210
0.0
220
0.0
230
1.0
 70
     8
 71
     3
 72
    16
 73
    12
 74
     0
 42
0.0000000001
 43
0.0000000001
 40
0.0
 40
0.0
 40
0.0
 40
0.0
 40
0.25
 40
0.25
 40
0.25
 40
0.25
 40
0.5
 40
0.5
 40
0.5
 40
0.5
 40
1.0
 40
1.0
 40
1.0
 40
1.0
 10
-2.519
 20
3.2032
 30
0.0
 10
-2.5717
 20
3.199
 30
0.0
 10
-2.5858
 20
3.201
 30
0.0
 10
-2.6365
 20
3.1846
 30
0.0
 10
-2.6365
 20
3.1846
 30
0.0
 10
-2.6745
 20
3.1722
 30
0.0
 10
-2.7102
 20
3.1539
 30
0.0
 10
-2.7425
 20
3.1305
 30
0.0
 10
-2.7425
 20
3.1305
 30
0.0
 10
-2.9254
 20
2.9975
 30
0.0
 10
-2.899
 20
2.7878
 30
0.0
 10
-2.899
 20
2.5856
 30
0.0
  0
SPLINE
  5
91
330
1F
100
AcDbEntity
  8
ROUND
 62
   250
370
    30
100
AcDbSpline
210
0.0
220
0.0
230
1.0
 70
    24
 71
     3
 72
     8
 73
     4
 74
     0
 42
0.0000000001
 43
0.0000000001
 40
0.0
 40
0.0
 40
0.0
 40
0.0
 40
1.0
 40
1.0
 40
1.0
 40
1.0
 10
-2.899
 20
2.5856
 30
0.0
 10
-2.899
 20
2.5856
 30
0.0
 10
-2.899
 20
2.3482
 30
0.0
 10
-2.899
 20
2.3482
 30
0.0
  0
SPLINE
  5
92
330
1F
100
AcDbEntity
  8
ROUND
 62
   250
370
    30
100
AcDbSpline
210
0.0
220
0.0
230
1.0
 70
     8
 71
     3
 72
    20
 73
    16
 74
     0
 42
0.0000000001
 43
0.0000000001
 40
0.0
 40
0.0
 40
0.0
 40
0.0
 40
0.2
 40
0.2
 40
0.2
 40
0.2
 40
0.4
 40
0.4
 40
0.4
 40
0.4
 40
0.6
 40
0.6
 40
0.6
 40
0.6
 40
1.0
 40
1.0
 40
1.0
 40
1.0
 10
1.851
 20
0.2581
 30
0.0
 10
1.851
 20
0.2581
 30
0.0
 10
1.851
 20
0.6382
 30
0.0
 10
1.851
 20
0.6382
 30
0.0
 10
1.851
 20
0.6382
 30
0.0
 10
1.851
 20
0.6382
 30
0.0
 10
1.851
 20
1.5882
 30
0.0
 10
1.851
 20
1.5882
 30
0.0
 10
1.851
 20
1.5882
 30
0.0
 10
1.851
 20
1.5882
 30
0.0
 10
1.851
 20
1.9681
 30
0.0
 10
1.851
 20
1.9681
 30
0.0
 10
1.851
 20
1.9681
 30
0.0
 10
1.851
 20
1.9681
 30
0.0
 10
1.8556
 20
2.0275
 30
0.0
 10
1.8556
 20
2.0275
 30
0.0
  0
SPLINE
  5
93
330
1F
100
AcDbEntity
  8
ROUND
 62
   250
370
    30
100
AcDbSpline
210
0.0
220
0.0
230
1.0
 70
     8
 71
     3
 72
    16
 73
    12
 74
     0
 42
0.0000000001
 43
0.0000000001
 40
0.0
 40
0.0
 40
0.0
 40
0.0
 40
0.25
 40
0.25
 40
0.25
 40
0.25
 40
0.5
 40
0.5
 40
0.5
 40
0.5
 40
1.0
 40
1.0
 40
1.0
 40
1.0
 10
1.855
 20
2.0246
 30
0.0
 10
1.8818
 20
2.1412
 30
0.0
 10
1.9364
 20
2.2333
 30
0.0
 10
2.0404
 20
2.2969
 30
0.0
 10
2.0404
 20
2.2969
 30
0.0
 10
2.2187
 20
2.4062
 30
0.0
 10
2.4909
 20
2.332
 30
0.0
 10
2.5731
 20
2.1334
 30
0.0
 10
2.5731
 20
2.1334
 30
0.0
 10
2.6438
 20
1.9626
 30
0.0
 10
2.6109
 20
1.7668
 30
0.0
 10
2.6109
 20
1.5882
 30
0.0
  0
SPLINE
  5
94
330
1F
100
AcDbEntity
  8
ROUND
 62
   250
370
    30
100
AcDbSpline
210
0.0
220
0.0
230
1.0
 70
    24
 71
     3
 72
    12
 73
     8
 74
     0
 42
0.0000000001
 43
0.0000000001
 40
0.0
 40
0.0
 40
0.0
 40
0.0
 40
0.3333333333333333
 40
0.3333333333333333
 40
0.3333333333333333
 40
0.3333333333333333
 40
1.0
 40
1.0
 40
1.0
 40
1.0
 10
2.6109
 20
1.5882
 30
0.0
 10
2.6109
 20
1.5882
 30
0.0
 10
2.6109
 20
0.6382
 30
0.0
 10
2.6109
 20
0.6382
 30
0.0
 10
2.6109
 20
0.6382
 30
0.0
 10
2.6109
 20
0.6382
 30
0.0
 10
2.6109
 20
0.2581
 30
0.0
 10
2.6109
 20
0.2581
 30
0.0
  0
SPLINE
  5
95
330
1F
100
AcDbEntity
  8
ROUND
 62
   250
370
    30
100
AcDbSpline
210
0.0
220
0.0
230
1.0
 70
    24
 71
     3
 72
    16
 73
    12
 74
     0
 42
0.0000000001
 43
0.0000000001
 40
0.0
 40
0.0
 40
0.0
 40
0.0
 40
0.25
 40
0.25
 40
0.25
 40
0.25
 40
0.5
 40
0.5
 40
0.5
 40
0.5
 40
1.0
 40
1.0
 40
1.0
 40
1.0
 10
-1.7226
 20
0.2581
 30
0.0
 10
-1.7226
 20
0.2581
 30
0.0
 10
-1.7226
 20
0.6382
 30
0.0
 10
-1.7226
 20
0.6382
 30
0.0
 10
-1.7226
 20
0.6382
 30
0.0
 10
-1.7226
 20
0.6382
 30
0.0
 10
-1.7226
 20
1.5882
 30
0.0
 10
-1.7226
 20
1.5882
 30
0.0
 10
-1.7226
 20
1.5882
 30
0.0
 10
-1.7226
 20
1.5882
 30
0.0
 10
-1.7226
 20
1.9681
 30
0.0
 10
-1.7226
 20
1.9681
 30
0.0
  0
SPLINE
  5
96
330
1F
100
AcDbEntity
  8
ROUND
 62
   250
370
    30
100
AcDbSpline
210
0.0
220
0.0
230
1.0
 70
     8
 71
     3
 72
    12
 73
     8
 74
     0
 42
0.0000000001
 43
0.0000000001
 40
0.0
 40
0.0
 40
0.0
 40
0.0
 40
0.3333333333333333
 40
0.3333333333333333
 40
0.3333333333333333
 40
0.3333333333333333
 40
1.0
 40
1.0
 40
1.0
 40
1.0
 10
-1.7226
 20
1.9681
 30
0.0
 10
-1.7216
 20
2.1004
 30
0.0
 10
-1.6766
 20
2.2681
 30
0.0
 10
-1.5457
 20
2.3296
 30
0.0
 10
-1.5457
 20
2.3296
 30
0.0
 10
-1.4918
 20
2.3548
 30
0.0
 10
-1.4343
 20
2.3478
 30
0.0
 10
-1.3765
 20
2.3471
 30
0.0
  0
SPLINE
  5
97
330
1F
100
AcDbEntity
  8
ROUND
 62
   250
370
    30
100
AcDbSpline
210
0.0
220
0.0
230
1.0
 70
     8
 71
     3
 72
     8
 73
     4
 74
     0
 42
0.0000000001
 43
0.0000000001
 40
0.0
 40
0.0
 40
0.0
 40
0.0
 40
1.0
 40
1.0
 40
1.0
 40
1.0
 10
-2.9802
 20
0.2581
 30
0.0
 10
-2.9802
 20
0.9539
 30
0.0
 10
-2.9538
 20
1.653
 30
0.0
 10
-2.9941
 20
2.3482
 30
0.0
  0
SPLINE
  5
98
330
1F
100
AcDbEntity
  8
ROUND
 62
   250
370
    30
100
AcDbSpline
210
0.0
220
0.0
230
1.0
 70
     8
 71
     3
 72
     8
 73
     4
 74
     0
 42
0.0000000001
 43
0.0000000001
 40
0.0
 40
0.0
 40
0.0
 40
0.0
 40
1.0
 40
1.0
 40
1.0
 40
1.0
 10
-2.885
 20
0.2581
 30
0.0
 10
-2.885
 20
0.954
 30
0.0
 10
-2.8592
 20
1.653
 30
0.0
 10
-2.899
 20
2.3482
 30
0.0
  0
SPLINE
  5
99
330
1F
100
AcDbEntity
  8
ROUND
 62
   250
370
    30
100
AcDbSpline
210
0.0
220
0.0
230
1.0
 70
    24
 71
     3
 72
    12
 73
     8
 74
     0
 42
0.0000000001
 43
0.0000000001
 40
0.0
 40
0.0
 40
0.0
 40
0.0
 40
0.3333333333333333
 40
0.3333333333333333
 40
0.3333333333333333
 40
0.3333333333333333
 40
1.0
 40
1.0
 40
1.0
 40
1.0
 10
-1.1852
 20
0.2581
 30
0.0
 10
-1.1852
 20
0.2581
 30
0.0
 10
-1.1852
 20
0.6382
 30
0.0
 10
-1.1852
 20
0.6382
 30
0.0
 10
-1.1852
 20
0.6382
 30
0.0
 10
-1.1852
 20
0.6382
 30
0.0
 10
-1.1852
 20
1.5882
 30
0.0
 10
-1.1852
 20
1.5882
 30
0.0
  0
SPLINE
  5
9A
330
1F
100
AcDbEntity
  8
ROUND
 62
   250
370
    30
100
AcDbSpline
210
0.0
220
0.0
230
1.0
 70
     8
 71
     3
 72
     8
 73
     4
 74
     0
 42
0.0000000001
 43
0.0000000001
 40
0.0
 40
0.0
 40
0.0
 40
0.0
 40
1.0
 40
1.0
 40
1.0
 40
1.0
 10
-1.1852
 20
1.5882
 30
0.0
 10
-1.1852
 20
1.8108
 30
0.0
 10
-1.114
 20
2.3095
 30
0.0
 10
-1.4636
 20
2.3482
 30
0.0
  0
SPLINE
  5
9B
330
1F
100
AcDbEntity
  8
ROUND
 62
   250
370
    30
100
AcDbSpline
210
0.0
220
0.0
230
1.0
 70
    24
 71
     3
 72
    12
 73
     8
 74
     0
 42
0.0000000001
 43
0.0000000001
 40
0.0
 40
0.0
 40
0.0
 40
0.0
 40
0.3333333333333333
 40
0.3333333333333333
 40
0.3333333333333333
 40
0.3333333333333333
 40
1.0
 40
1.0
 40
1.0
 40
1.0
 10
-1.1178
 20
0.2581
 30
0.0
 10
-1.1178
 20
0.2581
 30
0.0
 10
-1.1178
 20
0.6382
 30
0.0
 10
-1.1178
 20
0.6382
 30
0.0
 10
-1.1178
 20
0.6382
 30
0.0
 10
-1.1178
 20
0.6382
 30
0.0
 10
-1.1178
 20
1.5882
 30
0.0
 10
-1.1178
 20
1.5882
 30
0.0
  0
SPLINE
  5
9C
330
1F
100
AcDbEntity
  8
ROUND
 62
   250
370
    30
100
AcDbSpline
210
0.0
220
0.0
230
1.0
 70
     8
 71
     3
 72
     8
 73
     4
 74
     0
 42
0.0000000001
 43
0.0000000001
 40
0.0
 40
0.0
 40
0.0
 40
0.0
 40
1.0
 40
1.0
 40
1.0
 40
1.0
 10
-1.1178
 20
1.5882
 30
0.0
 10
-1.1178
 20
1.8163
 30
0.0
 10
-1.0467
 20
2.2781
 30
0.0
 10
-1.3765
 20
2.3471
 30
0.0
  0
SPLINE
  5
9D
330
1F
100
AcDbEntity
  8
ROUND
 62
   250
370
    30
100
AcDbSpline
210
0.0
220
0.0
230
1.0
 70
     8
 71
     3
 72
    12
 73
     8
 74
     0
 42
0.0000000001
 43
0.0000000001
 40
0.0
 40
0.0
 40
0.0
 40
0.0
 40
0.3333333333333333
 40
0.3333333333333333
 40
0.3333333333333333
 40
0.3333333333333333
 40
1.0
 40
1.0
 40
1.0
 40
1.0
 10
2.6109
 20
1.9681
 30
0.0
 10
2.5937
 20
2.1872
 30
0.0
 10
2.45
 20
2.3309
 30
0.0
 10
2.231
 20
2.3482
 30
0.0
 10
2.231
 20
2.3482
 30
0.0
 10
2.0342
 20
2.3327
 30
0.0
 10
1.9017
 20
2.2194
 30
0.0
 10
1.8556
 20
2.0275
 30
0.0
  0
SPLINE
  5
9E
330
1F
100
AcDbEntity
  8
ROUND
 62
   250
370
    30
100
AcDbSpline
210
0.0
220
0.0
230
1.0
 70
     8
 71
     3
 72
     8
 73
     4
 74
     0
 42
0.0000000001
 43
0.0000000001
 40
0.0
 40
0.0
 40
0.0
 40
0.0
 40
1.0
 40
1.0
 40
1.0
 40
1.0
 10
5.8385
 20
2.3471
 30
0.0
 10
5.5086
 20
2.2784
 30
0.0
 10
5.5798
 20
1.8162
 30
0.0
 10
5.5798
 20
1.5882
 30
0.0
  0
SPLINE
  5
9F
330
1F
100
AcDbEntity
  8
ROUND
 62
   250
370
    30
100
AcDbSpline
210
0.0
220
0.0
230
1.0
 70
    24
 71
     3
 72
    12
 73
     8
 74
     0
 42
0.0000000001
 43
0.0000000001
 40
0.0
 40
0.0
 40
0.0
 40
0.0
 40
0.3333333333333333
 40
0.3333333333333333
 40
0.3333333333333333
 40
0.3333333333333333
 40
1.0
 40
1.0
 40
1.0
 40
1.0
 10
5.5798
 20
1.5882
 30
0.0
 10
5.5798
 20
1.5882
 30
0.0
 10
5.5798
 20
0.6382
 30
0.0
 10
5.5798
 20
0.6382
 30
0.0
 10
5.5798
 20
0.6382
 30
0.0
 10
5.5798
 20
0.6382
 30
0.0
 10
5.5798
 20
0.2581
 30
0.0
 10
5.5798
 20
0.2581
 30
0.0
  0
SPLINE
  5
A0
330
1F
100
AcDbEntity
  8
ROUND
 62
   250
370
    30
100
AcDbSpline
210
0.0
220
0.0
230
1.0
 70
     8
 71
     3
 72
     8
 73
     4
 74
     0
 42
0.0000000001
 43
0.0000000001
 40
0.0
 40
0.0
 40
0.0
 40
0.0
 40
1.0
 40
1.0
 40
1.0
 40
1.0
 10
5.9256
 20
2.3482
 30
0.0
 10
5.576
 20
2.3091
 30
0.0
 10
5.6471
 20
1.8112
 30
0.0
 10
5.6471
 20
1.5882
 30
0.0
  0
SPLINE
  5
A1
330
1F
100
AcDbEntity
  8
ROUND
 62
   250
370
    30
100
AcDbSpline
210
0.0
220
0.0
230
1.0
 70
    24
 71
     3
 72
    12
 73
     8
 74
     0
 42
0.0000000001
 43
0.0000000001
 40
0.0
 40
0.0
 40
0.0
 40
0.0
 40
0.3333333333333333
 40
0.3333333333333333
 40
0.3333333333333333
 40
0.3333333333333333
 40
1.0
 40
1.0
 40
1.0
 40
1.0
 10
5.6471
 20
1.5882
 30
0.0
 10
5.6471
 20
1.5882
 30
0.0
 10
5.6471
 20
0.6382
 30
0.0
 10
5.6471
 20
0.6382
 30
0.0
 10
5.6471
 20
0.6382
 30
0.0
 10
5.6471
 20
0.6382
 30
0.0
 10
5.6471
 20
0.2581
 30
0.0
 10
5.6471
 20
0.2581
 30
0.0
  0
SPLINE
  5
A2
330
1F
100
AcDbEntity
  8
ROUND
 62
   250
370
    30
100
AcDbSpline
210
0.0
220
0.0
230
1.0
 70
     8
 71
     3
 72
     8
 73
     4
 74
     0
 42
0.0000000001
 43
0.0000000001
 40
0.0
 40
0.0
 40
0.0
 40
0.0
 40
1.0
 40
1.0
 40
1.0
 40
1.0
 10
7.361
 20
2.3482
 30
0.0
 10
7.3437
 20
2.0948
 30
0.0
 10
7.3469
 20
1.8422
 30
0.0
 10
7.3469
 20
1.5882
 30
0.0
  0
SPLINE
  5
A3
330
1F
100
AcDbEntity
  8
ROUND
 62
   250
370
    30
100
AcDbSpline
210
0.0
220
0.0
230
1.0
 70
    24
 71
     3
 72
    12
 73
     8
 74
     0
 42
0.0000000001
 43
0.0000000001
 40
0.0
 40
0.0
 40
0.0
 40
0.0
 40
0.3333333333333333
 40
0.3333333333333333
 40
0.3333333333333333
 40
0.3333333333333333
 40
1.0
 40
1.0
 40
1.0
 40
1.0
 10
7.3469
 20
1.5882
 30
0.0
 10
7.3469
 20
1.5882
 30
0.0
 10
7.3469
 20
0.6382
 30
0.0
 10
7.3469
 20
0.6382
 30
0.0
 10
7.3469
 20
0.6382
 30
0.0
 10
7.3469
 20
0.6382
 30
0.0
 10
7.3469
 20
0.2581
 30
0.0
 10
7.3469
 20
0.2581
 30
0.0
  0
SPLINE
  5
A4
330
1F
100
AcDbEntity
  8
ROUND
 62
   250
370
    30
100
AcDbSpline
210
0.0
220
0.0
230
1.0
 70
     8
 71
     3
 72
     8
 73
     4
 74
     0
 42
0.0000000001
 43
0.0000000001
 40
0.0
 40
0.0
 40
0.0
 40
0.0
 40
1.0
 40
1.0
 40
1.0
 40
1.0
 10
7.456
 20
2.3482
 30
0.0
 10
7.4426
 20
2.133
 30
0.0
 10
7.4433
 20
1.922
 30
0.0
 10
7.4432
 20
1.7055
 30
0.0
  0
SPLINE
  5
A5
330
1F
100
AcDbEntity
  8
ROUND
 62
   250
370
    30
100
AcDbSpline
210
0.0
220
0.0
230
1.0
 70
     8
 71
     3
 72
    12
 73
     8
 74
     0
 42
0.0000000001
 43
0.0000000001
 40
0.0
 40
0.0
 40
0.0
 40
0.0
 40
0.3333333333333333
 40
0.3333333333333333
 40
0.3333333333333333
 40
0.3333333333333333
 40
1.0
 40
1.0
 40
1.0
 40
1.0
 10
7.4432
 20
1.7055
 30
0.0
 10
7.4432
 20
1.7055
 30
0.0
 10
7.4424
 20
0.6382
 30
0.0
 10
7.4424
 20
0.6382
 30
0.0
 10
7.4424
 20
0.6382
 30
0.0
 10
7.4424
 20
0.6382
 30
0.0
 10
7.4421
 20
0.2581
 30
0.0
 10
7.4421
 20
0.2581
 30
0.0
  0
SPLINE
  5
A6
330
1F
100
AcDbEntity
  8
ROUND
 62
   250
370
    30
100
AcDbSpline
210
0.0
220
0.0
230
1.0
 70
    24
 71
     3
 72
    12
 73
     8
 74
     0
 42
0.0000000001
 43
0.0000000001
 40
0.0
 40
0.0
 40
0.0
 40
0.0
 40
0.3333333333333333
 40
0.3333333333333333
 40
0.3333333333333333
 40
0.3333333333333333
 40
1.0
 40
1.0
 40
1.0
 40
1.0
 10
20.3759
 20
0.4482
 30
0.0
 10
20.3759
 20
0.4482
 30
0.0
 10
20.3759
 20
0.0681
 30
0.0
 10
20.3759
 20
0.0681
 30
0.0
 10
20.3759
 20
0.0681
 30
0.0
 10
20.3759
 20
0.0681
 30
0.0
 10
20.3759
 20
-0.8819
 30
0.0
 10
20.3759
 20
-0.8819
 30
0.0
  0
SPLINE
  5
A7
330
1F
100
AcDbEntity
  8
ROUND
 62
   250
370
    30
100
AcDbSpline
210
0.0
220
0.0
230
1.0
 70
     8
 71
     3
 72
    16
 73
    12
 74
     0
 42
0.0000000001
 43
0.0000000001
 40
0.0
 40
0.0
 40
0.0
 40
0.0
 40
0.25
 40
0.25
 40
0.25
 40
0.25
 40
0.5
 40
0.5
 40
0.5
 40
0.5
 40
1.0
 40
1.0
 40
1.0
 40
1.0
 10
20.3759
 20
-0.8819
 30
0.0
 10
20.3759
 20
-1.0655
 30
0.0
 10
20.3426
 20
-1.2548
 30
0.0
 10
20.4138
 20
-1.4271
 30
0.0
 10
20.4138
 20
-1.4271
 30
0.0
 10
20.496
 20
-1.6256
 30
0.0
 10
20.7682
 20
-1.6998
 30
0.0
 10
20.9465
 20
-1.5906
 30
0.0
 10
20.9465
 20
-1.5906
 30
0.0
 10
21.0504
 20
-1.5269
 30
0.0
 10
21.1051
 20
-1.4349
 30
0.0
 10
21.1318
 20
-1.3182
 30
0.0
  0
SPLINE
  5
A8
330
1F
100
AcDbEntity
  8
ROUND
 62
   250
370
    30
100
AcDbSpline
210
0.0
220
0.0
230
1.0
 70
     8
 71
     3
 72
    20
 73
    16
 74
     0
 42
0.0000000001
 43
0.0000000001
 40
0.0
 40
0.0
 40
0.0
 40
0.0
 40
0.2
 40
0.2
 40
0.2
 40
0.2
 40
0.4
 40
0.4
 40
0.4
 40
0.4
 40
0.6
 40
0.6
 40
0.6
 40
0.6
 40
1.0
 40
1.0
 40
1.0
 40
1.0
 10
21.1313
 20
-1.3212
 30
0.0
 10
21.1313
 20
-1.3212
 30
0.0
 10
21.136
 20
-1.2618
 30
0.0
 10
21.136
 20
-1.2618
 30
0.0
 10
21.136
 20
-1.2618
 30
0.0
 10
21.136
 20
-1.2618
 30
0.0
 10
21.136
 20
-0.8819
 30
0.0
 10
21.136
 20
-0.8819
 30
0.0
 10
21.136
 20
-0.8819
 30
0.0
 10
21.136
 20
-0.8819
 30
0.0
 10
21.136
 20
0.0681
 30
0.0
 10
21.136
 20
0.0681
 30
0.0
 10
21.136
 20
0.0681
 30
0.0
 10
21.136
 20
0.0681
 30
0.0
 10
21.136
 20
0.4482
 30
0.0
 10
21.136
 20
0.4482
 30
0.0
  0
SPLINE
  5
A9
330
1F
100
AcDbEntity
  8
ROUND
 62
   250
370
    30
100
AcDbSpline
210
0.0
220
0.0
230
1.0
 70
     8
 71
     3
 72
    12
 73
     8
 74
     0
 42
0.0000000001
 43
0.0000000001
 40
0.0
 40
0.0
 40
0.0
 40
0.0
 40
0.3333333333333333
 40
0.3333333333333333
 40
0.3333333333333333
 40
0.3333333333333333
 40
1.0
 40
1.0
 40
1.0
 40
1.0
 10
24.3635
 20
-1.6408
 30
0.0
 10
24.4213
 20
-1.6414
 30
0.0
 10
24.4788
 20
-1.6485
 30
0.0
 10
24.5327
 20
-1.6233
 30
0.0
 10
24.5327
 20
-1.6233
 30
0.0
 10
24.6635
 20
-1.5618
 30
0.0
 10
24.7086
 20
-1.3942
 30
0.0
 10
24.7095
 20
-1.2618
 30
0.0
  0
SPLINE
  5
AA
330
1F
100
AcDbEntity
  8
ROUND
 62
   250
370
    30
100
AcDbSpline
210
0.0
220
0.0
230
1.0
 70
    24
 71
     3
 72
    16
 73
    12
 74
     0
 42
0.0000000001
 43
0.0000000001
 40
0.0
 40
0.0
 40
0.0
 40
0.0
 40
0.25
 40
0.25
 40
0.25
 40
0.25
 40
0.5
 40
0.5
 40
0.5
 40
0.5
 40
1.0
 40
1.0
 40
1.0
 40
1.0
 10
24.7095
 20
-1.2618
 30
0.0
 10
24.7095
 20
-1.2618
 30
0.0
 10
24.7095
 20
-0.8819
 30
0.0
 10
24.7095
 20
-0.8819
 30
0.0
 10
24.7095
 20
-0.8819
 30
0.0
 10
24.7095
 20
-0.8819
 30
0.0
 10
24.7095
 20
0.0681
 30
0.0
 10
24.7095
 20
0.0681
 30
0.0
 10
24.7095
 20
0.0681
 30
0.0
 10
24.7095
 20
0.0681
 30
0.0
 10
24.7095
 20
0.4482
 30
0.0
 10
24.7095
 20
0.4482
 30
0.0
  0
SPLINE
  5
AB
330
1F
100
AcDbEntity
  8
ROUND
 62
   250
370
    30
100
AcDbSpline
210
0.0
220
0.0
230
1.0
 70
    24
 71
     3
 72
     8
 73
     4
 74
     0
 42
0.0000000001
 43
0.0000000001
 40
0.0
 40
0.0
 40
0.0
 40
0.0
 40
1.0
 40
1.0
 40
1.0
 40
1.0
 10
25.8859
 20
-1.6418
 30
0.0
 10
25.8859
 20
-1.6418
 30
0.0
 10
25.8859
 20
-1.8794
 30
0.0
 10
25.8859
 20
-1.8794
 30
0.0
  0
SPLINE
  5
AC
330
1F
100
AcDbEntity
  8
ROUND
 62
   250
370
    30
100
AcDbSpline
210
0.0
220
0.0
230
1.0
 70
     8
 71
     3
 72
    16
 73
    12
 74
     0
 42
0.0000000001
 43
0.0000000001
 40
0.0
 40
0.0
 40
0.0
 40
0.0
 40
0.25
 40
0.25
 40
0.25
 40
0.25
 40
0.5
 40
0.5
 40
0.5
 40
0.5
 40
1.0
 40
1.0
 40
1.0
 40
1.0
 10
25.8859
 20
-1.8794
 30
0.0
 10
25.8859
 20
-2.0814
 30
0.0
 10
25.9123
 20
-2.2911
 30
0.0
 10
25.7294
 20
-2.4242
 30
0.0
 10
25.7294
 20
-2.4242
 30
0.0
 10
25.6971
 20
-2.4476
 30
0.0
 10
25.6615
 20
-2.4659
 30
0.0
 10
25.6235
 20
-2.4783
 30
0.0
 10
25.6235
 20
-2.4783
 30
0.0
 10
25.5727
 20
-2.4946
 30
0.0
 10
25.5585
 20
-2.4926
 30
0.0
 10
25.506
 20
-2.4968
 30
0.0
  0
SPLINE
  5
AD
330
1F
100
AcDbEntity
  8
ROUND
 62
   250
370
    30
100
AcDbSpline
210
0.0
220
0.0
230
1.0
 70
    24
 71
     3
 72
    16
 73
    12
 74
     0
 42
0.0000000001
 43
0.0000000001
 40
0.0
 40
0.0
 40
0.0
 40
0.0
 40
0.25
 40
0.25
 40
0.25
 40
0.25
 40
0.5
 40
0.5
 40
0.5
 40
0.5
 40
1.0
 40
1.0
 40
1.0
 40
1.0
 10
25.506
 20
-2.4968
 30
0.0
 10
25.506
 20
-2.4968
 30
0.0
 10
25.1259
 20
-2.4968
 30
0.0
 10
25.1259
 20
-2.4968
 30
0.0
 10
25.1259
 20
-2.4968
 30
0.0
 10
25.1259
 20
-2.4968
 30
0.0
 10
16.386
 20
-2.4968
 30
0.0
 10
16.386
 20
-2.4968
 30
0.0
 10
16.386
 20
-2.4968
 30
0.0
 10
16.386
 20
-2.4968
 30
0.0
 10
16.0059
 20
-2.4968
 30
0.0
 10
16.0059
 20
-2.4968
 30
0.0
  0
SPLINE
  5
AE
330
1F
100
AcDbEntity
  8
ROUND
 62
   250
370
    30
100
AcDbSpline
210
0.0
220
0.0
230
1.0
 70
     8
 71
     3
 72
    16
 73
    12
 74
     0
 42
0.0000000001
 43
0.0000000001
 40
0.0
 40
0.0
 40
0.0
 40
0.0
 40
0.25
 40
0.25
 40
0.25
 40
0.25
 40
0.5
 40
0.5
 40
0.5
 40
0.5
 40
1.0
 40
1.0
 40
1.0
 40
1.0
 10
16.0059
 20
-2.4968
 30
0.0
 10
15.9647
 20
-2.4964
 30
0.0
 10
15.9278
 20
-2.491
 30
0.0
 10
15.8885
 20
-2.4783
 30
0.0
 10
15.8885
 20
-2.4783
 30
0.0
 10
15.8506
 20
-2.4659
 30
0.0
 10
15.8147
 20
-2.4476
 30
0.0
 10
15.7825
 20
-2.4242
 30
0.0
 10
15.7825
 20
-2.4242
 30
0.0
 10
15.5996
 20
-2.2911
 30
0.0
 10
15.6259
 20
-2.0814
 30
0.0
 10
15.6259
 20
-1.8794
 30
0.0
  0
SPLINE
  5
AF
330
1F
100
AcDbEntity
  8
ROUND
 62
   250
370
    30
100
AcDbSpline
210
0.0
220
0.0
230
1.0
 70
    24
 71
     3
 72
     8
 73
     4
 74
     0
 42
0.0000000001
 43
0.0000000001
 40
0.0
 40
0.0
 40
0.0
 40
0.0
 40
1.0
 40
1.0
 40
1.0
 40
1.0
 10
15.6259
 20
-1.8794
 30
0.0
 10
15.6259
 20
-1.8794
 30
0.0
 10
15.6259
 20
-1.6418
 30
0.0
 10
15.6259
 20
-1.6418
 30
0.0
  0
SPLINE
  5
B0
330
1F
100
AcDbEntity
  8
ROUND
 62
   250
370
    30
100
AcDbSpline
210
0.0
220
0.0
230
1.0
 70
    24
 71
     3
 72
    16
 73
    12
 74
     0
 42
0.0000000001
 43
0.0000000001
 40
0.0
 40
0.0
 40
0.0
 40
0.0
 40
0.25
 40
0.25
 40
0.25
 40
0.25
 40
0.5
 40
0.5
 40
0.5
 40
0.5
 40
1.0
 40
1.0
 40
1.0
 40
1.0
 10
16.8024
 20
0.4482
 30
0.0
 10
16.8024
 20
0.4482
 30
0.0
 10
16.8024
 20
0.0681
 30
0.0
 10
16.8024
 20
0.0681
 30
0.0
 10
16.8024
 20
0.0681
 30
0.0
 10
16.8024
 20
0.0681
 30
0.0
 10
16.8024
 20
-0.8819
 30
0.0
 10
16.8024
 20
-0.8819
 30
0.0
 10
16.8024
 20
-0.8819
 30
0.0
 10
16.8024
 20
-0.8819
 30
0.0
 10
16.8024
 20
-1.2618
 30
0.0
 10
16.8024
 20
-1.2618
 30
0.0
  0
SPLINE
  5
B1
330
1F
100
AcDbEntity
  8
ROUND
 62
   250
370
    30
100
AcDbSpline
210
0.0
220
0.0
230
1.0
 70
     8
 71
     3
 72
    12
 73
     8
 74
     0
 42
0.0000000001
 43
0.0000000001
 40
0.0
 40
0.0
 40
0.0
 40
0.0
 40
0.3333333333333333
 40
0.3333333333333333
 40
0.3333333333333333
 40
0.3333333333333333
 40
1.0
 40
1.0
 40
1.0
 40
1.0
 10
16.8024
 20
-1.2618
 30
0.0
 10
16.8034
 20
-1.3942
 30
0.0
 10
16.8483
 20
-1.5618
 30
0.0
 10
16.9793
 20
-1.6233
 30
0.0
 10
16.9793
 20
-1.6233
 30
0.0
 10
17.0331
 20
-1.6485
 30
0.0
 10
17.0908
 20
-1.6414
 30
0.0
 10
17.1483
 20
-1.6408
 30
0.0
  0
SPLINE
  5
B2
330
1F
100
AcDbEntity
  8
ROUND
 62
   250
370
    30
100
AcDbSpline
210
0.0
220
0.0
230
1.0
 70
     8
 71
     3
 72
     8
 73
     4
 74
     0
 42
0.0000000001
 43
0.0000000001
 40
0.0
 40
0.0
 40
0.0
 40
0.0
 40
1.0
 40
1.0
 40
1.0
 40
1.0
 10
15.5448
 20
0.4482
 30
0.0
 10
15.5446
 20
-0.2477
 30
0.0
 10
15.5712
 20
-0.9468
 30
0.0
 10
15.5309
 20
-1.6418
 30
0.0
  0
SPLINE
  5
B3
330
1F
100
AcDbEntity
  8
ROUND
 62
   250
370
    30
100
AcDbSpline
210
0.0
220
0.0
230
1.0
 70
     8
 71
     3
 72
     8
 73
     4
 74
     0
 42
0.0000000001
 43
0.0000000001
 40
0.0
 40
0.0
 40
0.0
 40
0.0
 40
1.0
 40
1.0
 40
1.0
 40
1.0
 10
15.64
 20
0.4482
 30
0.0
 10
15.6399
 20
-0.2477
 30
0.0
 10
15.6656
 20
-0.9467
 30
0.0
 10
15.6259
 20
-1.6418
 30
0.0
  0
SPLINE
  5
B4
330
1F
100
AcDbEntity
  8
ROUND
 62
   250
370
    30
100
AcDbSpline
210
0.0
220
0.0
230
1.0
 70
    24
 71
     3
 72
    12
 73
     8
 74
     0
 42
0.0000000001
 43
0.0000000001
 40
0.0
 40
0.0
 40
0.0
 40
0.0
 40
0.3333333333333333
 40
0.3333333333333333
 40
0.3333333333333333
 40
0.3333333333333333
 40
1.0
 40
1.0
 40
1.0
 40
1.0
 10
17.3398
 20
0.4482
 30
0.0
 10
17.3398
 20
0.4482
 30
0.0
 10
17.3398
 20
0.0681
 30
0.0
 10
17.3398
 20
0.0681
 30
0.0
 10
17.3398
 20
0.0681
 30
0.0
 10
17.3398
 20
0.0681
 30
0.0
 10
17.3398
 20
-0.8819
 30
0.0
 10
17.3398
 20
-0.8819
 30
0.0
  0
SPLINE
  5
B5
330
1F
100
AcDbEntity
  8
ROUND
 62
   250
370
    30
100
AcDbSpline
210
0.0
220
0.0
230
1.0
 70
     8
 71
     3
 72
     8
 73
     4
 74
     0
 42
0.0000000001
 43
0.0000000001
 40
0.0
 40
0.0
 40
0.0
 40
0.0
 40
1.0
 40
1.0
 40
1.0
 40
1.0
 10
17.3398
 20
-0.8819
 30
0.0
 10
17.3398
 20
-1.1049
 30
0.0
 10
17.411
 20
-1.6029
 30
0.0
 10
17.0613
 20
-1.6418
 30
0.0
  0
SPLINE
  5
B6
330
1F
100
AcDbEntity
  8
ROUND
 62
   250
370
    30
100
AcDbSpline
210
0.0
220
0.0
230
1.0
 70
    24
 71
     3
 72
    12
 73
     8
 74
     0
 42
0.0000000001
 43
0.0000000001
 40
0.0
 40
0.0
 40
0.0
 40
0.0
 40
0.3333333333333333
 40
0.3333333333333333
 40
0.3333333333333333
 40
0.3333333333333333
 40
1.0
 40
1.0
 40
1.0
 40
1.0
 10
17.4072
 20
0.4482
 30
0.0
 10
17.4072
 20
0.4482
 30
0.0
 10
17.4072
 20
0.0681
 30
0.0
 10
17.4072
 20
0.0681
 30
0.0
 10
17.4072
 20
0.0681
 30
0.0
 10
17.4072
 20
0.0681
 30
0.0
 10
17.4072
 20
-0.8819
 30
0.0
 10
17.4072
 20
-0.8819
 30
0.0
  0
SPLINE
  5
B7
330
1F
100
AcDbEntity
  8
ROUND
 62
   250
370
    30
100
AcDbSpline
210
0.0
220
0.0
230
1.0
 70
     8
 71
     3
 72
     8
 73
     4
 74
     0
 42
0.0000000001
 43
0.0000000001
 40
0.0
 40
0.0
 40
0.0
 40
0.0
 40
1.0
 40
1.0
 40
1.0
 40
1.0
 10
17.4072
 20
-0.8819
 30
0.0
 10
17.4072
 20
-1.11
 30
0.0
 10
17.4783
 20
-1.5721
 30
0.0
 10
17.1483
 20
-1.6408
 30
0.0
  0
SPLINE
  5
B8
330
1F
100
AcDbEntity
  8
ROUND
 62
   250
370
    30
100
AcDbSpline
210
0.0
220
0.0
230
1.0
 70
     8
 71
     3
 72
    12
 73
     8
 74
     0
 42
0.0000000001
 43
0.0000000001
 40
0.0
 40
0.0
 40
0.0
 40
0.0
 40
0.3333333333333333
 40
0.3333333333333333
 40
0.3333333333333333
 40
0.3333333333333333
 40
1.0
 40
1.0
 40
1.0
 40
1.0
 10
21.1313
 20
-1.3212
 30
0.0
 10
21.0852
 20
-1.5131
 30
0.0
 10
20.9526
 20
-1.6264
 30
0.0
 10
20.7559
 20
-1.6418
 30
0.0
 10
20.7559
 20
-1.6418
 30
0.0
 10
20.5369
 20
-1.6245
 30
0.0
 10
20.3932
 20
-1.4809
 30
0.0
 10
20.3759
 20
-1.2618
 30
0.0
  0
SPLINE
  5
B9
330
1F
100
AcDbEntity
  8
ROUND
 62
   250
370
    30
100
AcDbSpline
210
0.0
220
0.0
230
1.0
 70
    24
 71
     3
 72
    12
 73
     8
 74
     0
 42
0.0000000001
 43
0.0000000001
 40
0.0
 40
0.0
 40
0.0
 40
0.0
 40
0.3333333333333333
 40
0.3333333333333333
 40
0.3333333333333333
 40
0.3333333333333333
 40
1.0
 40
1.0
 40
1.0
 40
1.0
 10
24.1047
 20
0.4482
 30
0.0
 10
24.1047
 20
0.4482
 30
0.0
 10
24.1047
 20
0.0681
 30
0.0
 10
24.1047
 20
0.0681
 30
0.0
 10
24.1047
 20
0.0681
 30
0.0
 10
24.1047
 20
0.0681
 30
0.0
 10
24.1047
 20
-0.8819
 30
0.0
 10
24.1047
 20
-0.8819
 30
0.0
  0
SPLINE
  5
BA
330
1F
100
AcDbEntity
  8
ROUND
 62
   250
370
    30
100
AcDbSpline
210
0.0
220
0.0
230
1.0
 70
     8
 71
     3
 72
     8
 73
     4
 74
     0
 42
0.0000000001
 43
0.0000000001
 40
0.0
 40
0.0
 40
0.0
 40
0.0
 40
1.0
 40
1.0
 40
1.0
 40
1.0
 10
24.1047
 20
-0.8819
 30
0.0
 10
24.1047
 20
-1.11
 30
0.0
 10
24.0336
 20
-1.5719
 30
0.0
 10
24.3635
 20
-1.6408
 30
0.0
  0
SPLINE
  5
BB
330
1F
100
AcDbEntity
  8
ROUND
 62
   250
370
    30
100
AcDbSpline
210
0.0
220
0.0
230
1.0
 70
    24
 71
     3
 72
    12
 73
     8
 74
     0
 42
0.0000000001
 43
0.0000000001
 40
0.0
 40
0.0
 40
0.0
 40
0.0
 40
0.3333333333333333
 40
0.3333333333333333
 40
0.3333333333333333
 40
0.3333333333333333
 40
1.0
 40
1.0
 40
1.0
 40
1.0
 10
24.1721
 20
0.4482
 30
0.0
 10
24.1721
 20
0.4482
 30
0.0
 10
24.1721
 20
0.0681
 30
0.0
 10
24.1721
 20
0.0681
 30
0.0
 10
24.1721
 20
0.0681
 30
0.0
 10
24.1721
 20
0.0681
 30
0.0
 10
24.1721
 20
-0.8819
 30
0.0
 10
24.1721
 20
-0.8819
 30
0.0
  0
SPLINE
  5
BC
330
1F
100
AcDbEntity
  8
ROUND
 62
   250
370
    30
100
AcDbSpline
210
0.0
220
0.0
230
1.0
 70
     8
 71
     3
 72
     8
 73
     4
 74
     0
 42
0.0000000001
 43
0.0000000001
 40
0.0
 40
0.0
 40
0.0
 40
0.0
 40
1.0
 40
1.0
 40
1.0
 40
1.0
 10
24.1721
 20
-0.8819
 30
0.0
 10
24.1721
 20
-1.1044
 30
0.0
 10
24.1009
 20
-1.6032
 30
0.0
 10
24.4506
 20
-1.6418
 30
0.0
  0
SPLINE
  5
BD
330
1F
100
AcDbEntity
  8
ROUND
 62
   250
370
    30
100
AcDbSpline
210
0.0
220
0.0
230
1.0
 70
     8
 71
     3
 72
     8
 73
     4
 74
     0
 42
0.0000000001
 43
0.0000000001
 40
0.0
 40
0.0
 40
0.0
 40
0.0
 40
1.0
 40
1.0
 40
1.0
 40
1.0
 10
25.8859
 20
-1.6418
 30
0.0
 10
25.8687
 20
-1.3885
 30
0.0
 10
25.8719
 20
-1.1359
 30
0.0
 10
25.8719
 20
-0.8819
 30
0.0
  0
SPLINE
  5
BE
330
1F
100
AcDbEntity
  8
ROUND
 62
   250
370
    30
100
AcDbSpline
210
0.0
220
0.0
230
1.0
 70
    24
 71
     3
 72
    12
 73
     8
 74
     0
 42
0.0000000001
 43
0.0000000001
 40
0.0
 40
0.0
 40
0.0
 40
0.0
 40
0.3333333333333333
 40
0.3333333333333333
 40
0.3333333333333333
 40
0.3333333333333333
 40
1.0
 40
1.0
 40
1.0
 40
1.0
 10
25.8719
 20
-0.8819
 30
0.0
 10
25.8719
 20
-0.8819
 30
0.0
 10
25.8719
 20
0.0681
 30
0.0
 10
25.8719
 20
0.0681
 30
0.0
 10
25.8719
 20
0.0681
 30
0.0
 10
25.8719
 20
0.0681
 30
0.0
 10
25.8719
 20
0.4482
 30
0.0
 10
25.8719
 20
0.4482
 30
0.0
  0
SPLINE
  5
BF
330
1F
100
AcDbEntity
  8
ROUND
 62
   250
370
    30
100
AcDbSpline
210
0.0
220
0.0
230
1.0
 70
    24
 71
     3
 72
    12
 73
     8
 74
     0
 42
0.0000000001
 43
0.0000000001
 40
0.0
 40
0.0
 40
0.0
 40
0.0
 40
0.3333333333333333
 40
0.3333333333333333
 40
0.3333333333333333
 40
0.3333333333333333
 40
1.0
 40
1.0
 40
1.0
 40
1.0
 10
25.9671
 20
0.4482
 30
0.0
 10
25.9671
 20
0.4482
 30
0.0
 10
25.9671
 20
0.0681
 30
0.0
 10
25.9671
 20
0.0681
 30
0.0
 10
25.9671
 20
0.0681
 30
0.0
 10
25.9671
 20
0.0681
 30
0.0
 10
25.9671
 20
-0.8819
 30
0.0
 10
25.9671
 20
-0.8819
 30
0.0
  0
SPLINE
  5
C0
330
1F
100
AcDbEntity
  8
ROUND
 62
   250
370
    30
100
AcDbSpline
210
0.0
220
0.0
230
1.0
 70
     8
 71
     3
 72
     8
 73
     4
 74
     0
 42
0.0000000001
 43
0.0000000001
 40
0.0
 40
0.0
 40
0.0
 40
0.0
 40
1.0
 40
1.0
 40
1.0
 40
1.0
 10
25.9671
 20
-0.8819
 30
0.0
 10
25.9671
 20
-1.1357
 30
0.0
 10
25.9634
 20
-1.3885
 30
0.0
 10
25.981
 20
-1.6418
 30
0.0
  0
SPLINE
  5
C1
330
1F
100
AcDbEntity
  8
ROUND
  6
New Line1
 62
   250
370
    60
100
AcDbSpline
210
0.0
220
0.0
230
1.0
 70
    24
 71
     3
 72
     8
 73
     4
 74
     0
 42
0.0000000001
 43
0.0000000001
 40
0.0
 40
0.0
 40
0.0
 40
0.0
 40
1.0
 40
1.0
 40
1.0
 40
1.0
 10
-17.4932
 20
-1.0257
 30
0.0
 10
-17.4932
 20
-1.0257
 30
0.0
 10
-18.626
 20
11.8239
 30
0.0
 10
-18.626
 20
11.8239
 30
0.0
  0
SPLINE
  5
C3
330
1F
100
AcDbEntity
  8
ROUND
 62
   250
100
AcDbSpline
210
0.0
220
0.0
230
1.0
 70
    11
 71
     3
 72
   104
 73
   100
 74
     0
 42
0.0000000001
 43
0.0000000001
 40
0.0
 40
0.0
 40
0.0
 40
0.0
 40
0.0384615384615385
 40
0.0384615384615385
 40
0.0384615384615385
 40
0.0384615384615385
 40
0.0769230769230769
 40
0.0769230769230769
 40
0.0769230769230769
 40
0.0769230769230769
 40
0.1153846153846154
 40
0.1153846153846154
 40
0.1153846153846154
 40
0.1153846153846154
 40
0.1538461538461539
 40
0.1538461538461539
 40
0.1538461538461539
 40
0.1538461538461539
 40
0.1923076923076923
 40
0.1923076923076923
 40
0.1923076923076923
 40
0.1923076923076923
 40
0.2307692307692308
 40
0.2307692307692308
 40
0.2307692307692308
 40
0.2307692307692308
 40
0.2692307692307692
 40
0.2692307692307692
 40
0.2692307692307692
 40
0.2692307692307692
 40
0.3076923076923077
 40
0.3076923076923077
 40
0.3076923076923077
 40
0.3076923076923077
 40
0.3461538461538461
 40
0.3461538461538461
 40
0.3461538461538461
 40
0.3461538461538461
 40
0.3846153846153846
 40
0.3846153846153846
 40
0.3846153846153846
 40
0.3846153846153846
 40
0.4230769230769231
 40
0.4230769230769231
 40
0.4230769230769231
 40
0.4230769230769231
 40
0.4615384615384616
 40
0.4615384615384616
 40
0.4615384615384616
 40
0.4615384615384616
 40
0.5
 40
0.5
 40
0.5
 40
0.5
 40
0.5384615384615384
 40
0.5384615384615384
 40
0.5384615384615384
 40
0.5384615384615384
 40
0.5769230769230769
 40
0.5769230769230769
 40
0.5769230769230769
 40
0.5769230769230769
 40
0.6153846153846154
 40
0.6153846153846154
 40
0.6153846153846154
 40
0.6153846153846154
 40
0.6538461538461539
 40
0.6538461538461539
 40
0.6538461538461539
 40
0.6538461538461539
 40
0.6923076923076923
 40
0.6923076923076923
 40
0.6923076923076923
 40
0.6923076923076923
 40
0.7307692307692307
 40
0.7307692307692307
 40
0.7307692307692307
 40
0.7307692307692307
 40
0.7692307692307693
 40
0.7692307692307693
 40
0.7692307692307693
 40
0.7692307692307693
 40
0.8076923076923077
 40
0.8076923076923077
 40
0.8076923076923077
 40
0.8076923076923077
 40
0.8461538461538461
 40
0.8461538461538461
 40
0.8461538461538461
 40
0.8461538461538461
 40
0.8846153846153846
 40
0.8846153846153846
 40
0.8846153846153846
 40
0.8846153846153846
 40
0.9230769230769231
 40
0.9230769230769231
 40
0.9230769230769231
 40
0.9230769230769231
 40
1.0
 40
1.0
 40
1.0
 40
1.0
 10
-18.0776
 20
2.9006
 30
0.0
 10
-18.0776
 20
2.9006
 30
0.0
 10
-18.4315
 20
3.115
 30
0.0
 10
-18.4315
 20
3.115
 30
0.0
 10
-18.4315
 20
3.115
 30
0.0
 10
-18.372
 20
3.2144
 30
0.0
 10
-18.3288
 20
3.3214
 30
0.0
 10
-18.303
 20
3.4352
 30
0.0
 10
-18.303
 20
3.4352
 30
0.0
 10
-18.2773
 20
3.5498
 30
0.0
 10
-18.2695
 20
3.6681
 30
0.0
 10
-18.2802
 20
3.7905
 30
0.0
 10
-18.2802
 20
3.7905
 30
0.0
 10
-18.2912
 20
3.9161
 30
0.0
 10
-18.3205
 20
4.0362
 30
0.0
 10
-18.3674
 20
4.1497
 30
0.0
 10
-18.3674
 20
4.1497
 30
0.0
 10
-18.4144
 20
4.263
 30
0.0
 10
-18.4786
 20
4.3665
 30
0.0
 10
-18.5607
 20
4.4593
 30
0.0
 10
-18.5607
 20
4.4593
 30
0.0
 10
-18.6423
 20
4.5527
 30
0.0
 10
-18.7413
 20
4.6318
 30
0.0
 10
-18.8575
 20
4.6969
 30
0.0
 10
-18.8575
 20
4.6969
 30
0.0
 10
-18.9734
 20
4.7615
 30
0.0
 10
-19.1061
 20
4.8083
 30
0.0
 10
-19.256
 20
4.8373
 30
0.0
 10
-19.256
 20
4.8373
 30
0.0
 10
-19.4053
 20
4.8658
 30
0.0
 10
-19.5707
 20
4.8727
 30
0.0
 10
-19.7525
 20
4.8575
 30
0.0
 10
-19.7525
 20
4.8575
 30
0.0
 10
-19.8807
 20
4.8463
 30
0.0
 10
-20.0014
 20
4.8228
 30
0.0
 10
-20.115
 20
4.7862
 30
0.0
 10
-20.115
 20
4.7862
 30
0.0
 10
-20.2293
 20
4.7503
 30
0.0
 10
-20.3343
 20
4.7027
 30
0.0
 10
-20.4298
 20
4.6444
 30
0.0
 10
-20.4298
 20
4.6444
 30
0.0
 10
-20.5253
 20
4.5854
 30
0.0
 10
-20.6088
 20
4.5164
 30
0.0
 10
-20.6818
 20
4.4373
 30
0.0
 10
-20.6818
 20
4.4373
 30
0.0
 10
-20.6818
 20
4.4373
 30
0.0
 10
-21.0352
 20
4.6479
 30
0.0
 10
-21.0352
 20
4.6479
 30
0.0
 10
-21.0352
 20
4.6479
 30
0.0
 10
-21.0352
 20
4.6479
 30
0.0
 10
-21.1564
 20
4.4308
 30
0.0
 10
-21.1564
 20
4.4308
 30
0.0
 10
-21.1564
 20
4.4308
 30
0.0
 10
-21.1564
 20
4.4308
 30
0.0
 10
-20.8234
 20
4.2302
 30
0.0
 10
-20.8234
 20
4.2302
 30
0.0
 10
-20.8234
 20
4.2302
 30
0.0
 10
-20.8847
 20
4.1307
 30
0.0
 10
-20.9281
 20
4.0249
 30
0.0
 10
-20.9533
 20
3.9124
 30
0.0
 10
-20.9533
 20
3.9124
 30
0.0
 10
-20.9785
 20
3.7991
 30
0.0
 10
-20.9858
 20
3.683
 30
0.0
 10
-20.9752
 20
3.5624
 30
0.0
 10
-20.9752
 20
3.5624
 30
0.0
 10
-20.9596
 20
3.3905
 30
0.0
 10
-20.9135
 20
3.2349
 30
0.0
 10
-20.8369
 20
3.0941
 30
0.0
 10
-20.8369
 20
3.0941
 30
0.0
 10
-20.7604
 20
2.9541
 30
0.0
 10
-20.6572
 20
2.8353
 30
0.0
 10
-20.5284
 20
2.7374
 30
0.0
 10
-20.5284
 20
2.7374
 30
0.0
 10
-20.3998
 20
2.639
 30
0.0
 10
-20.2494
 20
2.5677
 30
0.0
 10
-20.0772
 20
2.5217
 30
0.0
 10
-20.0772
 20
2.5217
 30
0.0
 10
-19.9051
 20
2.4765
 30
0.0
 10
-19.7162
 20
2.4618
 30
0.0
 10
-19.5094
 20
2.4793
 30
0.0
 10
-19.5094
 20
2.4793
 30
0.0
 10
-19.3792
 20
2.4907
 30
0.0
 10
-19.2561
 20
2.5157
 30
0.0
 10
-19.1412
 20
2.553
 30
0.0
 10
-19.1412
 20
2.553
 30
0.0
 10
-19.0263
 20
2.5904
 30
0.0
 10
-18.9209
 20
2.6392
 30
0.0
 10
-18.8255
 20
2.6988
 30
0.0
 10
-18.8255
 20
2.6988
 30
0.0
 10
-18.7301
 20
2.7591
 30
0.0
 10
-18.6459
 20
2.8288
 30
0.0
 10
-18.5731
 20
2.9079
 30
0.0
 10
-18.5731
 20
2.9079
 30
0.0
 10
-18.5731
 20
2.9079
 30
0.0
 10
-18.2158
 20
2.6976
 30
0.0
 10
-18.2158
 20
2.6976
 30
0.0
 10
-18.2158
 20
2.6976
 30
0.0
 10
-18.2158
 20
2.6976
 30
0.0
 10
-18.0776
 20
2.9006
 30
0.0
 10
-18.0776
 20
2.9006
 30
0.0
  0
SPLINE
  5
C4
330
1F
100
AcDbEntity
  8
ROUND
 62
   250
100
AcDbSpline
210
0.0
220
0.0
230
1.0
 70
    11
 71
     3
 72
    52
 73
    48
 74
     0
 42
0.0000000001
 43
0.0000000001
 40
0.0
 40
0.0
 40
0.0
 40
0.0
 40
0.0769230769230769
 40
0.0769230769230769
 40
0.0769230769230769
 40
0.0769230769230769
 40
0.1538461538461539
 40
0.1538461538461539
 40
0.1538461538461539
 40
0.1538461538461539
 40
0.2307692307692308
 40
0.2307692307692308
 40
0.2307692307692308
 40
0.2307692307692308
 40
0.3076923076923077
 40
0.3076923076923077
 40
0.3076923076923077
 40
0.3076923076923077
 40
0.3846153846153846
 40
0.3846153846153846
 40
0.3846153846153846
 40
0.3846153846153846
 40
0.4615384615384616
 40
0.4615384615384616
 40
0.4615384615384616
 40
0.4615384615384616
 40
0.5384615384615384
 40
0.5384615384615384
 40
0.5384615384615384
 40
0.5384615384615384
 40
0.6153846153846154
 40
0.6153846153846154
 40
0.6153846153846154
 40
0.6153846153846154
 40
0.6923076923076923
 40
0.6923076923076923
 40
0.6923076923076923
 40
0.6923076923076923
 40
0.7692307692307693
 40
0.7692307692307693
 40
0.7692307692307693
 40
0.7692307692307693
 40
0.8461538461538461
 40
0.8461538461538461
 40
0.8461538461538461
 40
0.8461538461538461
 40
1.0
 40
1.0
 40
1.0
 40
1.0
 10
-18.8763
 20
3.08
 30
0.0
 10
-18.8763
 20
3.08
 30
0.0
 10
-18.8717
 20
3.0726
 30
0.0
 10
-18.8717
 20
3.0726
 30
0.0
 10
-18.8717
 20
3.0726
 30
0.0
 10
-18.9348
 20
3.0281
 30
0.0
 10
-19.0008
 20
2.9886
 30
0.0
 10
-19.0692
 20
2.954
 30
0.0
 10
-19.0692
 20
2.954
 30
0.0
 10
-19.1382
 20
2.9195
 30
0.0
 10
-19.2117
 20
2.891
 30
0.0
 10
-19.2914
 20
2.8683
 30
0.0
 10
-19.2914
 20
2.8683
 30
0.0
 10
-19.3707
 20
2.8459
 30
0.0
 10
-19.4589
 20
2.8304
 30
0.0
 10
-19.5549
 20
2.822
 30
0.0
 10
-19.5549
 20
2.822
 30
0.0
 10
-19.6658
 20
2.8123
 30
0.0
 10
-19.7737
 20
2.8145
 30
0.0
 10
-19.8807
 20
2.8278
 30
0.0
 10
-19.8807
 20
2.8278
 30
0.0
 10
-19.9871
 20
2.8419
 30
0.0
 10
-20.088
 20
2.8675
 30
0.0
 10
-20.1822
 20
2.9047
 30
0.0
 10
-20.1822
 20
2.9047
 30
0.0
 10
-20.277
 20
2.9425
 30
0.0
 10
-20.3618
 20
2.9922
 30
0.0
 10
-20.4361
 20
3.0546
 30
0.0
 10
-20.4361
 20
3.0546
 30
0.0
 10
-20.511
 20
3.1168
 30
0.0
 10
-20.5715
 20
3.1914
 30
0.0
 10
-20.618
 20
3.2782
 30
0.0
 10
-20.618
 20
3.2782
 30
0.0
 10
-20.6652
 20
3.3656
 30
0.0
 10
-20.6934
 20
3.4657
 30
0.0
 10
-20.704
 20
3.5784
 30
0.0
 10
-20.704
 20
3.5784
 30
0.0
 10
-20.7119
 20
3.677
 30
0.0
 10
-20.7038
 20
3.7687
 30
0.0
 10
-20.6786
 20
3.8527
 30
0.0
 10
-20.6786
 20
3.8527
 30
0.0
 10
-20.6542
 20
3.9372
 30
0.0
 10
-20.6162
 20
4.0145
 30
0.0
 10
-20.5653
 20
4.0853
 30
0.0
 10
-20.5653
 20
4.0853
 30
0.0
 10
-20.5653
 20
4.0853
 30
0.0
 10
-18.8763
 20
3.08
 30
0.0
 10
-18.8763
 20
3.08
 30
0.0
  0
SPLINE
  5
C5
330
1F
100
AcDbEntity
  8
ROUND
 62
   250
100
AcDbSpline
210
0.0
220
0.0
230
1.0
 70
    11
 71
     3
 72
    48
 73
    44
 74
     0
 42
0.0000000001
 43
0.0000000001
 40
0.0
 40
0.0
 40
0.0
 40
0.0
 40
0.0833333333333333
 40
0.0833333333333333
 40
0.0833333333333333
 40
0.0833333333333333
 40
0.1666666666666667
 40
0.1666666666666667
 40
0.1666666666666667
 40
0.1666666666666667
 40
0.25
 40
0.25
 40
0.25
 40
0.25
 40
0.3333333333333333
 40
0.3333333333333333
 40
0.3333333333333333
 40
0.3333333333333333
 40
0.4166666666666667
 40
0.4166666666666667
 40
0.4166666666666667
 40
0.4166666666666667
 40
0.5
 40
0.5
 40
0.5
 40
0.5
 40
0.5833333333333334
 40
0.5833333333333334
 40
0.5833333333333334
 40
0.5833333333333334
 40
0.6666666666666666
 40
0.6666666666666666
 40
0.6666666666666666
 40
0.6666666666666666
 40
0.75
 40
0.75
 40
0.75
 40
0.75
 40
0.8333333333333334
 40
0.8333333333333334
 40
0.8333333333333334
 40
0.8333333333333334
 40
1.0
 40
1.0
 40
1.0
 40
1.0
 10
-20.3742
 20
4.2617
 30
0.0
 10
-20.3742
 20
4.2617
 30
0.0
 10
-20.3752
 20
4.2732
 30
0.0
 10
-20.3752
 20
4.2732
 30
0.0
 10
-20.3752
 20
4.2732
 30
0.0
 10
-20.269
 20
4.3501
 30
0.0
 10
-20.1598
 20
4.407
 30
0.0
 10
-20.0475
 20
4.4447
 30
0.0
 10
-20.0475
 20
4.4447
 30
0.0
 10
-19.9359
 20
4.4824
 30
0.0
 10
-19.8237
 20
4.5059
 30
0.0
 10
-19.7108
 20
4.5145
 30
0.0
 10
-19.7108
 20
4.5145
 30
0.0
 10
-19.5936
 20
4.5247
 30
0.0
 10
-19.4803
 20
4.5223
 30
0.0
 10
-19.3706
 20
4.5079
 30
0.0
 10
-19.3706
 20
4.5079
 30
0.0
 10
-19.261
 20
4.4935
 30
0.0
 10
-19.1586
 20
4.4667
 30
0.0
 10
-19.0637
 20
4.4282
 30
0.0
 10
-19.0637
 20
4.4282
 30
0.0
 10
-18.9688
 20
4.3892
 30
0.0
 10
-18.8846
 20
4.3388
 30
0.0
 10
-18.8115
 20
4.2763
 30
0.0
 10
-18.8115
 20
4.2763
 30
0.0
 10
-18.7379
 20
4.2133
 30
0.0
 10
-18.6782
 20
4.1393
 30
0.0
 10
-18.6331
 20
4.0537
 30
0.0
 10
-18.6331
 20
4.0537
 30
0.0
 10
-18.5879
 20
3.968
 30
0.0
 10
-18.5606
 20
3.8711
 30
0.0
 10
-18.5504
 20
3.7629
 30
0.0
 10
-18.5504
 20
3.7629
 30
0.0
 10
-18.5412
 20
3.6579
 30
0.0
 10
-18.5493
 20
3.5644
 30
0.0
 10
-18.574
 20
3.4836
 30
0.0
 10
-18.574
 20
3.4836
 30
0.0
 10
-18.5987
 20
3.4022
 30
0.0
 10
-18.639
 20
3.328
 30
0.0
 10
-18.6934
 20
3.2596
 30
0.0
 10
-18.6934
 20
3.2596
 30
0.0
 10
-18.6934
 20
3.2596
 30
0.0
 10
-20.3742
 20
4.2617
 30
0.0
 10
-20.3742
 20
4.2617
 30
0.0
  0
SPLINE
  5
C6
330
1F
100
AcDbEntity
  8
ROUND
 62
   250
100
AcDbSpline
210
0.0
220
0.0
230
1.0
 70
    11
 71
     3
 72
   132
 73
   128
 74
     0
 42
0.0000000001
 43
0.0000000001
 40
0.0
 40
0.0
 40
0.0
 40
0.0
 40
0.0303030303030303
 40
0.0303030303030303
 40
0.0303030303030303
 40
0.0303030303030303
 40
0.0606060606060606
 40
0.0606060606060606
 40
0.0606060606060606
 40
0.0606060606060606
 40
0.0909090909090909
 40
0.0909090909090909
 40
0.0909090909090909
 40
0.0909090909090909
 40
0.1212121212121212
 40
0.1212121212121212
 40
0.1212121212121212
 40
0.1212121212121212
 40
0.1515151515151515
 40
0.1515151515151515
 40
0.1515151515151515
 40
0.1515151515151515
 40
0.1818181818181818
 40
0.1818181818181818
 40
0.1818181818181818
 40
0.1818181818181818
 40
0.2121212121212121
 40
0.2121212121212121
 40
0.2121212121212121
 40
0.2121212121212121
 40
0.2424242424242424
 40
0.2424242424242424
 40
0.2424242424242424
 40
0.2424242424242424
 40
0.2727272727272727
 40
0.2727272727272727
 40
0.2727272727272727
 40
0.2727272727272727
 40
0.303030303030303
 40
0.303030303030303
 40
0.303030303030303
 40
0.303030303030303
 40
0.3333333333333333
 40
0.3333333333333333
 40
0.3333333333333333
 40
0.3333333333333333
 40
0.3636363636363636
 40
0.3636363636363636
 40
0.3636363636363636
 40
0.3636363636363636
 40
0.3939393939393939
 40
0.3939393939393939
 40
0.3939393939393939
 40
0.3939393939393939
 40
0.4242424242424243
 40
0.4242424242424243
 40
0.4242424242424243
 40
0.4242424242424243
 40
0.4545454545454545
 40
0.4545454545454545
 40
0.4545454545454545
 40
0.4545454545454545
 40
0.4848484848484849
 40
0.4848484848484849
 40
0.4848484848484849
 40
0.4848484848484849
 40
0.5151515151515151
 40
0.5151515151515151
 40
0.5151515151515151
 40
0.5151515151515151
 40
0.5454545454545454
 40
0.5454545454545454
 40
0.5454545454545454
 40
0.5454545454545454
 40
0.5757575757575758
 40
0.5757575757575758
 40
0.5757575757575758
 40
0.5757575757575758
 40
0.6060606060606061
 40
0.6060606060606061
 40
0.6060606060606061
 40
0.6060606060606061
 40
0.6363636363636364
 40
0.6363636363636364
 40
0.6363636363636364
 40
0.6363636363636364
 40
0.6666666666666666
 40
0.6666666666666666
 40
0.6666666666666666
 40
0.6666666666666666
 40
0.696969696969697
 40
0.696969696969697
 40
0.696969696969697
 40
0.696969696969697
 40
0.7272727272727273
 40
0.7272727272727273
 40
0.7272727272727273
 40
0.7272727272727273
 40
0.7575757575757576
 40
0.7575757575757576
 40
0.7575757575757576
 40
0.7575757575757576
 40
0.7878787878787878
 40
0.7878787878787878
 40
0.7878787878787878
 40
0.7878787878787878
 40
0.8181818181818182
 40
0.8181818181818182
 40
0.8181818181818182
 40
0.8181818181818182
 40
0.8484848484848485
 40
0.8484848484848485
 40
0.8484848484848485
 40
0.8484848484848485
 40
0.8787878787878788
 40
0.8787878787878788
 40
0.8787878787878788
 40
0.8787878787878788
 40
0.9090909090909091
 40
0.9090909090909091
 40
0.9090909090909091
 40
0.9090909090909091
 40
0.9393939393939394
 40
0.9393939393939394
 40
0.9393939393939394
 40
0.9393939393939394
 40
1.0
 40
1.0
 40
1.0
 40
1.0
 10
-21.0982
 20
6.5707
 30
0.0
 10
-21.0982
 20
6.5707
 30
0.0
 10
-20.993
 20
5.3684
 30
0.0
 10
-20.993
 20
5.3684
 30
0.0
 10
-20.993
 20
5.3684
 30
0.0
 10
-20.993
 20
5.3684
 30
0.0
 10
-19.7727
 20
5.3115
 30
0.0
 10
-19.7727
 20
5.3115
 30
0.0
 10
-19.7727
 20
5.3115
 30
0.0
 10
-19.7832
 20
5.3574
 30
0.0
 10
-19.7929
 20
5.4084
 30
0.0
 10
-19.8025
 20
5.4661
 30
0.0
 10
-19.8025
 20
5.4661
 30
0.0
 10
-19.812
 20
5.523
 30
0.0
 10
-19.8203
 20
5.5885
 30
0.0
 10
-19.8267
 20
5.6613
 30
0.0
 10
-19.8267
 20
5.6613
 30
0.0
 10
-19.8405
 20
5.8275
 30
0.0
 10
-19.8286
 20
5.9656
 30
0.0
 10
-19.7915
 20
6.0754
 30
0.0
 10
-19.7915
 20
6.0754
 30
0.0
 10
-19.7537
 20
6.1858
 30
0.0
 10
-19.6963
 20
6.27
 30
0.0
 10
-19.6182
 20
6.3281
 30
0.0
 10
-19.6182
 20
6.3281
 30
0.0
 10
-19.5395
 20
6.3863
 30
0.0
 10
-19.4458
 20
6.4198
 30
0.0
 10
-19.3368
 20
6.4286
 30
0.0
 10
-19.3368
 20
6.4286
 30
0.0
 10
-19.2525
 20
6.4367
 30
0.0
 10
-19.1757
 20
6.4279
 30
0.0
 10
-19.1059
 20
6.4022
 30
0.0
 10
-19.1059
 20
6.4022
 30
0.0
 10
-19.0356
 20
6.3771
 30
0.0
 10
-18.9751
 20
6.3389
 30
0.0
 10
-18.9226
 20
6.2883
 30
0.0
 10
-18.9226
 20
6.2883
 30
0.0
 10
-18.8708
 20
6.2376
 30
0.0
 10
-18.8292
 20
6.1777
 30
0.0
 10
-18.7979
 20
6.1084
 30
0.0
 10
-18.7979
 20
6.1084
 30
0.0
 10
-18.7665
 20
6.0391
 30
0.0
 10
-18.7469
 20
5.9648
 30
0.0
 10
-18.74
 20
5.8849
 30
0.0
 10
-18.74
 20
5.8849
 30
0.0
 10
-18.7338
 20
5.8069
 30
0.0
 10
-18.7345
 20
5.7328
 30
0.0
 10
-18.7433
 20
5.6625
 30
0.0
 10
-18.7433
 20
5.6625
 30
0.0
 10
-18.7514
 20
5.5924
 30
0.0
 10
-18.7634
 20
5.529
 30
0.0
 10
-18.7799
 20
5.4724
 30
0.0
 10
-18.7799
 20
5.4724
 30
0.0
 10
-18.7963
 20
5.4158
 30
0.0
 10
-18.8137
 20
5.3688
 30
0.0
 10
-18.8318
 20
5.3316
 30
0.0
 10
-18.8318
 20
5.3316
 30
0.0
 10
-18.8318
 20
5.3316
 30
0.0
 10
-18.5653
 20
5.2692
 30
0.0
 10
-18.5653
 20
5.2692
 30
0.0
 10
-18.5653
 20
5.2692
 30
0.0
 10
-18.5426
 20
5.3133
 30
0.0
 10
-18.5226
 20
5.3677
 30
0.0
 10
-18.5043
 20
5.4322
 30
0.0
 10
-18.5043
 20
5.4322
 30
0.0
 10
-18.4866
 20
5.4968
 30
0.0
 10
-18.4741
 20
5.5693
 30
0.0
 10
-18.4662
 20
5.6498
 30
0.0
 10
-18.4662
 20
5.6498
 30
0.0
 10
-18.4584
 20
5.731
 30
0.0
 10
-18.4582
 20
5.8174
 30
0.0
 10
-18.4655
 20
5.9089
 30
0.0
 10
-18.4655
 20
5.9089
 30
0.0
 10
-18.4782
 20
6.0461
 30
0.0
 10
-18.5111
 20
6.1691
 30
0.0
 10
-18.5635
 20
6.2795
 30
0.0
 10
-18.5635
 20
6.2795
 30
0.0
 10
-18.616
 20
6.3898
 30
0.0
 10
-18.6846
 20
6.4832
 30
0.0
 10
-18.7692
 20
6.5595
 30
0.0
 10
-18.7692
 20
6.5595
 30
0.0
 10
-18.8538
 20
6.6365
 30
0.0
 10
-18.9503
 20
6.6929
 30
0.0
 10
-19.058
 20
6.7297
 30
0.0
 10
-19.058
 20
6.7297
 30
0.0
 10
-19.1664
 20
6.7663
 30
0.0
 10
-19.2825
 20
6.7795
 30
0.0
 10
-19.4056
 20
6.7693
 30
0.0
 10
-19.4056
 20
6.7693
 30
0.0
 10
-19.5099
 20
6.7596
 30
0.0
 10
-19.6025
 20
6.7345
 30
0.0
 10
-19.6828
 20
6.6951
 30
0.0
 10
-19.6828
 20
6.6951
 30
0.0
 10
-19.763
 20
6.6557
 30
0.0
 10
-19.8308
 20
6.6069
 30
0.0
 10
-19.8867
 20
6.5475
 30
0.0
 10
-19.8867
 20
6.5475
 30
0.0
 10
-19.9425
 20
6.488
 30
0.0
 10
-19.9855
 20
6.4232
 30
0.0
 10
-20.0158
 20
6.3537
 30
0.0
 10
-20.0158
 20
6.3537
 30
0.0
 10
-20.0567
 20
6.2716
 30
0.0
 10
-20.084
 20
6.1841
 30
0.0
 10
-20.0973
 20
6.0902
 30
0.0
 10
-20.0973
 20
6.0902
 30
0.0
 10
-20.1105
 20
5.9962
 30
0.0
 10
-20.1131
 20
5.8998
 30
0.0
 10
-20.1038
 20
5.8006
 30
0.0
 10
-20.1038
 20
5.8006
 30
0.0
 10
-20.0999
 20
5.7556
 30
0.0
 10
-20.0958
 20
5.717
 30
0.0
 10
-20.0911
 20
5.6856
 30
0.0
 10
-20.0911
 20
5.6856
 30
0.0
 10
-20.0864
 20
5.6542
 30
0.0
 10
-20.0806
 20
5.6248
 30
0.0
 10
-20.0742
 20
5.5968
 30
0.0
 10
-20.0742
 20
5.5968
 30
0.0
 10
-20.0742
 20
5.5968
 30
0.0
 10
-20.7283
 20
5.6369
 30
0.0
 10
-20.7283
 20
5.6369
 30
0.0
 10
-20.7283
 20
5.6369
 30
0.0
 10
-20.7283
 20
5.6369
 30
0.0
 10
-20.8122
 20
6.5957
 30
0.0
 10
-20.8122
 20
6.5957
 30
0.0
 10
-20.8122
 20
6.5957
 30
0.0
 10
-20.8122
 20
6.5957
 30
0.0
 10
-21.0982
 20
6.5707
 30
0.0
 10
-21.0982
 20
6.5707
 30
0.0
  0
SPLINE
  5
C7
330
1F
100
AcDbEntity
  8
ROUND
 62
   250
100
AcDbSpline
210
0.0
220
0.0
230
1.0
 70
    11
 71
     3
 72
    56
 73
    52
 74
     0
 42
0.0000000001
 43
0.0000000001
 40
0.0
 40
0.0
 40
0.0
 40
0.0
 40
0.0714285714285714
 40
0.0714285714285714
 40
0.0714285714285714
 40
0.0714285714285714
 40
0.1428571428571428
 40
0.1428571428571428
 40
0.1428571428571428
 40
0.1428571428571428
 40
0.2142857142857143
 40
0.2142857142857143
 40
0.2142857142857143
 40
0.2142857142857143
 40
0.2857142857142857
 40
0.2857142857142857
 40
0.2857142857142857
 40
0.2857142857142857
 40
0.3571428571428572
 40
0.3571428571428572
 40
0.3571428571428572
 40
0.3571428571428572
 40
0.4285714285714285
 40
0.4285714285714285
 40
0.4285714285714285
 40
0.4285714285714285
 40
0.5
 40
0.5
 40
0.5
 40
0.5
 40
0.5714285714285714
 40
0.5714285714285714
 40
0.5714285714285714
 40
0.5714285714285714
 40
0.6428571428571429
 40
0.6428571428571429
 40
0.6428571428571429
 40
0.6428571428571429
 40
0.7142857142857143
 40
0.7142857142857143
 40
0.7142857142857143
 40
0.7142857142857143
 40
0.7857142857142857
 40
0.7857142857142857
 40
0.7857142857142857
 40
0.7857142857142857
 40
0.8571428571428571
 40
0.8571428571428571
 40
0.8571428571428571
 40
0.8571428571428571
 40
1.0
 40
1.0
 40
1.0
 40
1.0
 10
-21.2567
 20
7.8929
 30
0.0
 10
-21.2455
 20
7.7647
 30
0.0
 10
-21.207
 20
7.6499
 30
0.0
 10
-21.1408
 20
7.5479
 30
0.0
 10
-21.1408
 20
7.5479
 30
0.0
 10
-21.0748
 20
7.4458
 30
0.0
 10
-20.9836
 20
7.3611
 30
0.0
 10
-20.866
 20
7.2921
 30
0.0
 10
-20.866
 20
7.2921
 30
0.0
 10
-20.7482
 20
7.2231
 30
0.0
 10
-20.6064
 20
7.1746
 30
0.0
 10
-20.4402
 20
7.1456
 30
0.0
 10
-20.4402
 20
7.1456
 30
0.0
 10
-20.2741
 20
7.1173
 30
0.0
 10
-20.0854
 20
7.1117
 30
0.0
 10
-19.8734
 20
7.1296
 30
0.0
 10
-19.8734
 20
7.1296
 30
0.0
 10
-19.5961
 20
7.1578
 30
0.0
 10
-19.3647
 20
7.215
 30
0.0
 10
-19.1788
 20
7.302
 30
0.0
 10
-19.1788
 20
7.302
 30
0.0
 10
-18.993
 20
7.3891
 30
0.0
 10
-18.8559
 20
7.4991
 30
0.0
 10
-18.7675
 20
7.6315
 30
0.0
 10
-18.7675
 20
7.6315
 30
0.0
 10
-18.6791
 20
7.7638
 30
0.0
 10
-18.6415
 20
7.9126
 30
0.0
 10
-18.6552
 20
8.0776
 30
0.0
 10
-18.6552
 20
8.0776
 30
0.0
 10
-18.6721
 20
8.2624
 30
0.0
 10
-18.7374
 20
8.4151
 30
0.0
 10
-18.8506
 20
8.5364
 30
0.0
 10
-18.8506
 20
8.5364
 30
0.0
 10
-18.9638
 20
8.6576
 30
0.0
 10
-19.1219
 20
8.7438
 30
0.0
 10
-19.325
 20
8.7949
 30
0.0
 10
-19.325
 20
8.7949
 30
0.0
 10
-19.5282
 20
8.8466
 30
0.0
 10
-19.7721
 20
8.8595
 30
0.0
 10
-20.0576
 20
8.8353
 30
0.0
 10
-20.0576
 20
8.8353
 30
0.0
 10
-20.3249
 20
8.8112
 30
0.0
 10
-20.5508
 20
8.7583
 30
0.0
 10
-20.7346
 20
8.6767
 30
0.0
 10
-20.7346
 20
8.6767
 30
0.0
 10
-20.9182
 20
8.595
 30
0.0
 10
-21.0549
 20
8.4876
 30
0.0
 10
-21.144
 20
8.3553
 30
0.0
 10
-21.144
 20
8.3553
 30
0.0
 10
-21.2337
 20
8.2227
 30
0.0
 10
-21.2715
 20
8.0688
 30
0.0
 10
-21.2567
 20
7.8929
 30
0.0
  0
SPLINE
  5
C8
330
1F
100
AcDbEntity
  8
ROUND
 62
   250
100
AcDbSpline
210
0.0
220
0.0
230
1.0
 70
    11
 71
     3
 72
    56
 73
    52
 74
     0
 42
0.0000000001
 43
0.0000000001
 40
0.0
 40
0.0
 40
0.0
 40
0.0
 40
0.0714285714285714
 40
0.0714285714285714
 40
0.0714285714285714
 40
0.0714285714285714
 40
0.1428571428571428
 40
0.1428571428571428
 40
0.1428571428571428
 40
0.1428571428571428
 40
0.2142857142857143
 40
0.2142857142857143
 40
0.2142857142857143
 40
0.2142857142857143
 40
0.2857142857142857
 40
0.2857142857142857
 40
0.2857142857142857
 40
0.2857142857142857
 40
0.3571428571428572
 40
0.3571428571428572
 40
0.3571428571428572
 40
0.3571428571428572
 40
0.4285714285714285
 40
0.4285714285714285
 40
0.4285714285714285
 40
0.4285714285714285
 40
0.5
 40
0.5
 40
0.5
 40
0.5
 40
0.5714285714285714
 40
0.5714285714285714
 40
0.5714285714285714
 40
0.5714285714285714
 40
0.6428571428571429
 40
0.6428571428571429
 40
0.6428571428571429
 40
0.6428571428571429
 40
0.7142857142857143
 40
0.7142857142857143
 40
0.7142857142857143
 40
0.7142857142857143
 40
0.7857142857142857
 40
0.7857142857142857
 40
0.7857142857142857
 40
0.7857142857142857
 40
0.8571428571428571
 40
0.8571428571428571
 40
0.8571428571428571
 40
0.8571428571428571
 40
1.0
 40
1.0
 40
1.0
 40
1.0
 10
-20.9918
 20
7.8927
 30
0.0
 10
-20.999
 20
7.9816
 30
0.0
 10
-20.9819
 20
8.0604
 30
0.0
 10
-20.9392
 20
8.129
 30
0.0
 10
-20.9392
 20
8.129
 30
0.0
 10
-20.8964
 20
8.1977
 30
0.0
 10
-20.8321
 20
8.2566
 30
0.0
 10
-20.7456
 20
8.3057
 30
0.0
 10
-20.7456
 20
8.3057
 30
0.0
 10
-20.6596
 20
8.3548
 30
0.0
 10
-20.554
 20
8.3951
 30
0.0
 10
-20.4309
 20
8.4261
 30
0.0
 10
-20.4309
 20
8.4261
 30
0.0
 10
-20.307
 20
8.457
 30
0.0
 10
-20.1674
 20
8.4789
 30
0.0
 10
-20.0121
 20
8.4925
 30
0.0
 10
-20.0121
 20
8.4925
 30
0.0
 10
-19.7969
 20
8.5114
 30
0.0
 10
-19.6097
 20
8.509
 30
0.0
 10
-19.4505
 20
8.4852
 30
0.0
 10
-19.4505
 20
8.4852
 30
0.0
 10
-19.2908
 20
8.4622
 30
0.0
 10
-19.1653
 20
8.416
 30
0.0
 10
-19.0736
 20
8.3481
 30
0.0
 10
-19.0736
 20
8.3481
 30
0.0
 10
-18.982
 20
8.2801
 30
0.0
 10
-18.9312
 20
8.1885
 30
0.0
 10
-18.9198
 20
8.0739
 30
0.0
 10
-18.9198
 20
8.0739
 30
0.0
 10
-18.9114
 20
7.9702
 30
0.0
 10
-18.9435
 20
7.8771
 30
0.0
 10
-19.0166
 20
7.7934
 30
0.0
 10
-19.0166
 20
7.7934
 30
0.0
 10
-19.0899
 20
7.7104
 30
0.0
 10
-19.2007
 20
7.6416
 30
0.0
 10
-19.3492
 20
7.5865
 30
0.0
 10
-19.3492
 20
7.5865
 30
0.0
 10
-19.4982
 20
7.5313
 30
0.0
 10
-19.6813
 20
7.4938
 30
0.0
 10
-19.8996
 20
7.4741
 30
0.0
 10
-19.8996
 20
7.4741
 30
0.0
 10
-20.1284
 20
7.4547
 30
0.0
 10
-20.3217
 20
7.4604
 30
0.0
 10
-20.4814
 20
7.4906
 30
0.0
 10
-20.4814
 20
7.4906
 30
0.0
 10
-20.6406
 20
7.5209
 30
0.0
 10
-20.7631
 20
7.5706
 30
0.0
 10
-20.8497
 20
7.6402
 30
0.0
 10
-20.8497
 20
7.6402
 30
0.0
 10
-20.9356
 20
7.71
 30
0.0
 10
-20.9832
 20
7.794
 30
0.0
 10
-20.9918
 20
7.8927
 30
0.0
  0
SPLINE
  5
C9
330
1F
100
AcDbEntity
  8
ROUND
 62
   250
370
    20
100
AcDbSpline
210
0.0
220
0.0
230
1.0
 70
    24
 71
     3
 72
     8
 73
     4
 74
     0
 42
0.0000000001
 43
0.0000000001
 40
0.0
 40
0.0
 40
0.0
 40
0.0
 40
1.0
 40
1.0
 40
1.0
 40
1.0
 10
14.703
 20
4.604
 30
0.0
 10
14.703
 20
4.604
 30
0.0
 10
26.9067
 20
4.604
 30
0.0
 10
26.9067
 20
4.604
 30
0.0
  0
SPLINE
  5
CA
330
1F
100
AcDbEntity
  8
ROUND
 62
   250
100
AcDbSpline
210
0.0
220
0.0
230
1.0
 70
    11
 71
     3
 72
   140
 73
   136
 74
     0
 42
0.0000000001
 43
0.0000000001
 40
0.0
 40
0.0
 40
0.0
 40
0.0
 40
0.0285714285714286
 40
0.0285714285714286
 40
0.0285714285714286
 40
0.0285714285714286
 40
0.0571428571428571
 40
0.0571428571428571
 40
0.0571428571428571
 40
0.0571428571428571
 40
0.0857142857142857
 40
0.0857142857142857
 40
0.0857142857142857
 40
0.0857142857142857
 40
0.1142857142857143
 40
0.1142857142857143
 40
0.1142857142857143
 40
0.1142857142857143
 40
0.1428571428571428
 40
0.1428571428571428
 40
0.1428571428571428
 40
0.1428571428571428
 40
0.1714285714285714
 40
0.1714285714285714
 40
0.1714285714285714
 40
0.1714285714285714
 40
0.2
 40
0.2
 40
0.2
 40
0.2
 40
0.2285714285714286
 40
0.2285714285714286
 40
0.2285714285714286
 40
0.2285714285714286
 40
0.2571428571428571
 40
0.2571428571428571
 40
0.2571428571428571
 40
0.2571428571428571
 40
0.2857142857142857
 40
0.2857142857142857
 40
0.2857142857142857
 40
0.2857142857142857
 40
0.3142857142857143
 40
0.3142857142857143
 40
0.3142857142857143
 40
0.3142857142857143
 40
0.3428571428571429
 40
0.3428571428571429
 40
0.3428571428571429
 40
0.3428571428571429
 40
0.3714285714285714
 40
0.3714285714285714
 40
0.3714285714285714
 40
0.3714285714285714
 40
0.4
 40
0.4
 40
0.4
 40
0.4
 40
0.4285714285714285
 40
0.4285714285714285
 40
0.4285714285714285
 40
0.4285714285714285
 40
0.4571428571428571
 40
0.4571428571428571
 40
0.4571428571428571
 40
0.4571428571428571
 40
0.4857142857142857
 40
0.4857142857142857
 40
0.4857142857142857
 40
0.4857142857142857
 40
0.5142857142857142
 40
0.5142857142857142
 40
0.5142857142857142
 40
0.5142857142857142
 40
0.5428571428571428
 40
0.5428571428571428
 40
0.5428571428571428
 40
0.5428571428571428
 40
0.5714285714285714
 40
0.5714285714285714
 40
0.5714285714285714
 40
0.5714285714285714
 40
0.6
 40
0.6
 40
0.6
 40
0.6
 40
0.6285714285714286
 40
0.6285714285714286
 40
0.6285714285714286
 40
0.6285714285714286
 40
0.6571428571428571
 40
0.6571428571428571
 40
0.6571428571428571
 40
0.6571428571428571
 40
0.6857142857142857
 40
0.6857142857142857
 40
0.6857142857142857
 40
0.6857142857142857
 40
0.7142857142857143
 40
0.7142857142857143
 40
0.7142857142857143
 40
0.7142857142857143
 40
0.7428571428571429
 40
0.7428571428571429
 40
0.7428571428571429
 40
0.7428571428571429
 40
0.7714285714285715
 40
0.7714285714285715
 40
0.7714285714285715
 40
0.7714285714285715
 40
0.8
 40
0.8
 40
0.8
 40
0.8
 40
0.8285714285714286
 40
0.8285714285714286
 40
0.8285714285714286
 40
0.8285714285714286
 40
0.8571428571428571
 40
0.8571428571428571
 40
0.8571428571428571
 40
0.8571428571428571
 40
0.8857142857142857
 40
0.8857142857142857
 40
0.8857142857142857
 40
0.8857142857142857
 40
0.9142857142857143
 40
0.9142857142857143
 40
0.9142857142857143
 40
0.9142857142857143
 40
0.9428571428571428
 40
0.9428571428571428
 40
0.9428571428571428
 40
0.9428571428571428
 40
1.0
 40
1.0
 40
1.0
 40
1.0
 10
18.517
 20
6.8663
 30
0.0
 10
18.517
 20
6.8663
 30
0.0
 10
17.6555
 20
6.8663
 30
0.0
 10
17.6555
 20
6.8663
 30
0.0
 10
17.6555
 20
6.8663
 30
0.0
 10
17.6555
 20
6.8663
 30
0.0
 10
17.6555
 20
6.5947
 30
0.0
 10
17.6555
 20
6.5947
 30
0.0
 10
17.6555
 20
6.5947
 30
0.0
 10
17.6555
 20
6.5947
 30
0.0
 10
18.1833
 20
6.5947
 30
0.0
 10
18.1833
 20
6.5947
 30
0.0
 10
18.1833
 20
6.5947
 30
0.0
 10
18.1833
 20
6.5947
 30
0.0
 10
18.1833
 20
5.8147
 30
0.0
 10
18.1833
 20
5.8147
 30
0.0
 10
18.1833
 20
5.8147
 30
0.0
 10
18.1445
 20
5.7946
 30
0.0
 10
18.0876
 20
5.7785
 30
0.0
 10
18.0119
 20
5.7649
 30
0.0
 10
18.0119
 20
5.7649
 30
0.0
 10
17.9369
 20
5.7519
 30
0.0
 10
17.8437
 20
5.7455
 30
0.0
 10
17.7331
 20
5.7448
 30
0.0
 10
17.7331
 20
5.7448
 30
0.0
 10
17.5792
 20
5.7448
 30
0.0
 10
17.4408
 20
5.7688
 30
0.0
 10
17.3166
 20
5.8166
 30
0.0
 10
17.3166
 20
5.8166
 30
0.0
 10
17.1931
 20
5.8638
 30
0.0
 10
17.087
 20
5.933
 30
0.0
 10
16.9984
 20
6.0236
 30
0.0
 10
16.9984
 20
6.0236
 30
0.0
 10
16.9105
 20
6.1148
 30
0.0
 10
16.8426
 20
6.2254
 30
0.0
 10
16.7953
 20
6.3554
 30
0.0
 10
16.7953
 20
6.3554
 30
0.0
 10
16.7481
 20
6.486
 30
0.0
 10
16.7249
 20
6.6341
 30
0.0
 10
16.7242
 20
6.8003
 30
0.0
 10
16.7242
 20
6.8003
 30
0.0
 10
16.7249
 20
6.9646
 30
0.0
 10
16.7494
 20
7.1114
 30
0.0
 10
16.7992
 20
7.2414
 30
0.0
 10
16.7992
 20
7.2414
 30
0.0
 10
16.8484
 20
7.3708
 30
0.0
 10
16.9189
 20
7.4814
 30
0.0
 10
17.0114
 20
7.5719
 30
0.0
 10
17.0114
 20
7.5719
 30
0.0
 10
17.1038
 20
7.6631
 30
0.0
 10
17.2138
 20
7.7323
 30
0.0
 10
17.3431
 20
7.7802
 30
0.0
 10
17.3431
 20
7.7802
 30
0.0
 10
17.4718
 20
7.8274
 30
0.0
 10
17.6161
 20
7.8519
 30
0.0
 10
17.7758
 20
7.8519
 30
0.0
 10
17.7758
 20
7.8519
 30
0.0
 10
17.8638
 20
7.8519
 30
0.0
 10
17.942
 20
7.8468
 30
0.0
 10
18.0119
 20
7.8377
 30
0.0
 10
18.0119
 20
7.8377
 30
0.0
 10
18.0817
 20
7.828
 30
0.0
 10
18.1445
 20
7.8151
 30
0.0
 10
18.2007
 20
7.7983
 30
0.0
 10
18.2007
 20
7.7983
 30
0.0
 10
18.257
 20
7.7814
 30
0.0
 10
18.3081
 20
7.7614
 30
0.0
 10
18.354
 20
7.7394
 30
0.0
 10
18.354
 20
7.7394
 30
0.0
 10
18.354
 20
7.7394
 30
0.0
 10
18.4394
 20
8.0149
 30
0.0
 10
18.4394
 20
8.0149
 30
0.0
 10
18.4394
 20
8.0149
 30
0.0
 10
18.4012
 20
8.0337
 30
0.0
 10
18.3508
 20
8.0518
 30
0.0
 10
18.2868
 20
8.0705
 30
0.0
 10
18.2868
 20
8.0705
 30
0.0
 10
18.2227
 20
8.0887
 30
0.0
 10
18.1483
 20
8.1042
 30
0.0
 10
18.063
 20
8.1165
 30
0.0
 10
18.063
 20
8.1165
 30
0.0
 10
17.9783
 20
8.1281
 30
0.0
 10
17.8851
 20
8.1346
 30
0.0
 10
17.7836
 20
8.1352
 30
0.0
 10
17.7836
 20
8.1352
 30
0.0
 10
17.5637
 20
8.1346
 30
0.0
 10
17.3664
 20
8.1003
 30
0.0
 10
17.1925
 20
8.0337
 30
0.0
 10
17.1925
 20
8.0337
 30
0.0
 10
17.0178
 20
7.9671
 30
0.0
 10
16.8691
 20
7.8733
 30
0.0
 10
16.7468
 20
7.7523
 30
0.0
 10
16.7468
 20
7.7523
 30
0.0
 10
16.624
 20
7.6314
 30
0.0
 10
16.5302
 20
7.4891
 30
0.0
 10
16.4655
 20
7.3248
 30
0.0
 10
16.4655
 20
7.3248
 30
0.0
 10
16.4002
 20
7.1606
 30
0.0
 10
16.3678
 20
6.9808
 30
0.0
 10
16.3672
 20
6.7848
 30
0.0
 10
16.3672
 20
6.7848
 30
0.0
 10
16.3678
 20
6.6483
 30
0.0
 10
16.3827
 20
6.5203
 30
0.0
 10
16.4118
 20
6.3993
 30
0.0
 10
16.4118
 20
6.3993
 30
0.0
 10
16.4409
 20
6.279
 30
0.0
 10
16.483
 20
6.1691
 30
0.0
 10
16.5373
 20
6.0695
 30
0.0
 10
16.5373
 20
6.0695
 30
0.0
 10
16.5916
 20
5.9699
 30
0.0
 10
16.6563
 20
5.8839
 30
0.0
 10
16.732
 20
5.8108
 30
0.0
 10
16.732
 20
5.8108
 30
0.0
 10
16.86
 20
5.6892
 30
0.0
 10
17.0055
 20
5.6013
 30
0.0
 10
17.1685
 20
5.5463
 30
0.0
 10
17.1685
 20
5.5463
 30
0.0
 10
17.3315
 20
5.4913
 30
0.0
 10
17.5119
 20
5.4648
 30
0.0
 10
17.7099
 20
5.4654
 30
0.0
 10
17.7099
 20
5.4654
 30
0.0
 10
17.8282
 20
5.4661
 30
0.0
 10
17.9388
 20
5.4745
 30
0.0
 10
18.0423
 20
5.49
 30
0.0
 10
18.0423
 20
5.49
 30
0.0
 10
18.1458
 20
5.5055
 30
0.0
 10
18.2382
 20
5.5243
 30
0.0
 10
18.3191
 20
5.5456
 30
0.0
 10
18.3191
 20
5.5456
 30
0.0
 10
18.3999
 20
5.5676
 30
0.0
 10
18.4659
 20
5.589
 30
0.0
 10
18.517
 20
5.609
 30
0.0
 10
18.517
 20
5.609
 30
0.0
 10
18.517
 20
5.609
 30
0.0
 10
18.517
 20
6.8663
 30
0.0
 10
18.517
 20
6.8663
 30
0.0
  0
SPLINE
  5
CB
330
1F
100
AcDbEntity
  8
ROUND
 62
   250
100
AcDbSpline
210
0.0
220
0.0
230
1.0
 70
    11
 71
     3
 72
   124
 73
   120
 74
     0
 42
0.0000000001
 43
0.0000000001
 40
0.0
 40
0.0
 40
0.0
 40
0.0
 40
0.032258064516129
 40
0.032258064516129
 40
0.032258064516129
 40
0.032258064516129
 40
0.0645161290322581
 40
0.0645161290322581
 40
0.0645161290322581
 40
0.0645161290322581
 40
0.0967741935483871
 40
0.0967741935483871
 40
0.0967741935483871
 40
0.0967741935483871
 40
0.1290322580645161
 40
0.1290322580645161
 40
0.1290322580645161
 40
0.1290322580645161
 40
0.1612903225806452
 40
0.1612903225806452
 40
0.1612903225806452
 40
0.1612903225806452
 40
0.1935483870967742
 40
0.1935483870967742
 40
0.1935483870967742
 40
0.1935483870967742
 40
0.2258064516129032
 40
0.2258064516129032
 40
0.2258064516129032
 40
0.2258064516129032
 40
0.2580645161290323
 40
0.2580645161290323
 40
0.2580645161290323
 40
0.2580645161290323
 40
0.2903225806451613
 40
0.2903225806451613
 40
0.2903225806451613
 40
0.2903225806451613
 40
0.3225806451612903
 40
0.3225806451612903
 40
0.3225806451612903
 40
0.3225806451612903
 40
0.3548387096774194
 40
0.3548387096774194
 40
0.3548387096774194
 40
0.3548387096774194
 40
0.3870967741935484
 40
0.3870967741935484
 40
0.3870967741935484
 40
0.3870967741935484
 40
0.4193548387096774
 40
0.4193548387096774
 40
0.4193548387096774
 40
0.4193548387096774
 40
0.4516129032258064
 40
0.4516129032258064
 40
0.4516129032258064
 40
0.4516129032258064
 40
0.4838709677419355
 40
0.4838709677419355
 40
0.4838709677419355
 40
0.4838709677419355
 40
0.5161290322580645
 40
0.5161290322580645
 40
0.5161290322580645
 40
0.5161290322580645
 40
0.5483870967741935
 40
0.5483870967741935
 40
0.5483870967741935
 40
0.5483870967741935
 40
0.5806451612903226
 40
0.5806451612903226
 40
0.5806451612903226
 40
0.5806451612903226
 40
0.6129032258064516
 40
0.6129032258064516
 40
0.6129032258064516
 40
0.6129032258064516
 40
0.6451612903225806
 40
0.6451612903225806
 40
0.6451612903225806
 40
0.6451612903225806
 40
0.6774193548387096
 40
0.6774193548387096
 40
0.6774193548387096
 40
0.6774193548387096
 40
0.7096774193548387
 40
0.7096774193548387
 40
0.7096774193548387
 40
0.7096774193548387
 40
0.7419354838709677
 40
0.7419354838709677
 40
0.7419354838709677
 40
0.7419354838709677
 40
0.7741935483870968
 40
0.7741935483870968
 40
0.7741935483870968
 40
0.7741935483870968
 40
0.8064516129032258
 40
0.8064516129032258
 40
0.8064516129032258
 40
0.8064516129032258
 40
0.8387096774193549
 40
0.8387096774193549
 40
0.8387096774193549
 40
0.8387096774193549
 40
0.8709677419354839
 40
0.8709677419354839
 40
0.8709677419354839
 40
0.8709677419354839
 40
0.9032258064516129
 40
0.9032258064516129
 40
0.9032258064516129
 40
0.9032258064516129
 40
0.9354838709677419
 40
0.9354838709677419
 40
0.9354838709677419
 40
0.9354838709677419
 40
1.0
 40
1.0
 40
1.0
 40
1.0
 10
21.1713
 20
8.0537
 30
0.0
 10
21.1402
 20
8.0537
 30
0.0
 10
21.1034
 20
8.0524
 30
0.0
 10
21.062
 20
8.0498
 30
0.0
 10
21.062
 20
8.0498
 30
0.0
 10
21.0199
 20
8.0473
 30
0.0
 10
20.9734
 20
8.0421
 30
0.0
 10
20.9229
 20
8.0343
 30
0.0
 10
20.9229
 20
8.0343
 30
0.0
 10
20.7632
 20
8.0149
 30
0.0
 10
20.6151
 20
7.9735
 30
0.0
 10
20.4786
 20
7.9108
 30
0.0
 10
20.4786
 20
7.9108
 30
0.0
 10
20.3422
 20
7.8481
 30
0.0
 10
20.2212
 20
7.7653
 30
0.0
 10
20.1158
 20
7.6618
 30
0.0
 10
20.1158
 20
7.6618
 30
0.0
 10
20.0311
 20
7.579
 30
0.0
 10
19.9567
 20
7.4807
 30
0.0
 10
19.8933
 20
7.3669
 30
0.0
 10
19.8933
 20
7.3669
 30
0.0
 10
19.8293
 20
7.2537
 30
0.0
 10
19.7795
 20
7.1263
 30
0.0
 10
19.7433
 20
6.9853
 30
0.0
 10
19.7433
 20
6.9853
 30
0.0
 10
19.7077
 20
6.8443
 30
0.0
 10
19.6896
 20
6.6904
 30
0.0
 10
19.6889
 20
6.5248
 30
0.0
 10
19.6889
 20
6.5248
 30
0.0
 10
19.6896
 20
6.3605
 30
0.0
 10
19.7109
 20
6.2124
 30
0.0
 10
19.7523
 20
6.0805
 30
0.0
 10
19.7523
 20
6.0805
 30
0.0
 10
19.7944
 20
5.9479
 30
0.0
 10
19.8545
 20
5.8354
 30
0.0
 10
19.9328
 20
5.7416
 30
0.0
 10
19.9328
 20
5.7416
 30
0.0
 10
20.0104
 20
5.6478
 30
0.0
 10
20.1042
 20
5.5754
 30
0.0
 10
20.2128
 20
5.5256
 30
0.0
 10
20.2128
 20
5.5256
 30
0.0
 10
20.3215
 20
5.4758
 30
0.0
 10
20.443
 20
5.4506
 30
0.0
 10
20.5776
 20
5.4499
 30
0.0
 10
20.5776
 20
5.4499
 30
0.0
 10
20.7095
 20
5.4512
 30
0.0
 10
20.8279
 20
5.4758
 30
0.0
 10
20.932
 20
5.5236
 30
0.0
 10
20.932
 20
5.5236
 30
0.0
 10
21.0355
 20
5.5722
 30
0.0
 10
21.1241
 20
5.6381
 30
0.0
 10
21.1965
 20
5.7215
 30
0.0
 10
21.1965
 20
5.7215
 30
0.0
 10
21.2689
 20
5.805
 30
0.0
 10
21.3246
 20
5.9001
 30
0.0
 10
21.3621
 20
6.0068
 30
0.0
 10
21.3621
 20
6.0068
 30
0.0
 10
21.4002
 20
6.1128
 30
0.0
 10
21.4196
 20
6.2247
 30
0.0
 10
21.4196
 20
6.3424
 30
0.0
 10
21.4196
 20
6.3424
 30
0.0
 10
21.419
 20
6.4653
 30
0.0
 10
21.4002
 20
6.5766
 30
0.0
 10
21.3634
 20
6.6762
 30
0.0
 10
21.3634
 20
6.6762
 30
0.0
 10
21.3265
 20
6.7758
 30
0.0
 10
21.2741
 20
6.8618
 30
0.0
 10
21.2069
 20
6.9336
 30
0.0
 10
21.2069
 20
6.9336
 30
0.0
 10
21.139
 20
7.0047
 30
0.0
 10
21.0588
 20
7.0603
 30
0.0
 10
20.9663
 20
7.0985
 30
0.0
 10
20.9663
 20
7.0985
 30
0.0
 10
20.8738
 20
7.1373
 30
0.0
 10
20.7709
 20
7.1567
 30
0.0
 10
20.6591
 20
7.1573
 30
0.0
 10
20.6591
 20
7.1573
 30
0.0
 10
20.5659
 20
7.1567
 30
0.0
 10
20.4806
 20
7.1431
 30
0.0
 10
20.4029
 20
7.1172
 30
0.0
 10
20.4029
 20
7.1172
 30
0.0
 10
20.3253
 20
7.0907
 30
0.0
 10
20.2561
 20
7.0558
 30
0.0
 10
20.196
 20
7.0112
 30
0.0
 10
20.196
 20
7.0112
 30
0.0
 10
20.1365
 20
6.9672
 30
0.0
 10
20.086
 20
6.9174
 30
0.0
 10
20.0459
 20
6.8624
 30
0.0
 10
20.0459
 20
6.8624
 30
0.0
 10
20.0459
 20
6.8624
 30
0.0
 10
20.0382
 20
6.8624
 30
0.0
 10
20.0382
 20
6.8624
 30
0.0
 10
20.0382
 20
6.8624
 30
0.0
 10
20.0524
 20
6.9678
 30
0.0
 10
20.0809
 20
7.0694
 30
0.0
 10
20.1242
 20
7.167
 30
0.0
 10
20.1242
 20
7.167
 30
0.0
 10
20.1669
 20
7.264
 30
0.0
 10
20.2238
 20
7.3533
 30
0.0
 10
20.2962
 20
7.4341
 30
0.0
 10
20.2962
 20
7.4341
 30
0.0
 10
20.3687
 20
7.5143
 30
0.0
 10
20.456
 20
7.5829
 30
0.0
 10
20.5588
 20
7.6385
 30
0.0
 10
20.5588
 20
7.6385
 30
0.0
 10
20.6616
 20
7.6941
 30
0.0
 10
20.7807
 20
7.7329
 30
0.0
 10
20.9152
 20
7.7549
 30
0.0
 10
20.9152
 20
7.7549
 30
0.0
 10
20.9637
 20
7.7627
 30
0.0
 10
21.0102
 20
7.7685
 30
0.0
 10
21.0536
 20
7.7717
 30
0.0
 10
21.0536
 20
7.7717
 30
0.0
 10
21.0969
 20
7.7756
 30
0.0
 10
21.1364
 20
7.7763
 30
0.0
 10
21.1713
 20
7.7743
 30
0.0
 10
21.1713
 20
7.7743
 30
0.0
 10
21.1713
 20
7.7743
 30
0.0
 10
21.1713
 20
8.0537
 30
0.0
 10
21.1713
 20
8.0537
 30
0.0
  0
SPLINE
  5
CC
330
1F
100
AcDbEntity
  8
ROUND
 62
   250
100
AcDbSpline
210
0.0
220
0.0
230
1.0
 70
    11
 71
     3
 72
    64
 73
    60
 74
     0
 42
0.0000000001
 43
0.0000000001
 40
0.0
 40
0.0
 40
0.0
 40
0.0
 40
0.0625
 40
0.0625
 40
0.0625
 40
0.0625
 40
0.125
 40
0.125
 40
0.125
 40
0.125
 40
0.1875
 40
0.1875
 40
0.1875
 40
0.1875
 40
0.25
 40
0.25
 40
0.25
 40
0.25
 40
0.3125
 40
0.3125
 40
0.3125
 40
0.3125
 40
0.375
 40
0.375
 40
0.375
 40
0.375
 40
0.4375
 40
0.4375
 40
0.4375
 40
0.4375
 40
0.5
 40
0.5
 40
0.5
 40
0.5
 40
0.5625
 40
0.5625
 40
0.5625
 40
0.5625
 40
0.625
 40
0.625
 40
0.625
 40
0.625
 40
0.6875
 40
0.6875
 40
0.6875
 40
0.6875
 40
0.75
 40
0.75
 40
0.75
 40
0.75
 40
0.8125
 40
0.8125
 40
0.8125
 40
0.8125
 40
0.875
 40
0.875
 40
0.875
 40
0.875
 40
1.0
 40
1.0
 40
1.0
 40
1.0
 10
20.5853
 20
5.7138
 30
0.0
 10
20.4948
 20
5.7144
 30
0.0
 10
20.4152
 20
5.7325
 30
0.0
 10
20.346
 20
5.7688
 30
0.0
 10
20.346
 20
5.7688
 30
0.0
 10
20.2775
 20
5.805
 30
0.0
 10
20.2193
 20
5.8554
 30
0.0
 10
20.1721
 20
5.9207
 30
0.0
 10
20.1721
 20
5.9207
 30
0.0
 10
20.1248
 20
5.9861
 30
0.0
 10
20.0893
 20
6.063
 30
0.0
 10
20.0647
 20
6.151
 30
0.0
 10
20.0647
 20
6.151
 30
0.0
 10
20.0401
 20
6.2389
 30
0.0
 10
20.0278
 20
6.3353
 30
0.0
 10
20.0265
 20
6.4394
 30
0.0
 10
20.0265
 20
6.4394
 30
0.0
 10
20.0265
 20
6.4705
 30
0.0
 10
20.0304
 20
6.4976
 30
0.0
 10
20.0369
 20
6.5222
 30
0.0
 10
20.0369
 20
6.5222
 30
0.0
 10
20.0434
 20
6.5462
 30
0.0
 10
20.0518
 20
6.5675
 30
0.0
 10
20.0615
 20
6.5869
 30
0.0
 10
20.0615
 20
6.5869
 30
0.0
 10
20.0932
 20
6.6496
 30
0.0
 10
20.1339
 20
6.704
 30
0.0
 10
20.185
 20
6.7505
 30
0.0
 10
20.185
 20
6.7505
 30
0.0
 10
20.2354
 20
6.7964
 30
0.0
 10
20.2924
 20
6.8327
 30
0.0
 10
20.3557
 20
6.8585
 30
0.0
 10
20.3557
 20
6.8585
 30
0.0
 10
20.4191
 20
6.8838
 30
0.0
 10
20.4851
 20
6.8973
 30
0.0
 10
20.5543
 20
6.8973
 30
0.0
 10
20.5543
 20
6.8973
 30
0.0
 10
20.6597
 20
6.8967
 30
0.0
 10
20.7509
 20
6.8734
 30
0.0
 10
20.8292
 20
6.8275
 30
0.0
 10
20.8292
 20
6.8275
 30
0.0
 10
20.9068
 20
6.7816
 30
0.0
 10
20.9669
 20
6.7156
 30
0.0
 10
21.0096
 20
6.6296
 30
0.0
 10
21.0096
 20
6.6296
 30
0.0
 10
21.0523
 20
6.5436
 30
0.0
 10
21.0736
 20
6.4401
 30
0.0
 10
21.0743
 20
6.3191
 30
0.0
 10
21.0743
 20
6.3191
 30
0.0
 10
21.0736
 20
6.1982
 30
0.0
 10
21.0529
 20
6.0921
 30
0.0
 10
21.0122
 20
6.0016
 30
0.0
 10
21.0122
 20
6.0016
 30
0.0
 10
20.9714
 20
5.911
 30
0.0
 10
20.9145
 20
5.8412
 30
0.0
 10
20.8414
 20
5.7908
 30
0.0
 10
20.8414
 20
5.7908
 30
0.0
 10
20.7684
 20
5.7403
 30
0.0
 10
20.683
 20
5.7144
 30
0.0
 10
20.5853
 20
5.7138
 30
0.0
  0
SPLINE
  5
CD
330
1F
100
AcDbEntity
  8
ROUND
 62
   250
100
AcDbSpline
210
0.0
220
0.0
230
1.0
 70
    11
 71
     3
 72
    20
 73
    16
 74
     0
 42
0.0000000001
 43
0.0000000001
 40
0.0
 40
0.0
 40
0.0
 40
0.0
 40
0.2
 40
0.2
 40
0.2
 40
0.2
 40
0.4
 40
0.4
 40
0.4
 40
0.4
 40
0.6
 40
0.6
 40
0.6
 40
0.6
 40
1.0
 40
1.0
 40
1.0
 40
1.0
 10
21.8038
 20
5.3413
 30
0.0
 10
21.8038
 20
5.3413
 30
0.0
 10
22.8904
 20
8.1546
 30
0.0
 10
22.8904
 20
8.1546
 30
0.0
 10
22.8904
 20
8.1546
 30
0.0
 10
22.8904
 20
8.1546
 30
0.0
 10
22.6226
 20
8.1546
 30
0.0
 10
22.6226
 20
8.1546
 30
0.0
 10
22.6226
 20
8.1546
 30
0.0
 10
22.6226
 20
8.1546
 30
0.0
 10
21.5438
 20
5.3413
 30
0.0
 10
21.5438
 20
5.3413
 30
0.0
 10
21.5438
 20
5.3413
 30
0.0
 10
21.5438
 20
5.3413
 30
0.0
 10
21.8038
 20
5.3413
 30
0.0
 10
21.8038
 20
5.3413
 30
0.0
  0
SPLINE
  5
CE
330
1F
100
AcDbEntity
  8
ROUND
 62
   250
100
AcDbSpline
210
0.0
220
0.0
230
1.0
 70
    11
 71
     3
 72
    48
 73
    44
 74
     0
 42
0.0000000001
 43
0.0000000001
 40
0.0
 40
0.0
 40
0.0
 40
0.0
 40
0.0833333333333333
 40
0.0833333333333333
 40
0.0833333333333333
 40
0.0833333333333333
 40
0.1666666666666667
 40
0.1666666666666667
 40
0.1666666666666667
 40
0.1666666666666667
 40
0.25
 40
0.25
 40
0.25
 40
0.25
 40
0.3333333333333333
 40
0.3333333333333333
 40
0.3333333333333333
 40
0.3333333333333333
 40
0.4166666666666667
 40
0.4166666666666667
 40
0.4166666666666667
 40
0.4166666666666667
 40
0.5
 40
0.5
 40
0.5
 40
0.5
 40
0.5833333333333334
 40
0.5833333333333334
 40
0.5833333333333334
 40
0.5833333333333334
 40
0.6666666666666666
 40
0.6666666666666666
 40
0.6666666666666666
 40
0.6666666666666666
 40
0.75
 40
0.75
 40
0.75
 40
0.75
 40
0.8333333333333334
 40
0.8333333333333334
 40
0.8333333333333334
 40
0.8333333333333334
 40
1.0
 40
1.0
 40
1.0
 40
1.0
 10
24.4309
 20
5.4926
 30
0.0
 10
24.4309
 20
5.4926
 30
0.0
 10
24.4309
 20
6.1833
 30
0.0
 10
24.4309
 20
6.1833
 30
0.0
 10
24.4309
 20
6.1833
 30
0.0
 10
24.4309
 20
6.1833
 30
0.0
 10
24.784
 20
6.1833
 30
0.0
 10
24.784
 20
6.1833
 30
0.0
 10
24.784
 20
6.1833
 30
0.0
 10
24.784
 20
6.1833
 30
0.0
 10
24.784
 20
6.4472
 30
0.0
 10
24.784
 20
6.4472
 30
0.0
 10
24.784
 20
6.4472
 30
0.0
 10
24.784
 20
6.4472
 30
0.0
 10
24.4309
 20
6.4472
 30
0.0
 10
24.4309
 20
6.4472
 30
0.0
 10
24.4309
 20
6.4472
 30
0.0
 10
24.4309
 20
6.4472
 30
0.0
 10
24.4309
 20
8.0149
 30
0.0
 10
24.4309
 20
8.0149
 30
0.0
 10
24.4309
 20
8.0149
 30
0.0
 10
24.4309
 20
8.0149
 30
0.0
 10
24.0623
 20
8.0149
 30
0.0
 10
24.0623
 20
8.0149
 30
0.0
 10
24.0623
 20
8.0149
 30
0.0
 10
24.0623
 20
8.0149
 30
0.0
 10
22.9369
 20
6.4045
 30
0.0
 10
22.9369
 20
6.4045
 30
0.0
 10
22.9369
 20
6.4045
 30
0.0
 10
22.9369
 20
6.4045
 30
0.0
 10
22.9369
 20
6.1833
 30
0.0
 10
22.9369
 20
6.1833
 30
0.0
 10
22.9369
 20
6.1833
 30
0.0
 10
22.9369
 20
6.1833
 30
0.0
 10
24.1088
 20
6.1833
 30
0.0
 10
24.1088
 20
6.1833
 30
0.0
 10
24.1088
 20
6.1833
 30
0.0
 10
24.1088
 20
6.1833
 30
0.0
 10
24.1088
 20
5.4926
 30
0.0
 10
24.1088
 20
5.4926
 30
0.0
 10
24.1088
 20
5.4926
 30
0.0
 10
24.1088
 20
5.4926
 30
0.0
 10
24.4309
 20
5.4926
 30
0.0
 10
24.4309
 20
5.4926
 30
0.0
  0
SPLINE
  5
CF
330
1F
100
AcDbEntity
  8
ROUND
 62
   250
100
AcDbSpline
210
0.0
220
0.0
230
1.0
 70
    11
 71
     3
 72
    36
 73
    32
 74
     0
 42
0.0000000001
 43
0.0000000001
 40
0.0
 40
0.0
 40
0.0
 40
0.0
 40
0.1111111111111111
 40
0.1111111111111111
 40
0.1111111111111111
 40
0.1111111111111111
 40
0.2222222222222222
 40
0.2222222222222222
 40
0.2222222222222222
 40
0.2222222222222222
 40
0.3333333333333333
 40
0.3333333333333333
 40
0.3333333333333333
 40
0.3333333333333333
 40
0.4444444444444444
 40
0.4444444444444444
 40
0.4444444444444444
 40
0.4444444444444444
 40
0.5555555555555556
 40
0.5555555555555556
 40
0.5555555555555556
 40
0.5555555555555556
 40
0.6666666666666666
 40
0.6666666666666666
 40
0.6666666666666666
 40
0.6666666666666666
 40
0.7777777777777778
 40
0.7777777777777778
 40
0.7777777777777778
 40
0.7777777777777778
 40
1.0
 40
1.0
 40
1.0
 40
1.0
 10
23.2823
 20
6.4472
 30
0.0
 10
23.2823
 20
6.4472
 30
0.0
 10
23.2823
 20
6.455
 30
0.0
 10
23.2823
 20
6.455
 30
0.0
 10
23.2823
 20
6.455
 30
0.0
 10
23.2823
 20
6.455
 30
0.0
 10
23.8993
 20
7.3126
 30
0.0
 10
23.8993
 20
7.3126
 30
0.0
 10
23.8993
 20
7.3126
 30
0.0
 10
23.9335
 20
7.3701
 30
0.0
 10
23.9678
 20
7.4283
 30
0.0
 10
24.0015
 20
7.4872
 30
0.0
 10
24.0015
 20
7.4872
 30
0.0
 10
24.0344
 20
7.5467
 30
0.0
 10
24.0707
 20
7.6126
 30
0.0
 10
24.1088
 20
7.6851
 30
0.0
 10
24.1088
 20
7.6851
 30
0.0
 10
24.1088
 20
7.6851
 30
0.0
 10
24.1205
 20
7.6851
 30
0.0
 10
24.1205
 20
7.6851
 30
0.0
 10
24.1205
 20
7.6851
 30
0.0
 10
24.1127
 20
7.5531
 30
0.0
 10
24.1088
 20
7.4212
 30
0.0
 10
24.1088
 20
7.2893
 30
0.0
 10
24.1088
 20
7.2893
 30
0.0
 10
24.1088
 20
7.2893
 30
0.0
 10
24.1088
 20
6.4472
 30
0.0
 10
24.1088
 20
6.4472
 30
0.0
 10
24.1088
 20
6.4472
 30
0.0
 10
24.1088
 20
6.4472
 30
0.0
 10
23.2823
 20
6.4472
 30
0.0
 10
23.2823
 20
6.4472
 30
0.0
  0
SPLINE
  5
D0
330
1F
100
AcDbEntity
  8
ROUND
 62
   250
100
AcDbSpline
210
0.0
220
0.0
230
1.0
 70
    11
 71
     3
 72
    20
 73
    16
 74
     0
 42
0.0000000001
 43
0.0000000001
 40
0.0
 40
0.0
 40
0.0
 40
0.0
 40
0.2
 40
0.2
 40
0.2
 40
0.2
 40
0.4
 40
0.4
 40
0.4
 40
0.4
 40
0.6
 40
0.6
 40
0.6
 40
0.6
 40
1.0
 40
1.0
 40
1.0
 40
1.0
 10
25.0673
 20
8.1779
 30
0.0
 10
25.0673
 20
8.1779
 30
0.0
 10
25.1294
 20
7.2466
 30
0.0
 10
25.1294
 20
7.2466
 30
0.0
 10
25.1294
 20
7.2466
 30
0.0
 10
25.1294
 20
7.2466
 30
0.0
 10
25.3389
 20
7.2466
 30
0.0
 10
25.3389
 20
7.2466
 30
0.0
 10
25.3389
 20
7.2466
 30
0.0
 10
25.3389
 20
7.2466
 30
0.0
 10
25.4049
 20
8.1779
 30
0.0
 10
25.4049
 20
8.1779
 30
0.0
 10
25.4049
 20
8.1779
 30
0.0
 10
25.4049
 20
8.1779
 30
0.0
 10
25.0673
 20
8.1779
 30
0.0
 10
25.0673
 20
8.1779
 30
0.0
  0
SPLINE
  5
D1
330
1F
100
AcDbEntity
  8
ROUND
 62
   250
100
AcDbSpline
210
0.0
220
0.0
230
1.0
 70
    11
 71
     3
 72
    20
 73
    16
 74
     0
 42
0.0000000001
 43
0.0000000001
 40
0.0
 40
0.0
 40
0.0
 40
0.0
 40
0.2
 40
0.2
 40
0.2
 40
0.2
 40
0.4
 40
0.4
 40
0.4
 40
0.4
 40
0.6
 40
0.6
 40
0.6
 40
0.6
 40
1.0
 40
1.0
 40
1.0
 40
1.0
 10
25.6455
 20
8.1779
 30
0.0
 10
25.6455
 20
8.1779
 30
0.0
 10
25.7115
 20
7.2466
 30
0.0
 10
25.7115
 20
7.2466
 30
0.0
 10
25.7115
 20
7.2466
 30
0.0
 10
25.7115
 20
7.2466
 30
0.0
 10
25.9171
 20
7.2466
 30
0.0
 10
25.9171
 20
7.2466
 30
0.0
 10
25.9171
 20
7.2466
 30
0.0
 10
25.9171
 20
7.2466
 30
0.0
 10
25.9831
 20
8.1779
 30
0.0
 10
25.9831
 20
8.1779
 30
0.0
 10
25.9831
 20
8.1779
 30
0.0
 10
25.9831
 20
8.1779
 30
0.0
 10
25.6455
 20
8.1779
 30
0.0
 10
25.6455
 20
8.1779
 30
0.0
  0
SPLINE
  5
D2
330
1F
100
AcDbEntity
  8
ROUND
 62
   250
370
    18
100
AcDbSpline
210
0.0
220
0.0
230
1.0
 70
    24
 71
     3
 72
     8
 73
     4
 74
     0
 42
0.0000000001
 43
0.0000000001
 40
0.0
 40
0.0
 40
0.0
 40
0.0
 40
1.0
 40
1.0
 40
1.0
 40
1.0
 10
13.6928
 20
-7.024
 30
0.0
 10
13.6928
 20
-7.024
 30
0.0
 10
13.6928
 20
9.875
 30
0.0
 10
13.6928
 20
9.875
 30
0.0
  0
SPLINE
  5
D3
330
1F
100
AcDbEntity
  8
ROUND
 62
   250
100
AcDbSpline
210
0.0
220
0.0
230
1.0
 70
    11
 71
     3
 72
   124
 73
   120
 74
     0
 42
0.0000000001
 43
0.0000000001
 40
0.0
 40
0.0
 40
0.0
 40
0.0
 40
0.032258064516129
 40
0.032258064516129
 40
0.032258064516129
 40
0.032258064516129
 40
0.0645161290322581
 40
0.0645161290322581
 40
0.0645161290322581
 40
0.0645161290322581
 40
0.0967741935483871
 40
0.0967741935483871
 40
0.0967741935483871
 40
0.0967741935483871
 40
0.1290322580645161
 40
0.1290322580645161
 40
0.1290322580645161
 40
0.1290322580645161
 40
0.1612903225806452
 40
0.1612903225806452
 40
0.1612903225806452
 40
0.1612903225806452
 40
0.1935483870967742
 40
0.1935483870967742
 40
0.1935483870967742
 40
0.1935483870967742
 40
0.2258064516129032
 40
0.2258064516129032
 40
0.2258064516129032
 40
0.2258064516129032
 40
0.2580645161290323
 40
0.2580645161290323
 40
0.2580645161290323
 40
0.2580645161290323
 40
0.2903225806451613
 40
0.2903225806451613
 40
0.2903225806451613
 40
0.2903225806451613
 40
0.3225806451612903
 40
0.3225806451612903
 40
0.3225806451612903
 40
0.3225806451612903
 40
0.3548387096774194
 40
0.3548387096774194
 40
0.3548387096774194
 40
0.3548387096774194
 40
0.3870967741935484
 40
0.3870967741935484
 40
0.3870967741935484
 40
0.3870967741935484
 40
0.4193548387096774
 40
0.4193548387096774
 40
0.4193548387096774
 40
0.4193548387096774
 40
0.4516129032258064
 40
0.4516129032258064
 40
0.4516129032258064
 40
0.4516129032258064
 40
0.4838709677419355
 40
0.4838709677419355
 40
0.4838709677419355
 40
0.4838709677419355
 40
0.5161290322580645
 40
0.5161290322580645
 40
0.5161290322580645
 40
0.5161290322580645
 40
0.5483870967741935
 40
0.5483870967741935
 40
0.5483870967741935
 40
0.5483870967741935
 40
0.5806451612903226
 40
0.5806451612903226
 40
0.5806451612903226
 40
0.5806451612903226
 40
0.6129032258064516
 40
0.6129032258064516
 40
0.6129032258064516
 40
0.6129032258064516
 40
0.6451612903225806
 40
0.6451612903225806
 40
0.6451612903225806
 40
0.6451612903225806
 40
0.6774193548387096
 40
0.6774193548387096
 40
0.6774193548387096
 40
0.6774193548387096
 40
0.7096774193548387
 40
0.7096774193548387
 40
0.7096774193548387
 40
0.7096774193548387
 40
0.7419354838709677
 40
0.7419354838709677
 40
0.7419354838709677
 40
0.7419354838709677
 40
0.7741935483870968
 40
0.7741935483870968
 40
0.7741935483870968
 40
0.7741935483870968
 40
0.8064516129032258
 40
0.8064516129032258
 40
0.8064516129032258
 40
0.8064516129032258
 40
0.8387096774193549
 40
0.8387096774193549
 40
0.8387096774193549
 40
0.8387096774193549
 40
0.8709677419354839
 40
0.8709677419354839
 40
0.8709677419354839
 40
0.8709677419354839
 40
0.9032258064516129
 40
0.9032258064516129
 40
0.9032258064516129
 40
0.9032258064516129
 40
0.9354838709677419
 40
0.9354838709677419
 40
0.9354838709677419
 40
0.9354838709677419
 40
1.0
 40
1.0
 40
1.0
 40
1.0
 10
13.3117
 20
0.8805
 30
0.0
 10
13.3136
 20
0.9213
 30
0.0
 10
13.3136
 20
0.9685
 30
0.0
 10
13.3104
 20
1.0215
 30
0.0
 10
13.3104
 20
1.0215
 30
0.0
 10
13.3078
 20
1.0746
 30
0.0
 10
13.302
 20
1.1328
 30
0.0
 10
13.2923
 20
1.1948
 30
0.0
 10
13.2923
 20
1.1948
 30
0.0
 10
13.282
 20
1.286
 30
0.0
 10
13.2619
 20
1.3753
 30
0.0
 10
13.2334
 20
1.4626
 30
0.0
 10
13.2334
 20
1.4626
 30
0.0
 10
13.2043
 20
1.5499
 30
0.0
 10
13.1662
 20
1.6333
 30
0.0
 10
13.1196
 20
1.7122
 30
0.0
 10
13.1196
 20
1.7122
 30
0.0
 10
13.0731
 20
1.7912
 30
0.0
 10
13.0181
 20
1.8629
 30
0.0
 10
12.9547
 20
1.9283
 30
0.0
 10
12.9547
 20
1.9283
 30
0.0
 10
12.8745
 20
2.0117
 30
0.0
 10
12.7781
 20
2.0861
 30
0.0
 10
12.6643
 20
2.1514
 30
0.0
 10
12.6643
 20
2.1514
 30
0.0
 10
12.5511
 20
2.2167
 30
0.0
 10
12.4205
 20
2.2678
 30
0.0
 10
12.2724
 20
2.3053
 30
0.0
 10
12.2724
 20
2.3053
 30
0.0
 10
12.1243
 20
2.3428
 30
0.0
 10
11.9587
 20
2.3622
 30
0.0
 10
11.775
 20
2.3629
 30
0.0
 10
11.775
 20
2.3629
 30
0.0
 10
11.6114
 20
2.3629
 30
0.0
 10
11.4646
 20
2.3435
 30
0.0
 10
11.3333
 20
2.3053
 30
0.0
 10
11.3333
 20
2.3053
 30
0.0
 10
11.202
 20
2.2672
 30
0.0
 10
11.0901
 20
2.2115
 30
0.0
 10
10.997
 20
2.1391
 30
0.0
 10
10.997
 20
2.1391
 30
0.0
 10
10.9039
 20
2.0667
 30
0.0
 10
10.8327
 20
1.9794
 30
0.0
 10
10.7829
 20
1.8765
 30
0.0
 10
10.7829
 20
1.8765
 30
0.0
 10
10.7331
 20
1.7737
 30
0.0
 10
10.7085
 20
1.6579
 30
0.0
 10
10.7079
 20
1.5286
 30
0.0
 10
10.7079
 20
1.5286
 30
0.0
 10
10.7085
 20
1.3992
 30
0.0
 10
10.7331
 20
1.2815
 30
0.0
 10
10.781
 20
1.1761
 30
0.0
 10
10.781
 20
1.1761
 30
0.0
 10
10.8282
 20
1.0707
 30
0.0
 10
10.8942
 20
0.9801
 30
0.0
 10
10.9769
 20
0.9045
 30
0.0
 10
10.9769
 20
0.9045
 30
0.0
 10
11.0604
 20
0.8281
 30
0.0
 10
11.1554
 20
0.7699
 30
0.0
 10
11.2628
 20
0.7292
 30
0.0
 10
11.2628
 20
0.7292
 30
0.0
 10
11.3702
 20
0.6884
 30
0.0
 10
11.484
 20
0.6677
 30
0.0
 10
11.6043
 20
0.6671
 30
0.0
 10
11.6043
 20
0.6671
 30
0.0
 10
11.7123
 20
0.6677
 30
0.0
 10
11.8132
 20
0.6852
 30
0.0
 10
11.9063
 20
0.7195
 30
0.0
 10
11.9063
 20
0.7195
 30
0.0
 10
12.0001
 20
0.7544
 30
0.0
 10
12.0816
 20
0.8042
 30
0.0
 10
12.1521
 20
0.8689
 30
0.0
 10
12.1521
 20
0.8689
 30
0.0
 10
12.2219
 20
0.9336
 30
0.0
 10
12.2769
 20
1.0118
 30
0.0
 10
12.3164
 20
1.1024
 30
0.0
 10
12.3164
 20
1.1024
 30
0.0
 10
12.3558
 20
1.1936
 30
0.0
 10
12.3759
 20
1.2951
 30
0.0
 10
12.3765
 20
1.4083
 30
0.0
 10
12.3765
 20
1.4083
 30
0.0
 10
12.3759
 20
1.5363
 30
0.0
 10
12.3526
 20
1.6508
 30
0.0
 10
12.3067
 20
1.7511
 30
0.0
 10
12.3067
 20
1.7511
 30
0.0
 10
12.2607
 20
1.8507
 30
0.0
 10
12.1948
 20
1.936
 30
0.0
 10
12.1087
 20
2.0059
 30
0.0
 10
12.1087
 20
2.0059
 30
0.0
 10
12.1087
 20
2.0059
 30
0.0
 10
12.1087
 20
2.0175
 30
0.0
 10
12.1087
 20
2.0175
 30
0.0
 10
12.1087
 20
2.0175
 30
0.0
 10
12.2562
 20
1.9936
 30
0.0
 10
12.3856
 20
1.9528
 30
0.0
 10
12.4962
 20
1.8959
 30
0.0
 10
12.4962
 20
1.8959
 30
0.0
 10
12.6074
 20
1.8384
 30
0.0
 10
12.7005
 20
1.7679
 30
0.0
 10
12.7762
 20
1.6838
 30
0.0
 10
12.7762
 20
1.6838
 30
0.0
 10
12.846
 20
1.6114
 30
0.0
 10
12.9004
 20
1.5305
 30
0.0
 10
12.9405
 20
1.4406
 30
0.0
 10
12.9405
 20
1.4406
 30
0.0
 10
12.9806
 20
1.3507
 30
0.0
 10
13.0071
 20
1.2556
 30
0.0
 10
13.0207
 20
1.156
 30
0.0
 10
13.0207
 20
1.156
 30
0.0
 10
13.0265
 20
1.0985
 30
0.0
 10
13.031
 20
1.0467
 30
0.0
 10
13.0336
 20
1.0021
 30
0.0
 10
13.0336
 20
1.0021
 30
0.0
 10
13.0362
 20
0.9575
 30
0.0
 10
13.0362
 20
0.9167
 30
0.0
 10
13.0323
 20
0.8805
 30
0.0
 10
13.0323
 20
0.8805
 30
0.0
 10
13.0323
 20
0.8805
 30
0.0
 10
13.3117
 20
0.8805
 30
0.0
 10
13.3117
 20
0.8805
 30
0.0
  0
SPLINE
  5
D4
330
1F
100
AcDbEntity
  8
ROUND
 62
   250
100
AcDbSpline
210
0.0
220
0.0
230
1.0
 70
    11
 71
     3
 72
    64
 73
    60
 74
     0
 42
0.0000000001
 43
0.0000000001
 40
0.0
 40
0.0
 40
0.0
 40
0.0
 40
0.0625
 40
0.0625
 40
0.0625
 40
0.0625
 40
0.125
 40
0.125
 40
0.125
 40
0.125
 40
0.1875
 40
0.1875
 40
0.1875
 40
0.1875
 40
0.25
 40
0.25
 40
0.25
 40
0.25
 40
0.3125
 40
0.3125
 40
0.3125
 40
0.3125
 40
0.375
 40
0.375
 40
0.375
 40
0.375
 40
0.4375
 40
0.4375
 40
0.4375
 40
0.4375
 40
0.5
 40
0.5
 40
0.5
 40
0.5
 40
0.5625
 40
0.5625
 40
0.5625
 40
0.5625
 40
0.625
 40
0.625
 40
0.625
 40
0.625
 40
0.6875
 40
0.6875
 40
0.6875
 40
0.6875
 40
0.75
 40
0.75
 40
0.75
 40
0.75
 40
0.8125
 40
0.8125
 40
0.8125
 40
0.8125
 40
0.875
 40
0.875
 40
0.875
 40
0.875
 40
1.0
 40
1.0
 40
1.0
 40
1.0
 10
10.9679
 20
1.4975
 30
0.0
 10
10.9685
 20
1.5874
 30
0.0
 10
10.9879
 20
1.6657
 30
0.0
 10
11.0261
 20
1.731
 30
0.0
 10
11.0261
 20
1.731
 30
0.0
 10
11.0642
 20
1.7963
 30
0.0
 10
11.1179
 20
1.8507
 30
0.0
 10
11.1865
 20
1.8927
 30
0.0
 10
11.1865
 20
1.8927
 30
0.0
 10
11.255
 20
1.9354
 30
0.0
 10
11.3359
 20
1.9664
 30
0.0
 10
11.4277
 20
1.9871
 30
0.0
 10
11.4277
 20
1.9871
 30
0.0
 10
11.5202
 20
2.0078
 30
0.0
 10
11.6205
 20
2.0175
 30
0.0
 10
11.7285
 20
2.0175
 30
0.0
 10
11.7285
 20
2.0175
 30
0.0
 10
11.7569
 20
2.0175
 30
0.0
 10
11.7815
 20
2.0149
 30
0.0
 10
11.8009
 20
2.0091
 30
0.0
 10
11.8009
 20
2.0091
 30
0.0
 10
11.8209
 20
2.0039
 30
0.0
 10
11.8397
 20
1.9962
 30
0.0
 10
11.8565
 20
1.9865
 30
0.0
 10
11.8565
 20
1.9865
 30
0.0
 10
11.9076
 20
1.9567
 30
0.0
 10
11.9529
 20
1.9173
 30
0.0
 10
11.9923
 20
1.8688
 30
0.0
 10
11.9923
 20
1.8688
 30
0.0
 10
12.0318
 20
1.8209
 30
0.0
 10
12.0628
 20
1.7646
 30
0.0
 10
12.0855
 20
1.7006
 30
0.0
 10
12.0855
 20
1.7006
 30
0.0
 10
12.1081
 20
1.6366
 30
0.0
 10
12.1197
 20
1.5661
 30
0.0
 10
12.1204
 20
1.4898
 30
0.0
 10
12.1204
 20
1.4898
 30
0.0
 10
12.1197
 20
1.3908
 30
0.0
 10
12.0965
 20
1.3054
 30
0.0
 10
12.0512
 20
1.233
 30
0.0
 10
12.0512
 20
1.233
 30
0.0
 10
12.0059
 20
1.1606
 30
0.0
 10
11.9438
 20
1.1043
 30
0.0
 10
11.8636
 20
1.0649
 30
0.0
 10
11.8636
 20
1.0649
 30
0.0
 10
11.7834
 20
1.0254
 30
0.0
 10
11.6903
 20
1.0054
 30
0.0
 10
11.5849
 20
1.0047
 30
0.0
 10
11.5849
 20
1.0047
 30
0.0
 10
11.4633
 20
1.0054
 30
0.0
 10
11.3566
 20
1.0267
 30
0.0
 10
11.2647
 20
1.0687
 30
0.0
 10
11.2647
 20
1.0687
 30
0.0
 10
11.1723
 20
1.1108
 30
0.0
 10
11.0998
 20
1.1683
 30
0.0
 10
11.0474
 20
1.2421
 30
0.0
 10
11.0474
 20
1.2421
 30
0.0
 10
10.995
 20
1.3158
 30
0.0
 10
10.9685
 20
1.4012
 30
0.0
 10
10.9679
 20
1.4975
 30
0.0
  0
SPLINE
  5
D5
330
1F
100
AcDbEntity
  8
ROUND
 62
   250
100
AcDbSpline
210
0.0
220
0.0
230
1.0
 70
    11
 71
     3
 72
   132
 73
   128
 74
     0
 42
0.0000000001
 43
0.0000000001
 40
0.0
 40
0.0
 40
0.0
 40
0.0
 40
0.0303030303030303
 40
0.0303030303030303
 40
0.0303030303030303
 40
0.0303030303030303
 40
0.0606060606060606
 40
0.0606060606060606
 40
0.0606060606060606
 40
0.0606060606060606
 40
0.0909090909090909
 40
0.0909090909090909
 40
0.0909090909090909
 40
0.0909090909090909
 40
0.1212121212121212
 40
0.1212121212121212
 40
0.1212121212121212
 40
0.1212121212121212
 40
0.1515151515151515
 40
0.1515151515151515
 40
0.1515151515151515
 40
0.1515151515151515
 40
0.1818181818181818
 40
0.1818181818181818
 40
0.1818181818181818
 40
0.1818181818181818
 40
0.2121212121212121
 40
0.2121212121212121
 40
0.2121212121212121
 40
0.2121212121212121
 40
0.2424242424242424
 40
0.2424242424242424
 40
0.2424242424242424
 40
0.2424242424242424
 40
0.2727272727272727
 40
0.2727272727272727
 40
0.2727272727272727
 40
0.2727272727272727
 40
0.303030303030303
 40
0.303030303030303
 40
0.303030303030303
 40
0.303030303030303
 40
0.3333333333333333
 40
0.3333333333333333
 40
0.3333333333333333
 40
0.3333333333333333
 40
0.3636363636363636
 40
0.3636363636363636
 40
0.3636363636363636
 40
0.3636363636363636
 40
0.3939393939393939
 40
0.3939393939393939
 40
0.3939393939393939
 40
0.3939393939393939
 40
0.4242424242424243
 40
0.4242424242424243
 40
0.4242424242424243
 40
0.4242424242424243
 40
0.4545454545454545
 40
0.4545454545454545
 40
0.4545454545454545
 40
0.4545454545454545
 40
0.4848484848484849
 40
0.4848484848484849
 40
0.4848484848484849
 40
0.4848484848484849
 40
0.5151515151515151
 40
0.5151515151515151
 40
0.5151515151515151
 40
0.5151515151515151
 40
0.5454545454545454
 40
0.5454545454545454
 40
0.5454545454545454
 40
0.5454545454545454
 40
0.5757575757575758
 40
0.5757575757575758
 40
0.5757575757575758
 40
0.5757575757575758
 40
0.6060606060606061
 40
0.6060606060606061
 40
0.6060606060606061
 40
0.6060606060606061
 40
0.6363636363636364
 40
0.6363636363636364
 40
0.6363636363636364
 40
0.6363636363636364
 40
0.6666666666666666
 40
0.6666666666666666
 40
0.6666666666666666
 40
0.6666666666666666
 40
0.696969696969697
 40
0.696969696969697
 40
0.696969696969697
 40
0.696969696969697
 40
0.7272727272727273
 40
0.7272727272727273
 40
0.7272727272727273
 40
0.7272727272727273
 40
0.7575757575757576
 40
0.7575757575757576
 40
0.7575757575757576
 40
0.7575757575757576
 40
0.7878787878787878
 40
0.7878787878787878
 40
0.7878787878787878
 40
0.7878787878787878
 40
0.8181818181818182
 40
0.8181818181818182
 40
0.8181818181818182
 40
0.8181818181818182
 40
0.8484848484848485
 40
0.8484848484848485
 40
0.8484848484848485
 40
0.8484848484848485
 40
0.8787878787878788
 40
0.8787878787878788
 40
0.8787878787878788
 40
0.8787878787878788
 40
0.9090909090909091
 40
0.9090909090909091
 40
0.9090909090909091
 40
0.9090909090909091
 40
0.9393939393939394
 40
0.9393939393939394
 40
0.9393939393939394
 40
0.9393939393939394
 40
1.0
 40
1.0
 40
1.0
 40
1.0
 10
10.7506
 20
4.179
 30
0.0
 10
10.7506
 20
4.179
 30
0.0
 10
10.7506
 20
2.9721
 30
0.0
 10
10.7506
 20
2.9721
 30
0.0
 10
10.7506
 20
2.9721
 30
0.0
 10
10.7506
 20
2.9721
 30
0.0
 10
11.9613
 20
2.8091
 30
0.0
 10
11.9613
 20
2.8091
 30
0.0
 10
11.9613
 20
2.8091
 30
0.0
 10
11.9548
 20
2.8557
 30
0.0
 10
11.9496
 20
2.9074
 30
0.0
 10
11.9451
 20
2.9657
 30
0.0
 10
11.9451
 20
2.9657
 30
0.0
 10
11.9406
 20
3.0232
 30
0.0
 10
11.938
 20
3.0892
 30
0.0
 10
11.938
 20
3.1623
 30
0.0
 10
11.938
 20
3.1623
 30
0.0
 10
11.9387
 20
3.3291
 30
0.0
 10
11.9626
 20
3.4656
 30
0.0
 10
12.0092
 20
3.5717
 30
0.0
 10
12.0092
 20
3.5717
 30
0.0
 10
12.0564
 20
3.6784
 30
0.0
 10
12.121
 20
3.7573
 30
0.0
 10
12.2038
 20
3.8084
 30
0.0
 10
12.2038
 20
3.8084
 30
0.0
 10
12.2873
 20
3.8595
 30
0.0
 10
12.3836
 20
3.8847
 30
0.0
 10
12.4929
 20
3.884
 30
0.0
 10
12.4929
 20
3.884
 30
0.0
 10
12.5776
 20
3.8847
 30
0.0
 10
12.6533
 20
3.8692
 30
0.0
 10
12.7206
 20
3.8375
 30
0.0
 10
12.7206
 20
3.8375
 30
0.0
 10
12.7885
 20
3.8064
 30
0.0
 10
12.8454
 20
3.7631
 30
0.0
 10
12.8933
 20
3.7081
 30
0.0
 10
12.8933
 20
3.7081
 30
0.0
 10
12.9405
 20
3.6531
 30
0.0
 10
12.9767
 20
3.5898
 30
0.0
 10
13.0019
 20
3.518
 30
0.0
 10
13.0019
 20
3.518
 30
0.0
 10
13.0271
 20
3.4462
 30
0.0
 10
13.0401
 20
3.3705
 30
0.0
 10
13.0401
 20
3.2903
 30
0.0
 10
13.0401
 20
3.2903
 30
0.0
 10
13.0394
 20
3.2121
 30
0.0
 10
13.0323
 20
3.1383
 30
0.0
 10
13.0174
 20
3.0691
 30
0.0
 10
13.0174
 20
3.0691
 30
0.0
 10
13.0032
 20
2.9999
 30
0.0
 10
12.9857
 20
2.9378
 30
0.0
 10
12.9644
 20
2.8829
 30
0.0
 10
12.9644
 20
2.8829
 30
0.0
 10
12.9431
 20
2.8279
 30
0.0
 10
12.9217
 20
2.7826
 30
0.0
 10
12.9004
 20
2.7471
 30
0.0
 10
12.9004
 20
2.7471
 30
0.0
 10
12.9004
 20
2.7471
 30
0.0
 10
13.1604
 20
2.6617
 30
0.0
 10
13.1604
 20
2.6617
 30
0.0
 10
13.1604
 20
2.6617
 30
0.0
 10
13.1869
 20
2.7037
 30
0.0
 10
13.2115
 20
2.7561
 30
0.0
 10
13.2354
 20
2.8188
 30
0.0
 10
13.2354
 20
2.8188
 30
0.0
 10
13.2587
 20
2.8816
 30
0.0
 10
13.2774
 20
2.9527
 30
0.0
 10
13.2923
 20
3.0323
 30
0.0
 10
13.2923
 20
3.0323
 30
0.0
 10
13.3072
 20
3.1125
 30
0.0
 10
13.3149
 20
3.1985
 30
0.0
 10
13.3156
 20
3.2903
 30
0.0
 10
13.3156
 20
3.2903
 30
0.0
 10
13.3149
 20
3.4281
 30
0.0
 10
13.2929
 20
3.5535
 30
0.0
 10
13.2503
 20
3.668
 30
0.0
 10
13.2503
 20
3.668
 30
0.0
 10
13.2076
 20
3.7825
 30
0.0
 10
13.1474
 20
3.8815
 30
0.0
 10
13.0698
 20
3.9649
 30
0.0
 10
13.0698
 20
3.9649
 30
0.0
 10
12.9922
 20
4.049
 30
0.0
 10
12.901
 20
4.1136
 30
0.0
 10
12.7969
 20
4.1596
 30
0.0
 10
12.7969
 20
4.1596
 30
0.0
 10
12.6921
 20
4.2055
 30
0.0
 10
12.5776
 20
4.2288
 30
0.0
 10
12.4541
 20
4.2294
 30
0.0
 10
12.4541
 20
4.2294
 30
0.0
 10
12.3493
 20
4.2288
 30
0.0
 10
12.2549
 20
4.2119
 30
0.0
 10
12.1715
 20
4.1796
 30
0.0
 10
12.1715
 20
4.1796
 30
0.0
 10
12.0881
 20
4.1473
 30
0.0
 10
12.0163
 20
4.1046
 30
0.0
 10
11.9555
 20
4.0503
 30
0.0
 10
11.9555
 20
4.0503
 30
0.0
 10
11.8947
 20
3.9959
 30
0.0
 10
11.8462
 20
3.9351
 30
0.0
 10
11.81
 20
3.8685
 30
0.0
 10
11.81
 20
3.8685
 30
0.0
 10
11.7621
 20
3.7903
 30
0.0
 10
11.7272
 20
3.7055
 30
0.0
 10
11.7058
 20
3.6131
 30
0.0
 10
11.7058
 20
3.6131
 30
0.0
 10
11.6845
 20
3.5206
 30
0.0
 10
11.6735
 20
3.4248
 30
0.0
 10
11.6741
 20
3.3252
 30
0.0
 10
11.6741
 20
3.3252
 30
0.0
 10
11.6741
 20
3.28
 30
0.0
 10
11.6748
 20
3.2412
 30
0.0
 10
11.6767
 20
3.2095
 30
0.0
 10
11.6767
 20
3.2095
 30
0.0
 10
11.6787
 20
3.1778
 30
0.0
 10
11.6819
 20
3.148
 30
0.0
 10
11.6858
 20
3.1196
 30
0.0
 10
11.6858
 20
3.1196
 30
0.0
 10
11.6858
 20
3.1196
 30
0.0
 10
11.0377
 20
3.2166
 30
0.0
 10
11.0377
 20
3.2166
 30
0.0
 10
11.0377
 20
3.2166
 30
0.0
 10
11.0377
 20
3.2166
 30
0.0
 10
11.0377
 20
4.179
 30
0.0
 10
11.0377
 20
4.179
 30
0.0
 10
11.0377
 20
4.179
 30
0.0
 10
11.0377
 20
4.179
 30
0.0
 10
10.7506
 20
4.179
 30
0.0
 10
10.7506
 20
4.179
 30
0.0
  0
SPLINE
  5
D6
330
1F
100
AcDbEntity
  8
ROUND
 62
   250
370
    25
100
AcDbSpline
210
0.0
220
0.0
230
1.0
 70
    24
 71
     3
 72
     8
 73
     4
 74
     0
 42
0.0000000001
 43
0.0000000001
 40
0.0
 40
0.0
 40
0.0
 40
0.0
 40
1.0
 40
1.0
 40
1.0
 40
1.0
 10
14.4983
 20
10.9733
 30
0.0
 10
14.4983
 20
10.9733
 30
0.0
 10
3.1249
 20
10.9733
 30
0.0
 10
3.1249
 20
10.9733
 30
0.0
  0
SPLINE
  5
D7
330
1F
100
AcDbEntity
  8
ROUND
  6
New Line2
 62
   250
370
    70
100
AcDbSpline
210
0.0
220
0.0
230
1.0
 70
    24
 71
     3
 72
     8
 73
     4
 74
     0
 42
0.0000000001
 43
0.0000000001
 40
0.0
 40
0.0
 40
0.0
 40
0.0
 40
1.0
 40
1.0
 40
1.0
 40
1.0
 10
-6.3175
 20
-6.456
 30
0.0
 10
-6.3175
 20
-6.456
 30
0.0
 10
-7.9463
 20
12.0209
 30
0.0
 10
-7.9463
 20
12.0209
 30
0.0
  0
SPLINE
  5
D9
330
1F
100
AcDbEntity
  8
ROUND
 62
   250
100
AcDbSpline
210
0.0
220
0.0
230
1.0
 70
    11
 71
     3
 72
   104
 73
   100
 74
     0
 42
0.0000000001
 43
0.0000000001
 40
0.0
 40
0.0
 40
0.0
 40
0.0
 40
0.0384615384615385
 40
0.0384615384615385
 40
0.0384615384615385
 40
0.0384615384615385
 40
0.0769230769230769
 40
0.0769230769230769
 40
0.0769230769230769
 40
0.0769230769230769
 40
0.1153846153846154
 40
0.1153846153846154
 40
0.1153846153846154
 40
0.1153846153846154
 40
0.1538461538461539
 40
0.1538461538461539
 40
0.1538461538461539
 40
0.1538461538461539
 40
0.1923076923076923
 40
0.1923076923076923
 40
0.1923076923076923
 40
0.1923076923076923
 40
0.2307692307692308
 40
0.2307692307692308
 40
0.2307692307692308
 40
0.2307692307692308
 40
0.2692307692307692
 40
0.2692307692307692
 40
0.2692307692307692
 40
0.2692307692307692
 40
0.3076923076923077
 40
0.3076923076923077
 40
0.3076923076923077
 40
0.3076923076923077
 40
0.3461538461538461
 40
0.3461538461538461
 40
0.3461538461538461
 40
0.3461538461538461
 40
0.3846153846153846
 40
0.3846153846153846
 40
0.3846153846153846
 40
0.3846153846153846
 40
0.4230769230769231
 40
0.4230769230769231
 40
0.4230769230769231
 40
0.4230769230769231
 40
0.4615384615384616
 40
0.4615384615384616
 40
0.4615384615384616
 40
0.4615384615384616
 40
0.5
 40
0.5
 40
0.5
 40
0.5
 40
0.5384615384615384
 40
0.5384615384615384
 40
0.5384615384615384
 40
0.5384615384615384
 40
0.5769230769230769
 40
0.5769230769230769
 40
0.5769230769230769
 40
0.5769230769230769
 40
0.6153846153846154
 40
0.6153846153846154
 40
0.6153846153846154
 40
0.6153846153846154
 40
0.6538461538461539
 40
0.6538461538461539
 40
0.6538461538461539
 40
0.6538461538461539
 40
0.6923076923076923
 40
0.6923076923076923
 40
0.6923076923076923
 40
0.6923076923076923
 40
0.7307692307692307
 40
0.7307692307692307
 40
0.7307692307692307
 40
0.7307692307692307
 40
0.7692307692307693
 40
0.7692307692307693
 40
0.7692307692307693
 40
0.7692307692307693
 40
0.8076923076923077
 40
0.8076923076923077
 40
0.8076923076923077
 40
0.8076923076923077
 40
0.8461538461538461
 40
0.8461538461538461
 40
0.8461538461538461
 40
0.8461538461538461
 40
0.8846153846153846
 40
0.8846153846153846
 40
0.8846153846153846
 40
0.8846153846153846
 40
0.9230769230769231
 40
0.9230769230769231
 40
0.9230769230769231
 40
0.9230769230769231
 40
1.0
 40
1.0
 40
1.0
 40
1.0
 10
-6.7592
 20
-5.4786
 30
0.0
 10
-6.7592
 20
-5.4786
 30
0.0
 10
-7.1131
 20
-5.2642
 30
0.0
 10
-7.1131
 20
-5.2642
 30
0.0
 10
-7.1131
 20
-5.2642
 30
0.0
 10
-7.0536
 20
-5.1648
 30
0.0
 10
-7.0104
 20
-5.0578
 30
0.0
 10
-6.9846
 20
-4.944
 30
0.0
 10
-6.9846
 20
-4.944
 30
0.0
 10
-6.9589
 20
-4.8294
 30
0.0
 10
-6.9511
 20
-4.7111
 30
0.0
 10
-6.9618
 20
-4.5887
 30
0.0
 10
-6.9618
 20
-4.5887
 30
0.0
 10
-6.9728
 20
-4.4631
 30
0.0
 10
-7.0021
 20
-4.343
 30
0.0
 10
-7.049
 20
-4.2295
 30
0.0
 10
-7.049
 20
-4.2295
 30
0.0
 10
-7.096
 20
-4.1162
 30
0.0
 10
-7.1602
 20
-4.0127
 30
0.0
 10
-7.2423
 20
-3.9199
 30
0.0
 10
-7.2423
 20
-3.9199
 30
0.0
 10
-7.3239
 20
-3.8265
 30
0.0
 10
-7.4229
 20
-3.7474
 30
0.0
 10
-7.5391
 20
-3.6823
 30
0.0
 10
-7.5391
 20
-3.6823
 30
0.0
 10
-7.655
 20
-3.6177
 30
0.0
 10
-7.7877
 20
-3.5709
 30
0.0
 10
-7.9376
 20
-3.5419
 30
0.0
 10
-7.9376
 20
-3.5419
 30
0.0
 10
-8.0869
 20
-3.5134
 30
0.0
 10
-8.2523
 20
-3.5065
 30
0.0
 10
-8.4341
 20
-3.5217
 30
0.0
 10
-8.4341
 20
-3.5217
 30
0.0
 10
-8.5623
 20
-3.5329
 30
0.0
 10
-8.683
 20
-3.5564
 30
0.0
 10
-8.7966
 20
-3.593
 30
0.0
 10
-8.7966
 20
-3.593
 30
0.0
 10
-8.9109
 20
-3.6289
 30
0.0
 10
-9.0159
 20
-3.6765
 30
0.0
 10
-9.1114
 20
-3.7348
 30
0.0
 10
-9.1114
 20
-3.7348
 30
0.0
 10
-9.2069
 20
-3.7938
 30
0.0
 10
-9.2904
 20
-3.8628
 30
0.0
 10
-9.3634
 20
-3.9419
 30
0.0
 10
-9.3634
 20
-3.9419
 30
0.0
 10
-9.3634
 20
-3.9419
 30
0.0
 10
-9.7168
 20
-3.7313
 30
0.0
 10
-9.7168
 20
-3.7313
 30
0.0
 10
-9.7168
 20
-3.7313
 30
0.0
 10
-9.7168
 20
-3.7313
 30
0.0
 10
-9.838
 20
-3.9484
 30
0.0
 10
-9.838
 20
-3.9484
 30
0.0
 10
-9.838
 20
-3.9484
 30
0.0
 10
-9.838
 20
-3.9484
 30
0.0
 10
-9.505
 20
-4.149
 30
0.0
 10
-9.505
 20
-4.149
 30
0.0
 10
-9.505
 20
-4.149
 30
0.0
 10
-9.5663
 20
-4.2485
 30
0.0
 10
-9.6097
 20
-4.3543
 30
0.0
 10
-9.6349
 20
-4.4668
 30
0.0
 10
-9.6349
 20
-4.4668
 30
0.0
 10
-9.6601
 20
-4.5801
 30
0.0
 10
-9.6674
 20
-4.6962
 30
0.0
 10
-9.6568
 20
-4.8168
 30
0.0
 10
-9.6568
 20
-4.8168
 30
0.0
 10
-9.6412
 20
-4.9887
 30
0.0
 10
-9.5951
 20
-5.1443
 30
0.0
 10
-9.5185
 20
-5.2851
 30
0.0
 10
-9.5185
 20
-5.2851
 30
0.0
 10
-9.442
 20
-5.4251
 30
0.0
 10
-9.3388
 20
-5.5439
 30
0.0
 10
-9.21
 20
-5.6418
 30
0.0
 10
-9.21
 20
-5.6418
 30
0.0
 10
-9.0814
 20
-5.7402
 30
0.0
 10
-8.931
 20
-5.8115
 30
0.0
 10
-8.7588
 20
-5.8575
 30
0.0
 10
-8.7588
 20
-5.8575
 30
0.0
 10
-8.5867
 20
-5.9027
 30
0.0
 10
-8.3978
 20
-5.9174
 30
0.0
 10
-8.191
 20
-5.8999
 30
0.0
 10
-8.191
 20
-5.8999
 30
0.0
 10
-8.0608
 20
-5.8885
 30
0.0
 10
-7.9377
 20
-5.8635
 30
0.0
 10
-7.8228
 20
-5.8262
 30
0.0
 10
-7.8228
 20
-5.8262
 30
0.0
 10
-7.7079
 20
-5.7888
 30
0.0
 10
-7.6025
 20
-5.74
 30
0.0
 10
-7.5071
 20
-5.6804
 30
0.0
 10
-7.5071
 20
-5.6804
 30
0.0
 10
-7.4117
 20
-5.6201
 30
0.0
 10
-7.3275
 20
-5.5504
 30
0.0
 10
-7.2547
 20
-5.4713
 30
0.0
 10
-7.2547
 20
-5.4713
 30
0.0
 10
-7.2547
 20
-5.4713
 30
0.0
 10
-6.8974
 20
-5.6816
 30
0.0
 10
-6.8974
 20
-5.6816
 30
0.0
 10
-6.8974
 20
-5.6816
 30
0.0
 10
-6.8974
 20
-5.6816
 30
0.0
 10
-6.7592
 20
-5.4786
 30
0.0
 10
-6.7592
 20
-5.4786
 30
0.0
  0
SPLINE
  5
DA
330
1F
100
AcDbEntity
  8
ROUND
 62
   250
100
AcDbSpline
210
0.0
220
0.0
230
1.0
 70
    11
 71
     3
 72
    52
 73
    48
 74
     0
 42
0.0000000001
 43
0.0000000001
 40
0.0
 40
0.0
 40
0.0
 40
0.0
 40
0.0769230769230769
 40
0.0769230769230769
 40
0.0769230769230769
 40
0.0769230769230769
 40
0.1538461538461539
 40
0.1538461538461539
 40
0.1538461538461539
 40
0.1538461538461539
 40
0.2307692307692308
 40
0.2307692307692308
 40
0.2307692307692308
 40
0.2307692307692308
 40
0.3076923076923077
 40
0.3076923076923077
 40
0.3076923076923077
 40
0.3076923076923077
 40
0.3846153846153846
 40
0.3846153846153846
 40
0.3846153846153846
 40
0.3846153846153846
 40
0.4615384615384616
 40
0.4615384615384616
 40
0.4615384615384616
 40
0.4615384615384616
 40
0.5384615384615384
 40
0.5384615384615384
 40
0.5384615384615384
 40
0.5384615384615384
 40
0.6153846153846154
 40
0.6153846153846154
 40
0.6153846153846154
 40
0.6153846153846154
 40
0.6923076923076923
 40
0.6923076923076923
 40
0.6923076923076923
 40
0.6923076923076923
 40
0.7692307692307693
 40
0.7692307692307693
 40
0.7692307692307693
 40
0.7692307692307693
 40
0.8461538461538461
 40
0.8461538461538461
 40
0.8461538461538461
 40
0.8461538461538461
 40
1.0
 40
1.0
 40
1.0
 40
1.0
 10
-7.5579
 20
-5.2992
 30
0.0
 10
-7.5579
 20
-5.2992
 30
0.0
 10
-7.5533
 20
-5.3066
 30
0.0
 10
-7.5533
 20
-5.3066
 30
0.0
 10
-7.5533
 20
-5.3066
 30
0.0
 10
-7.6164
 20
-5.3511
 30
0.0
 10
-7.6824
 20
-5.3906
 30
0.0
 10
-7.7508
 20
-5.4252
 30
0.0
 10
-7.7508
 20
-5.4252
 30
0.0
 10
-7.8198
 20
-5.4597
 30
0.0
 10
-7.8933
 20
-5.4882
 30
0.0
 10
-7.973
 20
-5.5109
 30
0.0
 10
-7.973
 20
-5.5109
 30
0.0
 10
-8.0523
 20
-5.5333
 30
0.0
 10
-8.1405
 20
-5.5488
 30
0.0
 10
-8.2365
 20
-5.5572
 30
0.0
 10
-8.2365
 20
-5.5572
 30
0.0
 10
-8.3474
 20
-5.5669
 30
0.0
 10
-8.4553
 20
-5.5647
 30
0.0
 10
-8.5623
 20
-5.5514
 30
0.0
 10
-8.5623
 20
-5.5514
 30
0.0
 10
-8.6687
 20
-5.5373
 30
0.0
 10
-8.7696
 20
-5.5117
 30
0.0
 10
-8.8638
 20
-5.4745
 30
0.0
 10
-8.8638
 20
-5.4745
 30
0.0
 10
-8.9586
 20
-5.4367
 30
0.0
 10
-9.0434
 20
-5.387
 30
0.0
 10
-9.1177
 20
-5.3246
 30
0.0
 10
-9.1177
 20
-5.3246
 30
0.0
 10
-9.1926
 20
-5.2624
 30
0.0
 10
-9.2531
 20
-5.1878
 30
0.0
 10
-9.2996
 20
-5.101
 30
0.0
 10
-9.2996
 20
-5.101
 30
0.0
 10
-9.3468
 20
-5.0136
 30
0.0
 10
-9.375
 20
-4.9135
 30
0.0
 10
-9.3856
 20
-4.8008
 30
0.0
 10
-9.3856
 20
-4.8008
 30
0.0
 10
-9.3935
 20
-4.7022
 30
0.0
 10
-9.3854
 20
-4.6105
 30
0.0
 10
-9.3602
 20
-4.5265
 30
0.0
 10
-9.3602
 20
-4.5265
 30
0.0
 10
-9.3358
 20
-4.442
 30
0.0
 10
-9.2978
 20
-4.3647
 30
0.0
 10
-9.2469
 20
-4.2939
 30
0.0
 10
-9.2469
 20
-4.2939
 30
0.0
 10
-9.2469
 20
-4.2939
 30
0.0
 10
-7.5579
 20
-5.2992
 30
0.0
 10
-7.5579
 20
-5.2992
 30
0.0
  0
SPLINE
  5
DB
330
1F
100
AcDbEntity
  8
ROUND
 62
   250
100
AcDbSpline
210
0.0
220
0.0
230
1.0
 70
    11
 71
     3
 72
    48
 73
    44
 74
     0
 42
0.0000000001
 43
0.0000000001
 40
0.0
 40
0.0
 40
0.0
 40
0.0
 40
0.0833333333333333
 40
0.0833333333333333
 40
0.0833333333333333
 40
0.0833333333333333
 40
0.1666666666666667
 40
0.1666666666666667
 40
0.1666666666666667
 40
0.1666666666666667
 40
0.25
 40
0.25
 40
0.25
 40
0.25
 40
0.3333333333333333
 40
0.3333333333333333
 40
0.3333333333333333
 40
0.3333333333333333
 40
0.4166666666666667
 40
0.4166666666666667
 40
0.4166666666666667
 40
0.4166666666666667
 40
0.5
 40
0.5
 40
0.5
 40
0.5
 40
0.5833333333333334
 40
0.5833333333333334
 40
0.5833333333333334
 40
0.5833333333333334
 40
0.6666666666666666
 40
0.6666666666666666
 40
0.6666666666666666
 40
0.6666666666666666
 40
0.75
 40
0.75
 40
0.75
 40
0.75
 40
0.8333333333333334
 40
0.8333333333333334
 40
0.8333333333333334
 40
0.8333333333333334
 40
1.0
 40
1.0
 40
1.0
 40
1.0
 10
-9.0558
 20
-4.1175
 30
0.0
 10
-9.0558
 20
-4.1175
 30
0.0
 10
-9.0568
 20
-4.106
 30
0.0
 10
-9.0568
 20
-4.106
 30
0.0
 10
-9.0568
 20
-4.106
 30
0.0
 10
-8.9506
 20
-4.0291
 30
0.0
 10
-8.8414
 20
-3.9722
 30
0.0
 10
-8.7291
 20
-3.9345
 30
0.0
 10
-8.7291
 20
-3.9345
 30
0.0
 10
-8.6175
 20
-3.8968
 30
0.0
 10
-8.5053
 20
-3.8733
 30
0.0
 10
-8.3924
 20
-3.8647
 30
0.0
 10
-8.3924
 20
-3.8647
 30
0.0
 10
-8.2752
 20
-3.8545
 30
0.0
 10
-8.1619
 20
-3.8569
 30
0.0
 10
-8.0522
 20
-3.8713
 30
0.0
 10
-8.0522
 20
-3.8713
 30
0.0
 10
-7.9426
 20
-3.8857
 30
0.0
 10
-7.8402
 20
-3.9125
 30
0.0
 10
-7.7453
 20
-3.951
 30
0.0
 10
-7.7453
 20
-3.951
 30
0.0
 10
-7.6504
 20
-3.99
 30
0.0
 10
-7.5662
 20
-4.0404
 30
0.0
 10
-7.4931
 20
-4.1029
 30
0.0
 10
-7.4931
 20
-4.1029
 30
0.0
 10
-7.4195
 20
-4.1659
 30
0.0
 10
-7.3598
 20
-4.2399
 30
0.0
 10
-7.3147
 20
-4.3255
 30
0.0
 10
-7.3147
 20
-4.3255
 30
0.0
 10
-7.2695
 20
-4.4112
 30
0.0
 10
-7.2422
 20
-4.5081
 30
0.0
 10
-7.232
 20
-4.6163
 30
0.0
 10
-7.232
 20
-4.6163
 30
0.0
 10
-7.2228
 20
-4.7213
 30
0.0
 10
-7.2309
 20
-4.8148
 30
0.0
 10
-7.2556
 20
-4.8956
 30
0.0
 10
-7.2556
 20
-4.8956
 30
0.0
 10
-7.2803
 20
-4.977
 30
0.0
 10
-7.3206
 20
-5.0512
 30
0.0
 10
-7.375
 20
-5.1196
 30
0.0
 10
-7.375
 20
-5.1196
 30
0.0
 10
-7.375
 20
-5.1196
 30
0.0
 10
-9.0558
 20
-4.1175
 30
0.0
 10
-9.0558
 20
-4.1175
 30
0.0
  0
SPLINE
  5
DC
330
1F
100
AcDbEntity
  8
ROUND
 62
   250
100
AcDbSpline
210
0.0
220
0.0
230
1.0
 70
    11
 71
     3
 72
    48
 73
    44
 74
     0
 42
0.0000000001
 43
0.0000000001
 40
0.0
 40
0.0
 40
0.0
 40
0.0
 40
0.0833333333333333
 40
0.0833333333333333
 40
0.0833333333333333
 40
0.0833333333333333
 40
0.1666666666666667
 40
0.1666666666666667
 40
0.1666666666666667
 40
0.1666666666666667
 40
0.25
 40
0.25
 40
0.25
 40
0.25
 40
0.3333333333333333
 40
0.3333333333333333
 40
0.3333333333333333
 40
0.3333333333333333
 40
0.4166666666666667
 40
0.4166666666666667
 40
0.4166666666666667
 40
0.4166666666666667
 40
0.5
 40
0.5
 40
0.5
 40
0.5
 40
0.5833333333333334
 40
0.5833333333333334
 40
0.5833333333333334
 40
0.5833333333333334
 40
0.6666666666666666
 40
0.6666666666666666
 40
0.6666666666666666
 40
0.6666666666666666
 40
0.75
 40
0.75
 40
0.75
 40
0.75
 40
0.8333333333333334
 40
0.8333333333333334
 40
0.8333333333333334
 40
0.8333333333333334
 40
1.0
 40
1.0
 40
1.0
 40
1.0
 10
-7.2559
 20
-1.7163
 30
0.0
 10
-7.2559
 20
-1.7163
 30
0.0
 10
-7.944
 20
-1.7765
 30
0.0
 10
-7.944
 20
-1.7765
 30
0.0
 10
-7.944
 20
-1.7765
 30
0.0
 10
-7.944
 20
-1.7765
 30
0.0
 10
-7.9748
 20
-1.4248
 30
0.0
 10
-7.9748
 20
-1.4248
 30
0.0
 10
-7.9748
 20
-1.4248
 30
0.0
 10
-7.9748
 20
-1.4248
 30
0.0
 10
-8.2377
 20
-1.4478
 30
0.0
 10
-8.2377
 20
-1.4478
 30
0.0
 10
-8.2377
 20
-1.4478
 30
0.0
 10
-8.2377
 20
-1.4478
 30
0.0
 10
-8.2069
 20
-1.7995
 30
0.0
 10
-8.2069
 20
-1.7995
 30
0.0
 10
-8.2069
 20
-1.7995
 30
0.0
 10
-8.2069
 20
-1.7995
 30
0.0
 10
-9.7686
 20
-1.9362
 30
0.0
 10
-9.7686
 20
-1.9362
 30
0.0
 10
-9.7686
 20
-1.9362
 30
0.0
 10
-9.7686
 20
-1.9362
 30
0.0
 10
-9.7365
 20
-2.3033
 30
0.0
 10
-9.7365
 20
-2.3033
 30
0.0
 10
-9.7365
 20
-2.3033
 30
0.0
 10
-9.7365
 20
-2.3033
 30
0.0
 10
-8.0341
 20
-3.2841
 30
0.0
 10
-8.0341
 20
-3.2841
 30
0.0
 10
-8.0341
 20
-3.2841
 30
0.0
 10
-8.0341
 20
-3.2841
 30
0.0
 10
-7.8138
 20
-3.2648
 30
0.0
 10
-7.8138
 20
-3.2648
 30
0.0
 10
-7.8138
 20
-3.2648
 30
0.0
 10
-7.8138
 20
-3.2648
 30
0.0
 10
-7.9159
 20
-2.0974
 30
0.0
 10
-7.9159
 20
-2.0974
 30
0.0
 10
-7.9159
 20
-2.0974
 30
0.0
 10
-7.9159
 20
-2.0974
 30
0.0
 10
-7.2279
 20
-2.0372
 30
0.0
 10
-7.2279
 20
-2.0372
 30
0.0
 10
-7.2279
 20
-2.0372
 30
0.0
 10
-7.2279
 20
-2.0372
 30
0.0
 10
-7.2559
 20
-1.7163
 30
0.0
 10
-7.2559
 20
-1.7163
 30
0.0
  0
SPLINE
  5
DD
330
1F
100
AcDbEntity
  8
ROUND
 62
   250
100
AcDbSpline
210
0.0
220
0.0
230
1.0
 70
    11
 71
     3
 72
    36
 73
    32
 74
     0
 42
0.0000000001
 43
0.0000000001
 40
0.0
 40
0.0
 40
0.0
 40
0.0
 40
0.1111111111111111
 40
0.1111111111111111
 40
0.1111111111111111
 40
0.1111111111111111
 40
0.2222222222222222
 40
0.2222222222222222
 40
0.2222222222222222
 40
0.2222222222222222
 40
0.3333333333333333
 40
0.3333333333333333
 40
0.3333333333333333
 40
0.3333333333333333
 40
0.4444444444444444
 40
0.4444444444444444
 40
0.4444444444444444
 40
0.4444444444444444
 40
0.5555555555555556
 40
0.5555555555555556
 40
0.5555555555555556
 40
0.5555555555555556
 40
0.6666666666666666
 40
0.6666666666666666
 40
0.6666666666666666
 40
0.6666666666666666
 40
0.7777777777777778
 40
0.7777777777777778
 40
0.7777777777777778
 40
0.7777777777777778
 40
1.0
 40
1.0
 40
1.0
 40
1.0
 10
-8.1068
 20
-2.9437
 30
0.0
 10
-8.1068
 20
-2.9437
 30
0.0
 10
-8.1146
 20
-2.9444
 30
0.0
 10
-8.1146
 20
-2.9444
 30
0.0
 10
-8.1146
 20
-2.9444
 30
0.0
 10
-8.1146
 20
-2.9444
 30
0.0
 10
-9.0227
 20
-2.4045
 30
0.0
 10
-9.0227
 20
-2.4045
 30
0.0
 10
-9.0227
 20
-2.4045
 30
0.0
 10
-9.0829
 20
-2.3755
 30
0.0
 10
-9.1439
 20
-2.3464
 30
0.0
 10
-9.2055
 20
-2.3179
 30
0.0
 10
-9.2055
 20
-2.3179
 30
0.0
 10
-9.2677
 20
-2.2903
 30
0.0
 10
-9.3365
 20
-2.2599
 30
0.0
 10
-9.412
 20
-2.2283
 30
0.0
 10
-9.412
 20
-2.2283
 30
0.0
 10
-9.412
 20
-2.2283
 30
0.0
 10
-9.413
 20
-2.2166
 30
0.0
 10
-9.413
 20
-2.2166
 30
0.0
 10
-9.413
 20
-2.2166
 30
0.0
 10
-9.2809
 20
-2.2129
 30
0.0
 10
-9.1491
 20
-2.2053
 30
0.0
 10
-9.0177
 20
-2.1938
 30
0.0
 10
-9.0177
 20
-2.1938
 30
0.0
 10
-9.0177
 20
-2.1938
 30
0.0
 10
-8.1788
 20
-2.1204
 30
0.0
 10
-8.1788
 20
-2.1204
 30
0.0
 10
-8.1788
 20
-2.1204
 30
0.0
 10
-8.1788
 20
-2.1204
 30
0.0
 10
-8.1068
 20
-2.9437
 30
0.0
 10
-8.1068
 20
-2.9437
 30
0.0
  0
SPLINE
  5
DE
330
1F
100
AcDbEntity
  8
ROUND
 62
   250
100
AcDbSpline
210
0.0
220
0.0
230
1.0
 70
    11
 71
     3
 72
    56
 73
    52
 74
     0
 42
0.0000000001
 43
0.0000000001
 40
0.0
 40
0.0
 40
0.0
 40
0.0
 40
0.0714285714285714
 40
0.0714285714285714
 40
0.0714285714285714
 40
0.0714285714285714
 40
0.1428571428571428
 40
0.1428571428571428
 40
0.1428571428571428
 40
0.1428571428571428
 40
0.2142857142857143
 40
0.2142857142857143
 40
0.2142857142857143
 40
0.2142857142857143
 40
0.2857142857142857
 40
0.2857142857142857
 40
0.2857142857142857
 40
0.2857142857142857
 40
0.3571428571428572
 40
0.3571428571428572
 40
0.3571428571428572
 40
0.3571428571428572
 40
0.4285714285714285
 40
0.4285714285714285
 40
0.4285714285714285
 40
0.4285714285714285
 40
0.5
 40
0.5
 40
0.5
 40
0.5
 40
0.5714285714285714
 40
0.5714285714285714
 40
0.5714285714285714
 40
0.5714285714285714
 40
0.6428571428571429
 40
0.6428571428571429
 40
0.6428571428571429
 40
0.6428571428571429
 40
0.7142857142857143
 40
0.7142857142857143
 40
0.7142857142857143
 40
0.7142857142857143
 40
0.7857142857142857
 40
0.7857142857142857
 40
0.7857142857142857
 40
0.7857142857142857
 40
0.8571428571428571
 40
0.8571428571428571
 40
0.8571428571428571
 40
0.8571428571428571
 40
1.0
 40
1.0
 40
1.0
 40
1.0
 10
-9.9383
 20
-0.4863
 30
0.0
 10
-9.9271
 20
-0.6145
 30
0.0
 10
-9.8886
 20
-0.7293
 30
0.0
 10
-9.8224
 20
-0.8313
 30
0.0
 10
-9.8224
 20
-0.8313
 30
0.0
 10
-9.7564
 20
-0.9334
 30
0.0
 10
-9.6652
 20
-1.0181
 30
0.0
 10
-9.5476
 20
-1.0871
 30
0.0
 10
-9.5476
 20
-1.0871
 30
0.0
 10
-9.4298
 20
-1.1561
 30
0.0
 10
-9.288
 20
-1.2046
 30
0.0
 10
-9.1218
 20
-1.2336
 30
0.0
 10
-9.1218
 20
-1.2336
 30
0.0
 10
-8.9557
 20
-1.2619
 30
0.0
 10
-8.767
 20
-1.2675
 30
0.0
 10
-8.555
 20
-1.2496
 30
0.0
 10
-8.555
 20
-1.2496
 30
0.0
 10
-8.2777
 20
-1.2214
 30
0.0
 10
-8.0463
 20
-1.1642
 30
0.0
 10
-7.8604
 20
-1.0772
 30
0.0
 10
-7.8604
 20
-1.0772
 30
0.0
 10
-7.6746
 20
-0.9901
 30
0.0
 10
-7.5375
 20
-0.8801
 30
0.0
 10
-7.4491
 20
-0.7477
 30
0.0
 10
-7.4491
 20
-0.7477
 30
0.0
 10
-7.3607
 20
-0.6154
 30
0.0
 10
-7.3231
 20
-0.4666
 30
0.0
 10
-7.3368
 20
-0.3016
 30
0.0
 10
-7.3368
 20
-0.3016
 30
0.0
 10
-7.3537
 20
-0.1168
 30
0.0
 10
-7.419
 20
0.0359
 30
0.0
 10
-7.5322
 20
0.1572
 30
0.0
 10
-7.5322
 20
0.1572
 30
0.0
 10
-7.6454
 20
0.2784
 30
0.0
 10
-7.8035
 20
0.3646
 30
0.0
 10
-8.0066
 20
0.4157
 30
0.0
 10
-8.0066
 20
0.4157
 30
0.0
 10
-8.2098
 20
0.4674
 30
0.0
 10
-8.4537
 20
0.4803
 30
0.0
 10
-8.7392
 20
0.4561
 30
0.0
 10
-8.7392
 20
0.4561
 30
0.0
 10
-9.0065
 20
0.432
 30
0.0
 10
-9.2324
 20
0.3791
 30
0.0
 10
-9.4162
 20
0.2975
 30
0.0
 10
-9.4162
 20
0.2975
 30
0.0
 10
-9.5998
 20
0.2158
 30
0.0
 10
-9.7365
 20
0.1084
 30
0.0
 10
-9.8256
 20
-0.0239
 30
0.0
 10
-9.8256
 20
-0.0239
 30
0.0
 10
-9.9153
 20
-0.1565
 30
0.0
 10
-9.9531
 20
-0.3104
 30
0.0
 10
-9.9383
 20
-0.4863
 30
0.0
  0
SPLINE
  5
DF
330
1F
100
AcDbEntity
  8
ROUND
 62
   250
100
AcDbSpline
210
0.0
220
0.0
230
1.0
 70
    11
 71
     3
 72
    56
 73
    52
 74
     0
 42
0.0000000001
 43
0.0000000001
 40
0.0
 40
0.0
 40
0.0
 40
0.0
 40
0.0714285714285714
 40
0.0714285714285714
 40
0.0714285714285714
 40
0.0714285714285714
 40
0.1428571428571428
 40
0.1428571428571428
 40
0.1428571428571428
 40
0.1428571428571428
 40
0.2142857142857143
 40
0.2142857142857143
 40
0.2142857142857143
 40
0.2142857142857143
 40
0.2857142857142857
 40
0.2857142857142857
 40
0.2857142857142857
 40
0.2857142857142857
 40
0.3571428571428572
 40
0.3571428571428572
 40
0.3571428571428572
 40
0.3571428571428572
 40
0.4285714285714285
 40
0.4285714285714285
 40
0.4285714285714285
 40
0.4285714285714285
 40
0.5
 40
0.5
 40
0.5
 40
0.5
 40
0.5714285714285714
 40
0.5714285714285714
 40
0.5714285714285714
 40
0.5714285714285714
 40
0.6428571428571429
 40
0.6428571428571429
 40
0.6428571428571429
 40
0.6428571428571429
 40
0.7142857142857143
 40
0.7142857142857143
 40
0.7142857142857143
 40
0.7142857142857143
 40
0.7857142857142857
 40
0.7857142857142857
 40
0.7857142857142857
 40
0.7857142857142857
 40
0.8571428571428571
 40
0.8571428571428571
 40
0.8571428571428571
 40
0.8571428571428571
 40
1.0
 40
1.0
 40
1.0
 40
1.0
 10
-9.6734
 20
-0.4865
 30
0.0
 10
-9.6806
 20
-0.3976
 30
0.0
 10
-9.6635
 20
-0.3188
 30
0.0
 10
-9.6208
 20
-0.2502
 30
0.0
 10
-9.6208
 20
-0.2502
 30
0.0
 10
-9.578
 20
-0.1815
 30
0.0
 10
-9.5137
 20
-0.1226
 30
0.0
 10
-9.4272
 20
-0.0735
 30
0.0
 10
-9.4272
 20
-0.0735
 30
0.0
 10
-9.3412
 20
-0.0244
 30
0.0
 10
-9.2356
 20
0.0159
 30
0.0
 10
-9.1125
 20
0.0469
 30
0.0
 10
-9.1125
 20
0.0469
 30
0.0
 10
-8.9886
 20
0.0778
 30
0.0
 10
-8.849
 20
0.0997
 30
0.0
 10
-8.6937
 20
0.1133
 30
0.0
 10
-8.6937
 20
0.1133
 30
0.0
 10
-8.4785
 20
0.1322
 30
0.0
 10
-8.2913
 20
0.1298
 30
0.0
 10
-8.1321
 20
0.106
 30
0.0
 10
-8.1321
 20
0.106
 30
0.0
 10
-7.9724
 20
0.083
 30
0.0
 10
-7.8469
 20
0.0368
 30
0.0
 10
-7.7552
 20
-0.0311
 30
0.0
 10
-7.7552
 20
-0.0311
 30
0.0
 10
-7.6636
 20
-0.0991
 30
0.0
 10
-7.6128
 20
-0.1907
 30
0.0
 10
-7.6014
 20
-0.3053
 30
0.0
 10
-7.6014
 20
-0.3053
 30
0.0
 10
-7.593
 20
-0.409
 30
0.0
 10
-7.6251
 20
-0.5021
 30
0.0
 10
-7.6982
 20
-0.5858
 30
0.0
 10
-7.6982
 20
-0.5858
 30
0.0
 10
-7.7715
 20
-0.6688
 30
0.0
 10
-7.8823
 20
-0.7376
 30
0.0
 10
-8.0308
 20
-0.7927
 30
0.0
 10
-8.0308
 20
-0.7927
 30
0.0
 10
-8.1798
 20
-0.8479
 30
0.0
 10
-8.3629
 20
-0.8854
 30
0.0
 10
-8.5812
 20
-0.9051
 30
0.0
 10
-8.5812
 20
-0.9051
 30
0.0
 10
-8.81
 20
-0.9245
 30
0.0
 10
-9.0033
 20
-0.9188
 30
0.0
 10
-9.163
 20
-0.8886
 30
0.0
 10
-9.163
 20
-0.8886
 30
0.0
 10
-9.3222
 20
-0.8583
 30
0.0
 10
-9.4447
 20
-0.8086
 30
0.0
 10
-9.5313
 20
-0.739
 30
0.0
 10
-9.5313
 20
-0.739
 30
0.0
 10
-9.6172
 20
-0.6692
 30
0.0
 10
-9.6648
 20
-0.5852
 30
0.0
 10
-9.6734
 20
-0.4865
 30
0.0
  0
SPLINE
  5
E0
330
1F
100
AcDbEntity
  8
ROUND
  6
New Line3
 62
   250
370
    20
100
AcDbSpline
210
0.0
220
0.0
230
1.0
 70
    24
 71
     3
 72
     8
 73
     4
 74
     0
 42
0.0000000001
 43
0.0000000001
 40
0.0
 40
0.0
 40
0.0
 40
0.0
 40
1.0
 40
1.0
 40
1.0
 40
1.0
 10
16.6304
 20
1.4254
 30
0.0
 10
16.6304
 20
1.4254
 30
0.0
 10
16.6304
 20
5.2289
 30
0.0
 10
16.6304
 20
5.2289
 30
0.0
  0
SPLINE
  5
E2
330
1F
100
AcDbEntity
  8
ROUND
  6
New Line4
 62
   250
370
    20
100
AcDbSpline
210
0.0
220
0.0
230
1.0
 70
    24
 71
     3
 72
     8
 73
     4
 74
     0
 42
0.0000000001
 43
0.0000000001
 40
0.0
 40
0.0
 40
0.0
 40
0.0
 40
1.0
 40
1.0
 40
1.0
 40
1.0
 10
24.9976
 20
1.3593
 30
0.0
 10
24.9976
 20
1.3593
 30
0.0
 10
24.9976
 20
5.1728
 30
0.0
 10
24.9976
 20
5.1728
 30
0.0
  0
SPLINE
  5
E4
330
1F
100
AcDbEntity
  8
ROUND
  6
New Line5
 62
   250
370
    15
100
AcDbSpline
210
0.0
220
0.0
230
1.0
 70
    24
 71
     3
 72
     8
 73
     4
 74
     0
 42
0.0000000001
 43
0.0000000001
 40
0.0
 40
0.0
 40
0.0
 40
0.0
 40
1.0
 40
1.0
 40
1.0
 40
1.0
 10
-26.9066
 20
4.0593
 30
0.0
 10
-26.9066
 20
4.0593
 30
0.0
 10
-21.7459
 20
4.5108
 30
0.0
 10
-21.7459
 20
4.5108
 30
0.0
  0
SPLINE
  5
E6
330
1F
100
AcDbEntity
  8
ROUND
  6
New Line6
 62
   250
370
    15
100
AcDbSpline
210
0.0
220
0.0
230
1.0
 70
    24
 71
     3
 72
     8
 73
     4
 74
     0
 42
0.0000000001
 43
0.0000000001
 40
0.0
 40
0.0
 40
0.0
 40
0.0
 40
1.0
 40
1.0
 40
1.0
 40
1.0
 10
-17.711
 20
4.9395
 30
0.0
 10
-17.711
 20
4.9395
 30
0.0
 10
2.728
 20
6.7277
 30
0.0
 10
2.728
 20
6.7277
 30
0.0
  0
SPLINE
  5
E8
330
1F
100
AcDbEntity
  8
ROUND
  6
New Line7
 62
   250
370
    18
100
AcDbSpline
210
0.0
220
0.0
230
1.0
 70
    24
 71
     3
 72
     8
 73
     4
 74
     0
 42
0.0000000001
 43
0.0000000001
 40
0.0
 40
0.0
 40
0.0
 40
0.0
 40
1.0
 40
1.0
 40
1.0
 40
1.0
 10
2.1774
 20
-5.433
 30
0.0
 10
2.1774
 20
-5.433
 30
0.0
 10
2.1774
 20
6.909
 30
0.0
 10
2.1774
 20
6.909
 30
0.0
  0
SPLINE
  5
EA
330
1F
100
AcDbEntity
  8
ROUND
  6
New Line8
 62
   250
370
    20
100
AcDbSpline
210
0.0
220
0.0
230
1.0
 70
    24
 71
     3
 72
     8
 73
     4
 74
     0
 42
0.0000000001
 43
0.0000000001
 40
0.0
 40
0.0
 40
0.0
 40
0.0
 40
1.0
 40
1.0
 40
1.0
 40
1.0
 10
20.7613
 20
-5.5298
 30
0.0
 10
20.7613
 20
-5.5298
 30
0.0
 10
20.7613
 20
1.8885
 30
0.0
 10
20.7613
 20
1.8885
 30
0.0
  0
SPLINE
  5
EC
330
1F
100
AcDbEntity
  8
ROUND
 62
   250
370
    18
100
AcDbSpline
210
0.0
220
0.0
230
1.0
 70
    24
 71
     3
 72
     8
 73
     4
 74
     0
 42
0.0000000001
 43
0.0000000001
 40
0.0
 40
0.0
 40
0.0
 40
0.0
 40
1.0
 40
1.0
 40
1.0
 40
1.0
 10
2.2283
 20
-12.0209
 30
0.0
 10
2.2283
 20
-12.0209
 30
0.0
 10
2.2283
 20
-5.8919
 30
0.0
 10
2.2283
 20
-5.8919
 30
0.0
  0
SPLINE
  5
ED
330
1F
100
AcDbEntity
  8
ROUND
 62
   250
370
    18
100
AcDbSpline
210
0.0
220
0.0
230
1.0
 70
    24
 71
     3
 72
     8
 73
     4
 74
     0
 42
0.0000000001
 43
0.0000000001
 40
0.0
 40
0.0
 40
0.0
 40
0.0
 40
1.0
 40
1.0
 40
1.0
 40
1.0
 10
20.7641
 20
-12.0209
 30
0.0
 10
20.7641
 20
-12.0209
 30
0.0
 10
20.7641
 20
-5.6935
 30
0.0
 10
20.7641
 20
-5.6935
 30
0.0
  0
SPLINE
  5
EE
330
1F
100
AcDbEntity
  8
ROUND
 62
   250
370
    15
100
AcDbSpline
210
0.0
220
0.0
230
1.0
 70
    24
 71
     3
 72
     8
 73
     4
 74
     0
 42
0.0000000001
 43
0.0000000001
 40
0.0
 40
0.0
 40
0.0
 40
0.0
 40
1.0
 40
1.0
 40
1.0
 40
1.0
 10
20.287
 20
-11.5419
 30
0.0
 10
20.287
 20
-11.5419
 30
0.0
 10
2.7274
 20
-11.5419
 30
0.0
 10
2.7274
 20
-11.5419
 30
0.0
  0
SPLINE
  5
EF
330
1F
100
AcDbEntity
  8
ROUND
 62
   250
100
AcDbSpline
210
0.0
220
0.0
230
1.0
 70
    11
 71
     3
 72
   124
 73
   120
 74
     0
 42
0.0000000001
 43
0.0000000001
 40
0.0
 40
0.0
 40
0.0
 40
0.0
 40
0.032258064516129
 40
0.032258064516129
 40
0.032258064516129
 40
0.032258064516129
 40
0.0645161290322581
 40
0.0645161290322581
 40
0.0645161290322581
 40
0.0645161290322581
 40
0.0967741935483871
 40
0.0967741935483871
 40
0.0967741935483871
 40
0.0967741935483871
 40
0.1290322580645161
 40
0.1290322580645161
 40
0.1290322580645161
 40
0.1290322580645161
 40
0.1612903225806452
 40
0.1612903225806452
 40
0.1612903225806452
 40
0.1612903225806452
 40
0.1935483870967742
 40
0.1935483870967742
 40
0.1935483870967742
 40
0.1935483870967742
 40
0.2258064516129032
 40
0.2258064516129032
 40
0.2258064516129032
 40
0.2258064516129032
 40
0.2580645161290323
 40
0.2580645161290323
 40
0.2580645161290323
 40
0.2580645161290323
 40
0.2903225806451613
 40
0.2903225806451613
 40
0.2903225806451613
 40
0.2903225806451613
 40
0.3225806451612903
 40
0.3225806451612903
 40
0.3225806451612903
 40
0.3225806451612903
 40
0.3548387096774194
 40
0.3548387096774194
 40
0.3548387096774194
 40
0.3548387096774194
 40
0.3870967741935484
 40
0.3870967741935484
 40
0.3870967741935484
 40
0.3870967741935484
 40
0.4193548387096774
 40
0.4193548387096774
 40
0.4193548387096774
 40
0.4193548387096774
 40
0.4516129032258064
 40
0.4516129032258064
 40
0.4516129032258064
 40
0.4516129032258064
 40
0.4838709677419355
 40
0.4838709677419355
 40
0.4838709677419355
 40
0.4838709677419355
 40
0.5161290322580645
 40
0.5161290322580645
 40
0.5161290322580645
 40
0.5161290322580645
 40
0.5483870967741935
 40
0.5483870967741935
 40
0.5483870967741935
 40
0.5483870967741935
 40
0.5806451612903226
 40
0.5806451612903226
 40
0.5806451612903226
 40
0.5806451612903226
 40
0.6129032258064516
 40
0.6129032258064516
 40
0.6129032258064516
 40
0.6129032258064516
 40
0.6451612903225806
 40
0.6451612903225806
 40
0.6451612903225806
 40
0.6451612903225806
 40
0.6774193548387096
 40
0.6774193548387096
 40
0.6774193548387096
 40
0.6774193548387096
 40
0.7096774193548387
 40
0.7096774193548387
 40
0.7096774193548387
 40
0.7096774193548387
 40
0.7419354838709677
 40
0.7419354838709677
 40
0.7419354838709677
 40
0.7419354838709677
 40
0.7741935483870968
 40
0.7741935483870968
 40
0.7741935483870968
 40
0.7741935483870968
 40
0.8064516129032258
 40
0.8064516129032258
 40
0.8064516129032258
 40
0.8064516129032258
 40
0.8387096774193549
 40
0.8387096774193549
 40
0.8387096774193549
 40
0.8387096774193549
 40
0.8709677419354839
 40
0.8709677419354839
 40
0.8709677419354839
 40
0.8709677419354839
 40
0.9032258064516129
 40
0.9032258064516129
 40
0.9032258064516129
 40
0.9032258064516129
 40
0.9354838709677419
 40
0.9354838709677419
 40
0.9354838709677419
 40
0.9354838709677419
 40
1.0
 40
1.0
 40
1.0
 40
1.0
 10
9.0557
 20
-10.8965
 30
0.0
 10
9.0965
 20
-10.8984
 30
0.0
 10
9.1437
 20
-10.8984
 30
0.0
 10
9.1967
 20
-10.8952
 30
0.0
 10
9.1967
 20
-10.8952
 30
0.0
 10
9.2498
 20
-10.8926
 30
0.0
 10
9.308
 20
-10.8867
 30
0.0
 10
9.37
 20
-10.8771
 30
0.0
 10
9.37
 20
-10.8771
 30
0.0
 10
9.4612
 20
-10.8667
 30
0.0
 10
9.5505
 20
-10.8467
 30
0.0
 10
9.6378
 20
-10.8182
 30
0.0
 10
9.6378
 20
-10.8182
 30
0.0
 10
9.7251
 20
-10.7891
 30
0.0
 10
9.8086
 20
-10.7509
 30
0.0
 10
9.8875
 20
-10.7044
 30
0.0
 10
9.8875
 20
-10.7044
 30
0.0
 10
9.9664
 20
-10.6578
 30
0.0
 10
10.0382
 20
-10.6028
 30
0.0
 10
10.1035
 20
-10.5394
 30
0.0
 10
10.1035
 20
-10.5394
 30
0.0
 10
10.1869
 20
-10.4592
 30
0.0
 10
10.2613
 20
-10.3629
 30
0.0
 10
10.3266
 20
-10.249
 30
0.0
 10
10.3266
 20
-10.249
 30
0.0
 10
10.3919
 20
-10.1359
 30
0.0
 10
10.443
 20
-10.0052
 30
0.0
 10
10.4805
 20
-9.8571
 30
0.0
 10
10.4805
 20
-9.8571
 30
0.0
 10
10.5181
 20
-9.709
 30
0.0
 10
10.5375
 20
-9.5434
 30
0.0
 10
10.5381
 20
-9.3597
 30
0.0
 10
10.5381
 20
-9.3597
 30
0.0
 10
10.5381
 20
-9.1961
 30
0.0
 10
10.5187
 20
-9.0493
 30
0.0
 10
10.4805
 20
-8.918
 30
0.0
 10
10.4805
 20
-8.918
 30
0.0
 10
10.4424
 20
-8.7867
 30
0.0
 10
10.3868
 20
-8.6748
 30
0.0
 10
10.3143
 20
-8.5817
 30
0.0
 10
10.3143
 20
-8.5817
 30
0.0
 10
10.2419
 20
-8.4886
 30
0.0
 10
10.1546
 20
-8.4174
 30
0.0
 10
10.0517
 20
-8.3676
 30
0.0
 10
10.0517
 20
-8.3676
 30
0.0
 10
9.9489
 20
-8.3178
 30
0.0
 10
9.8331
 20
-8.2932
 30
0.0
 10
9.7038
 20
-8.2926
 30
0.0
 10
9.7038
 20
-8.2926
 30
0.0
 10
9.5744
 20
-8.2932
 30
0.0
 10
9.4567
 20
-8.3178
 30
0.0
 10
9.3513
 20
-8.3657
 30
0.0
 10
9.3513
 20
-8.3657
 30
0.0
 10
9.2459
 20
-8.4129
 30
0.0
 10
9.1553
 20
-8.4788
 30
0.0
 10
9.0797
 20
-8.5616
 30
0.0
 10
9.0797
 20
-8.5616
 30
0.0
 10
9.0033
 20
-8.6451
 30
0.0
 10
8.9451
 20
-8.7401
 30
0.0
 10
8.9044
 20
-8.8475
 30
0.0
 10
8.9044
 20
-8.8475
 30
0.0
 10
8.8636
 20
-8.9549
 30
0.0
 10
8.8429
 20
-9.0687
 30
0.0
 10
8.8423
 20
-9.189
 30
0.0
 10
8.8423
 20
-9.189
 30
0.0
 10
8.8429
 20
-9.297
 30
0.0
 10
8.8604
 20
-9.3979
 30
0.0
 10
8.8947
 20
-9.491
 30
0.0
 10
8.8947
 20
-9.491
 30
0.0
 10
8.9296
 20
-9.5848
 30
0.0
 10
8.9794
 20
-9.6663
 30
0.0
 10
9.0441
 20
-9.7368
 30
0.0
 10
9.0441
 20
-9.7368
 30
0.0
 10
9.1088
 20
-9.8067
 30
0.0
 10
9.187
 20
-9.8616
 30
0.0
 10
9.2776
 20
-9.9011
 30
0.0
 10
9.2776
 20
-9.9011
 30
0.0
 10
9.3687
 20
-9.9405
 30
0.0
 10
9.4703
 20
-9.9606
 30
0.0
 10
9.5835
 20
-9.9612
 30
0.0
 10
9.5835
 20
-9.9612
 30
0.0
 10
9.7115
 20
-9.9606
 30
0.0
 10
9.826
 20
-9.9373
 30
0.0
 10
9.9263
 20
-9.8914
 30
0.0
 10
9.9263
 20
-9.8914
 30
0.0
 10
10.0259
 20
-9.8455
 30
0.0
 10
10.1112
 20
-9.7795
 30
0.0
 10
10.1811
 20
-9.6935
 30
0.0
 10
10.1811
 20
-9.6935
 30
0.0
 10
10.1811
 20
-9.6935
 30
0.0
 10
10.1927
 20
-9.6935
 30
0.0
 10
10.1927
 20
-9.6935
 30
0.0
 10
10.1927
 20
-9.6935
 30
0.0
 10
10.1688
 20
-9.8409
 30
0.0
 10
10.1281
 20
-9.9703
 30
0.0
 10
10.0711
 20
-10.0809
 30
0.0
 10
10.0711
 20
-10.0809
 30
0.0
 10
10.0136
 20
-10.1921
 30
0.0
 10
9.9431
 20
-10.2853
 30
0.0
 10
9.859
 20
-10.3609
 30
0.0
 10
9.859
 20
-10.3609
 30
0.0
 10
9.7866
 20
-10.4308
 30
0.0
 10
9.7057
 20
-10.4851
 30
0.0
 10
9.6158
 20
-10.5252
 30
0.0
 10
9.6158
 20
-10.5252
 30
0.0
 10
9.5259
 20
-10.5653
 30
0.0
 10
9.4308
 20
-10.5918
 30
0.0
 10
9.3312
 20
-10.6054
 30
0.0
 10
9.3312
 20
-10.6054
 30
0.0
 10
9.2737
 20
-10.6112
 30
0.0
 10
9.2219
 20
-10.6158
 30
0.0
 10
9.1773
 20
-10.6183
 30
0.0
 10
9.1773
 20
-10.6183
 30
0.0
 10
9.1327
 20
-10.6209
 30
0.0
 10
9.0919
 20
-10.6209
 30
0.0
 10
9.0557
 20
-10.617
 30
0.0
 10
9.0557
 20
-10.617
 30
0.0
 10
9.0557
 20
-10.617
 30
0.0
 10
9.0557
 20
-10.8965
 30
0.0
 10
9.0557
 20
-10.8965
 30
0.0
  0
SPLINE
  5
F0
330
1F
100
AcDbEntity
  8
ROUND
 62
   250
100
AcDbSpline
210
0.0
220
0.0
230
1.0
 70
    11
 71
     3
 72
    64
 73
    60
 74
     0
 42
0.0000000001
 43
0.0000000001
 40
0.0
 40
0.0
 40
0.0
 40
0.0
 40
0.0625
 40
0.0625
 40
0.0625
 40
0.0625
 40
0.125
 40
0.125
 40
0.125
 40
0.125
 40
0.1875
 40
0.1875
 40
0.1875
 40
0.1875
 40
0.25
 40
0.25
 40
0.25
 40
0.25
 40
0.3125
 40
0.3125
 40
0.3125
 40
0.3125
 40
0.375
 40
0.375
 40
0.375
 40
0.375
 40
0.4375
 40
0.4375
 40
0.4375
 40
0.4375
 40
0.5
 40
0.5
 40
0.5
 40
0.5
 40
0.5625
 40
0.5625
 40
0.5625
 40
0.5625
 40
0.625
 40
0.625
 40
0.625
 40
0.625
 40
0.6875
 40
0.6875
 40
0.6875
 40
0.6875
 40
0.75
 40
0.75
 40
0.75
 40
0.75
 40
0.8125
 40
0.8125
 40
0.8125
 40
0.8125
 40
0.875
 40
0.875
 40
0.875
 40
0.875
 40
1.0
 40
1.0
 40
1.0
 40
1.0
 10
9.6727
 20
-8.5526
 30
0.0
 10
9.7626
 20
-8.5532
 30
0.0
 10
9.8409
 20
-8.5726
 30
0.0
 10
9.9062
 20
-8.6108
 30
0.0
 10
9.9062
 20
-8.6108
 30
0.0
 10
9.9715
 20
-8.6489
 30
0.0
 10
10.0259
 20
-8.7026
 30
0.0
 10
10.0679
 20
-8.7712
 30
0.0
 10
10.0679
 20
-8.7712
 30
0.0
 10
10.1106
 20
-8.8397
 30
0.0
 10
10.1416
 20
-8.9206
 30
0.0
 10
10.1623
 20
-9.0124
 30
0.0
 10
10.1623
 20
-9.0124
 30
0.0
 10
10.183
 20
-9.1049
 30
0.0
 10
10.1927
 20
-9.2052
 30
0.0
 10
10.1927
 20
-9.3132
 30
0.0
 10
10.1927
 20
-9.3132
 30
0.0
 10
10.1927
 20
-9.3416
 30
0.0
 10
10.1902
 20
-9.3662
 30
0.0
 10
10.1843
 20
-9.3856
 30
0.0
 10
10.1843
 20
-9.3856
 30
0.0
 10
10.1792
 20
-9.4057
 30
0.0
 10
10.1714
 20
-9.4244
 30
0.0
 10
10.1617
 20
-9.4412
 30
0.0
 10
10.1617
 20
-9.4412
 30
0.0
 10
10.1319
 20
-9.4923
 30
0.0
 10
10.0925
 20
-9.5376
 30
0.0
 10
10.044
 20
-9.577
 30
0.0
 10
10.044
 20
-9.577
 30
0.0
 10
9.9961
 20
-9.6165
 30
0.0
 10
9.9398
 20
-9.6475
 30
0.0
 10
9.8758
 20
-9.6702
 30
0.0
 10
9.8758
 20
-9.6702
 30
0.0
 10
9.8118
 20
-9.6928
 30
0.0
 10
9.7413
 20
-9.7045
 30
0.0
 10
9.665
 20
-9.7051
 30
0.0
 10
9.665
 20
-9.7051
 30
0.0
 10
9.566
 20
-9.7045
 30
0.0
 10
9.4807
 20
-9.6812
 30
0.0
 10
9.4082
 20
-9.6359
 30
0.0
 10
9.4082
 20
-9.6359
 30
0.0
 10
9.3358
 20
-9.5906
 30
0.0
 10
9.2795
 20
-9.5286
 30
0.0
 10
9.24
 20
-9.4483
 30
0.0
 10
9.24
 20
-9.4483
 30
0.0
 10
9.2006
 20
-9.3681
 30
0.0
 10
9.1806
 20
-9.275
 30
0.0
 10
9.1799
 20
-9.1696
 30
0.0
 10
9.1799
 20
-9.1696
 30
0.0
 10
9.1806
 20
-9.048
 30
0.0
 10
9.2019
 20
-8.9413
 30
0.0
 10
9.2439
 20
-8.8494
 30
0.0
 10
9.2439
 20
-8.8494
 30
0.0
 10
9.286
 20
-8.757
 30
0.0
 10
9.3435
 20
-8.6845
 30
0.0
 10
9.4173
 20
-8.6321
 30
0.0
 10
9.4173
 20
-8.6321
 30
0.0
 10
9.491
 20
-8.5797
 30
0.0
 10
9.5764
 20
-8.5532
 30
0.0
 10
9.6727
 20
-8.5526
 30
0.0
  0
SPLINE
  5
F1
330
1F
100
AcDbEntity
  8
ROUND
 62
   250
100
AcDbSpline
210
0.0
220
0.0
230
1.0
 70
    11
 71
     3
 72
    36
 73
    32
 74
     0
 42
0.0000000001
 43
0.0000000001
 40
0.0
 40
0.0
 40
0.0
 40
0.0
 40
0.1111111111111111
 40
0.1111111111111111
 40
0.1111111111111111
 40
0.1111111111111111
 40
0.2222222222222222
 40
0.2222222222222222
 40
0.2222222222222222
 40
0.2222222222222222
 40
0.3333333333333333
 40
0.3333333333333333
 40
0.3333333333333333
 40
0.3333333333333333
 40
0.4444444444444444
 40
0.4444444444444444
 40
0.4444444444444444
 40
0.4444444444444444
 40
0.5555555555555556
 40
0.5555555555555556
 40
0.5555555555555556
 40
0.5555555555555556
 40
0.6666666666666666
 40
0.6666666666666666
 40
0.6666666666666666
 40
0.6666666666666666
 40
0.7777777777777778
 40
0.7777777777777778
 40
0.7777777777777778
 40
0.7777777777777778
 40
1.0
 40
1.0
 40
1.0
 40
1.0
 10
10.8951
 20
-8.3353
 30
0.0
 10
10.8951
 20
-8.3353
 30
0.0
 10
10.8951
 20
-8.6185
 30
0.0
 10
10.8951
 20
-8.6185
 30
0.0
 10
10.8951
 20
-8.6185
 30
0.0
 10
10.8951
 20
-8.6185
 30
0.0
 10
12.1292
 20
-8.6185
 30
0.0
 10
12.1292
 20
-8.6185
 30
0.0
 10
12.1292
 20
-8.6185
 30
0.0
 10
12.1292
 20
-8.6185
 30
0.0
 10
12.1292
 20
-8.6263
 30
0.0
 10
12.1292
 20
-8.6263
 30
0.0
 10
12.1292
 20
-8.6263
 30
0.0
 10
12.1292
 20
-8.6263
 30
0.0
 10
11.0348
 20
-10.8576
 30
0.0
 10
11.0348
 20
-10.8576
 30
0.0
 10
11.0348
 20
-10.8576
 30
0.0
 10
11.0348
 20
-10.8576
 30
0.0
 10
11.388
 20
-10.8576
 30
0.0
 10
11.388
 20
-10.8576
 30
0.0
 10
11.388
 20
-10.8576
 30
0.0
 10
11.388
 20
-10.8576
 30
0.0
 10
12.4862
 20
-8.5603
 30
0.0
 10
12.4862
 20
-8.5603
 30
0.0
 10
12.4862
 20
-8.5603
 30
0.0
 10
12.4862
 20
-8.5603
 30
0.0
 10
12.4862
 20
-8.3353
 30
0.0
 10
12.4862
 20
-8.3353
 30
0.0
 10
12.4862
 20
-8.3353
 30
0.0
 10
12.4862
 20
-8.3353
 30
0.0
 10
10.8951
 20
-8.3353
 30
0.0
 10
10.8951
 20
-8.3353
 30
0.0
  0
SPLINE
  5
F2
330
1F
100
AcDbEntity
  8
ROUND
 62
   250
100
AcDbSpline
210
0.0
220
0.0
230
1.0
 70
    11
 71
     3
 72
    44
 73
    40
 74
     0
 42
0.0000000001
 43
0.0000000001
 40
0.0
 40
0.0
 40
0.0
 40
0.0
 40
0.0909090909090909
 40
0.0909090909090909
 40
0.0909090909090909
 40
0.0909090909090909
 40
0.1818181818181818
 40
0.1818181818181818
 40
0.1818181818181818
 40
0.1818181818181818
 40
0.2727272727272727
 40
0.2727272727272727
 40
0.2727272727272727
 40
0.2727272727272727
 40
0.3636363636363636
 40
0.3636363636363636
 40
0.3636363636363636
 40
0.3636363636363636
 40
0.4545454545454545
 40
0.4545454545454545
 40
0.4545454545454545
 40
0.4545454545454545
 40
0.5454545454545454
 40
0.5454545454545454
 40
0.5454545454545454
 40
0.5454545454545454
 40
0.6363636363636364
 40
0.6363636363636364
 40
0.6363636363636364
 40
0.6363636363636364
 40
0.7272727272727273
 40
0.7272727272727273
 40
0.7272727272727273
 40
0.7272727272727273
 40
0.8181818181818182
 40
0.8181818181818182
 40
0.8181818181818182
 40
0.8181818181818182
 40
1.0
 40
1.0
 40
1.0
 40
1.0
 10
12.9673
 20
-11.3117
 30
0.0
 10
12.9952
 20
-11.2651
 30
0.0
 10
13.0249
 20
-11.2056
 30
0.0
 10
13.0585
 20
-11.1338
 30
0.0
 10
13.0585
 20
-11.1338
 30
0.0
 10
13.0915
 20
-11.0614
 30
0.0
 10
13.1252
 20
-10.9825
 30
0.0
 10
13.1594
 20
-10.8952
 30
0.0
 10
13.1594
 20
-10.8952
 30
0.0
 10
13.1937
 20
-10.8085
 30
0.0
 10
13.2267
 20
-10.7199
 30
0.0
 10
13.2578
 20
-10.6293
 30
0.0
 10
13.2578
 20
-10.6293
 30
0.0
 10
13.2888
 20
-10.5388
 30
0.0
 10
13.3159
 20
-10.4521
 30
0.0
 10
13.3399
 20
-10.3687
 30
0.0
 10
13.3399
 20
-10.3687
 30
0.0
 10
13.3399
 20
-10.3687
 30
0.0
 10
12.9596
 20
-10.4075
 30
0.0
 10
12.9596
 20
-10.4075
 30
0.0
 10
12.9596
 20
-10.4075
 30
0.0
 10
12.9486
 20
-10.4793
 30
0.0
 10
12.9344
 20
-10.5562
 30
0.0
 10
12.9175
 20
-10.6397
 30
0.0
 10
12.9175
 20
-10.6397
 30
0.0
 10
12.9001
 20
-10.7231
 30
0.0
 10
12.8807
 20
-10.8072
 30
0.0
 10
12.8593
 20
-10.8919
 30
0.0
 10
12.8593
 20
-10.8919
 30
0.0
 10
12.838
 20
-10.9773
 30
0.0
 10
12.816
 20
-11.0581
 30
0.0
 10
12.7934
 20
-11.1351
 30
0.0
 10
12.7934
 20
-11.1351
 30
0.0
 10
12.7707
 20
-11.2121
 30
0.0
 10
12.7481
 20
-11.28
 30
0.0
 10
12.7268
 20
-11.3388
 30
0.0
 10
12.7268
 20
-11.3388
 30
0.0
 10
12.7268
 20
-11.3388
 30
0.0
 10
12.9673
 20
-11.3117
 30
0.0
 10
12.9673
 20
-11.3117
 30
0.0
  0
SPLINE
  5
F3
330
1F
100
AcDbEntity
  8
ROUND
 62
   250
100
AcDbSpline
210
0.0
220
0.0
230
1.0
 70
    11
 71
     3
 72
   132
 73
   128
 74
     0
 42
0.0000000001
 43
0.0000000001
 40
0.0
 40
0.0
 40
0.0
 40
0.0
 40
0.0303030303030303
 40
0.0303030303030303
 40
0.0303030303030303
 40
0.0303030303030303
 40
0.0606060606060606
 40
0.0606060606060606
 40
0.0606060606060606
 40
0.0606060606060606
 40
0.0909090909090909
 40
0.0909090909090909
 40
0.0909090909090909
 40
0.0909090909090909
 40
0.1212121212121212
 40
0.1212121212121212
 40
0.1212121212121212
 40
0.1212121212121212
 40
0.1515151515151515
 40
0.1515151515151515
 40
0.1515151515151515
 40
0.1515151515151515
 40
0.1818181818181818
 40
0.1818181818181818
 40
0.1818181818181818
 40
0.1818181818181818
 40
0.2121212121212121
 40
0.2121212121212121
 40
0.2121212121212121
 40
0.2121212121212121
 40
0.2424242424242424
 40
0.2424242424242424
 40
0.2424242424242424
 40
0.2424242424242424
 40
0.2727272727272727
 40
0.2727272727272727
 40
0.2727272727272727
 40
0.2727272727272727
 40
0.303030303030303
 40
0.303030303030303
 40
0.303030303030303
 40
0.303030303030303
 40
0.3333333333333333
 40
0.3333333333333333
 40
0.3333333333333333
 40
0.3333333333333333
 40
0.3636363636363636
 40
0.3636363636363636
 40
0.3636363636363636
 40
0.3636363636363636
 40
0.3939393939393939
 40
0.3939393939393939
 40
0.3939393939393939
 40
0.3939393939393939
 40
0.4242424242424243
 40
0.4242424242424243
 40
0.4242424242424243
 40
0.4242424242424243
 40
0.4545454545454545
 40
0.4545454545454545
 40
0.4545454545454545
 40
0.4545454545454545
 40
0.4848484848484849
 40
0.4848484848484849
 40
0.4848484848484849
 40
0.4848484848484849
 40
0.5151515151515151
 40
0.5151515151515151
 40
0.5151515151515151
 40
0.5151515151515151
 40
0.5454545454545454
 40
0.5454545454545454
 40
0.5454545454545454
 40
0.5454545454545454
 40
0.5757575757575758
 40
0.5757575757575758
 40
0.5757575757575758
 40
0.5757575757575758
 40
0.6060606060606061
 40
0.6060606060606061
 40
0.6060606060606061
 40
0.6060606060606061
 40
0.6363636363636364
 40
0.6363636363636364
 40
0.6363636363636364
 40
0.6363636363636364
 40
0.6666666666666666
 40
0.6666666666666666
 40
0.6666666666666666
 40
0.6666666666666666
 40
0.696969696969697
 40
0.696969696969697
 40
0.696969696969697
 40
0.696969696969697
 40
0.7272727272727273
 40
0.7272727272727273
 40
0.7272727272727273
 40
0.7272727272727273
 40
0.7575757575757576
 40
0.7575757575757576
 40
0.7575757575757576
 40
0.7575757575757576
 40
0.7878787878787878
 40
0.7878787878787878
 40
0.7878787878787878
 40
0.7878787878787878
 40
0.8181818181818182
 40
0.8181818181818182
 40
0.8181818181818182
 40
0.8181818181818182
 40
0.8484848484848485
 40
0.8484848484848485
 40
0.8484848484848485
 40
0.8484848484848485
 40
0.8787878787878788
 40
0.8787878787878788
 40
0.8787878787878788
 40
0.8787878787878788
 40
0.9090909090909091
 40
0.9090909090909091
 40
0.9090909090909091
 40
0.9090909090909091
 40
0.9393939393939394
 40
0.9393939393939394
 40
0.9393939393939394
 40
0.9393939393939394
 40
1.0
 40
1.0
 40
1.0
 40
1.0
 10
15.1482
 20
-8.3353
 30
0.0
 10
15.1482
 20
-8.3353
 30
0.0
 10
13.9414
 20
-8.3353
 30
0.0
 10
13.9414
 20
-8.3353
 30
0.0
 10
13.9414
 20
-8.3353
 30
0.0
 10
13.9414
 20
-8.3353
 30
0.0
 10
13.7784
 20
-9.546
 30
0.0
 10
13.7784
 20
-9.546
 30
0.0
 10
13.7784
 20
-9.546
 30
0.0
 10
13.825
 20
-9.5395
 30
0.0
 10
13.8767
 20
-9.5344
 30
0.0
 10
13.9349
 20
-9.5298
 30
0.0
 10
13.9349
 20
-9.5298
 30
0.0
 10
13.9925
 20
-9.5253
 30
0.0
 10
14.0584
 20
-9.5227
 30
0.0
 10
14.1315
 20
-9.5227
 30
0.0
 10
14.1315
 20
-9.5227
 30
0.0
 10
14.2984
 20
-9.5234
 30
0.0
 10
14.4349
 20
-9.5473
 30
0.0
 10
14.5409
 20
-9.5939
 30
0.0
 10
14.5409
 20
-9.5939
 30
0.0
 10
14.6476
 20
-9.6411
 30
0.0
 10
14.7266
 20
-9.7058
 30
0.0
 10
14.7776
 20
-9.7885
 30
0.0
 10
14.7776
 20
-9.7885
 30
0.0
 10
14.8287
 20
-9.872
 30
0.0
 10
14.854
 20
-9.9683
 30
0.0
 10
14.8533
 20
-10.0776
 30
0.0
 10
14.8533
 20
-10.0776
 30
0.0
 10
14.854
 20
-10.1624
 30
0.0
 10
14.8384
 20
-10.238
 30
0.0
 10
14.8067
 20
-10.3053
 30
0.0
 10
14.8067
 20
-10.3053
 30
0.0
 10
14.7757
 20
-10.3732
 30
0.0
 10
14.7324
 20
-10.4301
 30
0.0
 10
14.6774
 20
-10.478
 30
0.0
 10
14.6774
 20
-10.478
 30
0.0
 10
14.6224
 20
-10.5252
 30
0.0
 10
14.559
 20
-10.5614
 30
0.0
 10
14.4872
 20
-10.5866
 30
0.0
 10
14.4872
 20
-10.5866
 30
0.0
 10
14.4154
 20
-10.6119
 30
0.0
 10
14.3398
 20
-10.6248
 30
0.0
 10
14.2596
 20
-10.6248
 30
0.0
 10
14.2596
 20
-10.6248
 30
0.0
 10
14.1813
 20
-10.6242
 30
0.0
 10
14.1076
 20
-10.617
 30
0.0
 10
14.0384
 20
-10.6022
 30
0.0
 10
14.0384
 20
-10.6022
 30
0.0
 10
13.9692
 20
-10.5879
 30
0.0
 10
13.9071
 20
-10.5705
 30
0.0
 10
13.8521
 20
-10.5491
 30
0.0
 10
13.8521
 20
-10.5491
 30
0.0
 10
13.7971
 20
-10.5278
 30
0.0
 10
13.7519
 20
-10.5065
 30
0.0
 10
13.7163
 20
-10.4851
 30
0.0
 10
13.7163
 20
-10.4851
 30
0.0
 10
13.7163
 20
-10.4851
 30
0.0
 10
13.6309
 20
-10.7451
 30
0.0
 10
13.6309
 20
-10.7451
 30
0.0
 10
13.6309
 20
-10.7451
 30
0.0
 10
13.673
 20
-10.7716
 30
0.0
 10
13.7254
 20
-10.7962
 30
0.0
 10
13.7881
 20
-10.8201
 30
0.0
 10
13.7881
 20
-10.8201
 30
0.0
 10
13.8508
 20
-10.8434
 30
0.0
 10
13.922
 20
-10.8622
 30
0.0
 10
14.0015
 20
-10.8771
 30
0.0
 10
14.0015
 20
-10.8771
 30
0.0
 10
14.0817
 20
-10.8919
 30
0.0
 10
14.1677
 20
-10.8997
 30
0.0
 10
14.2596
 20
-10.9003
 30
0.0
 10
14.2596
 20
-10.9003
 30
0.0
 10
14.3973
 20
-10.8997
 30
0.0
 10
14.5228
 20
-10.8777
 30
0.0
 10
14.6373
 20
-10.835
 30
0.0
 10
14.6373
 20
-10.835
 30
0.0
 10
14.7518
 20
-10.7923
 30
0.0
 10
14.8507
 20
-10.7322
 30
0.0
 10
14.9342
 20
-10.6546
 30
0.0
 10
14.9342
 20
-10.6546
 30
0.0
 10
15.0182
 20
-10.577
 30
0.0
 10
15.0829
 20
-10.4857
 30
0.0
 10
15.1288
 20
-10.3816
 30
0.0
 10
15.1288
 20
-10.3816
 30
0.0
 10
15.1748
 20
-10.2769
 30
0.0
 10
15.198
 20
-10.1624
 30
0.0
 10
15.1987
 20
-10.0388
 30
0.0
 10
15.1987
 20
-10.0388
 30
0.0
 10
15.198
 20
-9.9341
 30
0.0
 10
15.1812
 20
-9.8396
 30
0.0
 10
15.1489
 20
-9.7562
 30
0.0
 10
15.1489
 20
-9.7562
 30
0.0
 10
15.1165
 20
-9.6728
 30
0.0
 10
15.0739
 20
-9.601
 30
0.0
 10
15.0195
 20
-9.5402
 30
0.0
 10
15.0195
 20
-9.5402
 30
0.0
 10
14.9652
 20
-9.4794
 30
0.0
 10
14.9044
 20
-9.4309
 30
0.0
 10
14.8378
 20
-9.3947
 30
0.0
 10
14.8378
 20
-9.3947
 30
0.0
 10
14.7595
 20
-9.3468
 30
0.0
 10
14.6748
 20
-9.3119
 30
0.0
 10
14.5823
 20
-9.2905
 30
0.0
 10
14.5823
 20
-9.2905
 30
0.0
 10
14.4898
 20
-9.2692
 30
0.0
 10
14.3941
 20
-9.2582
 30
0.0
 10
14.2945
 20
-9.2589
 30
0.0
 10
14.2945
 20
-9.2589
 30
0.0
 10
14.2492
 20
-9.2589
 30
0.0
 10
14.2104
 20
-9.2595
 30
0.0
 10
14.1787
 20
-9.2614
 30
0.0
 10
14.1787
 20
-9.2614
 30
0.0
 10
14.147
 20
-9.2634
 30
0.0
 10
14.1173
 20
-9.2666
 30
0.0
 10
14.0888
 20
-9.2705
 30
0.0
 10
14.0888
 20
-9.2705
 30
0.0
 10
14.0888
 20
-9.2705
 30
0.0
 10
14.1858
 20
-8.6224
 30
0.0
 10
14.1858
 20
-8.6224
 30
0.0
 10
14.1858
 20
-8.6224
 30
0.0
 10
14.1858
 20
-8.6224
 30
0.0
 10
15.1482
 20
-8.6224
 30
0.0
 10
15.1482
 20
-8.6224
 30
0.0
 10
15.1482
 20
-8.6224
 30
0.0
 10
15.1482
 20
-8.6224
 30
0.0
 10
15.1482
 20
-8.3353
 30
0.0
 10
15.1482
 20
-8.3353
 30
0.0
  0
SPLINE
  5
F4
330
1F
100
AcDbEntity
  8
ROUND
 62
   250
370
     9
100
AcDbSpline
210
0.0
220
0.0
230
1.0
 70
    11
 71
     3
 72
    32
 73
    28
 74
     0
 42
0.0000000001
 43
0.0000000001
 40
0.0
 40
0.0
 40
0.0
 40
0.0
 40
0.125
 40
0.125
 40
0.125
 40
0.125
 40
0.25
 40
0.25
 40
0.25
 40
0.25
 40
0.375
 40
0.375
 40
0.375
 40
0.375
 40
0.5
 40
0.5
 40
0.5
 40
0.5
 40
0.625
 40
0.625
 40
0.625
 40
0.625
 40
0.75
 40
0.75
 40
0.75
 40
0.75
 40
1.0
 40
1.0
 40
1.0
 40
1.0
 10
19.3592
 20
-11.9577
 30
0.0
 10
19.3592
 20
-11.9577
 30
0.0
 10
19.3592
 20
-11.9577
 30
0.0
 10
19.3592
 20
-11.9577
 30
0.0
 10
19.3592
 20
-11.9577
 30
0.0
 10
19.3592
 20
-11.9577
 30
0.0
 10
19.3592
 20
-11.9577
 30
0.0
 10
19.3592
 20
-11.9577
 30
0.0
 10
19.3592
 20
-11.9577
 30
0.0
 10
19.3592
 20
-11.9577
 30
0.0
 10
20.632
 20
-11.5143
 30
0.0
 10
20.632
 20
-11.5143
 30
0.0
 10
20.632
 20
-11.5143
 30
0.0
 10
20.632
 20
-11.5143
 30
0.0
 10
19.3592
 20
-11.0709
 30
0.0
 10
19.3592
 20
-11.0709
 30
0.0
 10
19.3592
 20
-11.0709
 30
0.0
 10
19.3592
 20
-11.0709
 30
0.0
 10
19.3592
 20
-11.0709
 30
0.0
 10
19.3592
 20
-11.0709
 30
0.0
 10
19.3592
 20
-11.0709
 30
0.0
 10
19.3592
 20
-11.0709
 30
0.0
 10
19.3592
 20
-11.0709
 30
0.0
 10
19.3592
 20
-11.0709
 30
0.0
 10
19.3592
 20
-11.0709
 30
0.0
 10
19.3592
 20
-11.0709
 30
0.0
 10
19.3592
 20
-11.9577
 30
0.0
 10
19.3592
 20
-11.9577
 30
0.0
  0
SPLINE
  5
F5
330
1F
100
AcDbEntity
  8
ROUND
 62
   250
370
     9
100
AcDbSpline
210
0.0
220
0.0
230
1.0
 70
    11
 71
     3
 72
    32
 73
    28
 74
     0
 42
0.0000000001
 43
0.0000000001
 40
0.0
 40
0.0
 40
0.0
 40
0.0
 40
0.125
 40
0.125
 40
0.125
 40
0.125
 40
0.25
 40
0.25
 40
0.25
 40
0.25
 40
0.375
 40
0.375
 40
0.375
 40
0.375
 40
0.5
 40
0.5
 40
0.5
 40
0.5
 40
0.625
 40
0.625
 40
0.625
 40
0.625
 40
0.75
 40
0.75
 40
0.75
 40
0.75
 40
1.0
 40
1.0
 40
1.0
 40
1.0
 10
15.3906
 20
4.151
 30
0.0
 10
15.3906
 20
4.151
 30
0.0
 10
15.3906
 20
4.151
 30
0.0
 10
15.3906
 20
4.151
 30
0.0
 10
15.3906
 20
4.151
 30
0.0
 10
15.3906
 20
4.151
 30
0.0
 10
15.3906
 20
4.151
 30
0.0
 10
15.3906
 20
4.151
 30
0.0
 10
15.3906
 20
4.151
 30
0.0
 10
15.3906
 20
4.151
 30
0.0
 10
16.6634
 20
4.5944
 30
0.0
 10
16.6634
 20
4.5944
 30
0.0
 10
16.6634
 20
4.5944
 30
0.0
 10
16.6634
 20
4.5944
 30
0.0
 10
15.3906
 20
5.0378
 30
0.0
 10
15.3906
 20
5.0378
 30
0.0
 10
15.3906
 20
5.0378
 30
0.0
 10
15.3906
 20
5.0378
 30
0.0
 10
15.3906
 20
5.0378
 30
0.0
 10
15.3906
 20
5.0378
 30
0.0
 10
15.3906
 20
5.0378
 30
0.0
 10
15.3906
 20
5.0378
 30
0.0
 10
15.3906
 20
5.0378
 30
0.0
 10
15.3906
 20
5.0378
 30
0.0
 10
15.3906
 20
5.0378
 30
0.0
 10
15.3906
 20
5.0378
 30
0.0
 10
15.3906
 20
4.151
 30
0.0
 10
15.3906
 20
4.151
 30
0.0
  0
SPLINE
  5
F6
330
1F
100
AcDbEntity
  8
ROUND
 62
   250
370
     9
100
AcDbSpline
210
0.0
220
0.0
230
1.0
 70
    11
 71
     3
 72
    32
 73
    28
 74
     0
 42
0.0000000001
 43
0.0000000001
 40
0.0
 40
0.0
 40
0.0
 40
0.0
 40
0.125
 40
0.125
 40
0.125
 40
0.125
 40
0.25
 40
0.25
 40
0.25
 40
0.25
 40
0.375
 40
0.375
 40
0.375
 40
0.375
 40
0.5
 40
0.5
 40
0.5
 40
0.5
 40
0.625
 40
0.625
 40
0.625
 40
0.625
 40
0.75
 40
0.75
 40
0.75
 40
0.75
 40
1.0
 40
1.0
 40
1.0
 40
1.0
 10
-17.0844
 20
-0.6345
 30
0.0
 10
-17.0844
 20
-0.6345
 30
0.0
 10
-17.0844
 20
-0.6345
 30
0.0
 10
-17.0844
 20
-0.6345
 30
0.0
 10
-17.0844
 20
-0.6345
 30
0.0
 10
-17.0844
 20
-0.6345
 30
0.0
 10
-17.0844
 20
-0.6345
 30
0.0
 10
-17.0844
 20
-0.6345
 30
0.0
 10
-17.0844
 20
-0.6345
 30
0.0
 10
-17.0844
 20
-0.6345
 30
0.0
 10
-17.637
 20
0.5948
 30
0.0
 10
-17.637
 20
0.5948
 30
0.0
 10
-17.637
 20
0.5948
 30
0.0
 10
-17.637
 20
0.5948
 30
0.0
 10
-17.9678
 20
-0.7118
 30
0.0
 10
-17.9678
 20
-0.7118
 30
0.0
 10
-17.9678
 20
-0.7118
 30
0.0
 10
-17.9678
 20
-0.7118
 30
0.0
 10
-17.9678
 20
-0.7118
 30
0.0
 10
-17.9678
 20
-0.7118
 30
0.0
 10
-17.9678
 20
-0.7118
 30
0.0
 10
-17.9678
 20
-0.7118
 30
0.0
 10
-17.9678
 20
-0.7118
 30
0.0
 10
-17.9678
 20
-0.7118
 30
0.0
 10
-17.9678
 20
-0.7118
 30
0.0
 10
-17.9678
 20
-0.7118
 30
0.0
 10
-17.0844
 20
-0.6345
 30
0.0
 10
-17.0844
 20
-0.6345
 30
0.0
  0
SPLINE
  5
F7
330
1F
100
AcDbEntity
  8
ROUND
 62
   250
370
     9
100
AcDbSpline
210
0.0
220
0.0
230
1.0
 70
    11
 71
     3
 72
    32
 73
    28
 74
     0
 42
0.0000000001
 43
0.0000000001
 40
0.0
 40
0.0
 40
0.0
 40
0.0
 40
0.125
 40
0.125
 40
0.125
 40
0.125
 40
0.25
 40
0.25
 40
0.25
 40
0.25
 40
0.375
 40
0.375
 40
0.375
 40
0.375
 40
0.5
 40
0.5
 40
0.5
 40
0.5
 40
0.625
 40
0.625
 40
0.625
 40
0.625
 40
0.75
 40
0.75
 40
0.75
 40
0.75
 40
1.0
 40
1.0
 40
1.0
 40
1.0
 10
-6.5231
 20
0.8474
 30
0.0
 10
-6.5231
 20
0.8474
 30
0.0
 10
-6.5231
 20
0.8474
 30
0.0
 10
-6.5231
 20
0.8474
 30
0.0
 10
-6.5231
 20
0.8474
 30
0.0
 10
-6.5231
 20
0.8474
 30
0.0
 10
-6.5231
 20
0.8474
 30
0.0
 10
-6.5231
 20
0.8474
 30
0.0
 10
-6.5231
 20
0.8474
 30
0.0
 10
-6.5231
 20
0.8474
 30
0.0
 10
-7.0757
 20
2.0767
 30
0.0
 10
-7.0757
 20
2.0767
 30
0.0
 10
-7.0757
 20
2.0767
 30
0.0
 10
-7.0757
 20
2.0767
 30
0.0
 10
-7.4065
 20
0.7701
 30
0.0
 10
-7.4065
 20
0.7701
 30
0.0
 10
-7.4065
 20
0.7701
 30
0.0
 10
-7.4065
 20
0.7701
 30
0.0
 10
-7.4065
 20
0.7701
 30
0.0
 10
-7.4065
 20
0.7701
 30
0.0
 10
-7.4065
 20
0.7701
 30
0.0
 10
-7.4065
 20
0.7701
 30
0.0
 10
-7.4065
 20
0.7701
 30
0.0
 10
-7.4065
 20
0.7701
 30
0.0
 10
-7.4065
 20
0.7701
 30
0.0
 10
-7.4065
 20
0.7701
 30
0.0
 10
-6.5231
 20
0.8474
 30
0.0
 10
-6.5231
 20
0.8474
 30
0.0
  0
SPLINE
  5
F8
330
1F
100
AcDbEntity
  8
ROUND
 62
   250
370
     9
100
AcDbSpline
210
0.0
220
0.0
230
1.0
 70
    11
 71
     3
 72
    32
 73
    28
 74
     0
 42
0.0000000001
 43
0.0000000001
 40
0.0
 40
0.0
 40
0.0
 40
0.0
 40
0.125
 40
0.125
 40
0.125
 40
0.125
 40
0.25
 40
0.25
 40
0.25
 40
0.25
 40
0.375
 40
0.375
 40
0.375
 40
0.375
 40
0.5
 40
0.5
 40
0.5
 40
0.5
 40
0.625
 40
0.625
 40
0.625
 40
0.625
 40
0.75
 40
0.75
 40
0.75
 40
0.75
 40
1.0
 40
1.0
 40
1.0
 40
1.0
 10
-18.1384
 20
11.2591
 30
0.0
 10
-18.1384
 20
11.2591
 30
0.0
 10
-18.1384
 20
11.2591
 30
0.0
 10
-18.1384
 20
11.2591
 30
0.0
 10
-18.1384
 20
11.2591
 30
0.0
 10
-18.1384
 20
11.2591
 30
0.0
 10
-18.1384
 20
11.2591
 30
0.0
 10
-18.1384
 20
11.2591
 30
0.0
 10
-18.1384
 20
11.2591
 30
0.0
 10
-18.1384
 20
11.2591
 30
0.0
 10
-18.4692
 20
9.9525
 30
0.0
 10
-18.4692
 20
9.9525
 30
0.0
 10
-18.4692
 20
9.9525
 30
0.0
 10
-18.4692
 20
9.9525
 30
0.0
 10
-19.0218
 20
11.1818
 30
0.0
 10
-19.0218
 20
11.1818
 30
0.0
 10
-19.0218
 20
11.1818
 30
0.0
 10
-19.0218
 20
11.1818
 30
0.0
 10
-19.0218
 20
11.1818
 30
0.0
 10
-19.0218
 20
11.1818
 30
0.0
 10
-19.0218
 20
11.1818
 30
0.0
 10
-19.0218
 20
11.1818
 30
0.0
 10
-19.0218
 20
11.1818
 30
0.0
 10
-19.0218
 20
11.1818
 30
0.0
 10
-19.0218
 20
11.1818
 30
0.0
 10
-19.0218
 20
11.1818
 30
0.0
 10
-18.1384
 20
11.2591
 30
0.0
 10
-18.1384
 20
11.2591
 30
0.0
  0
SPLINE
  5
F9
330
1F
100
AcDbEntity
  8
ROUND
 62
   250
370
     9
100
AcDbSpline
210
0.0
220
0.0
230
1.0
 70
    11
 71
     3
 72
    32
 73
    28
 74
     0
 42
0.0000000001
 43
0.0000000001
 40
0.0
 40
0.0
 40
0.0
 40
0.0
 40
0.125
 40
0.125
 40
0.125
 40
0.125
 40
0.25
 40
0.25
 40
0.25
 40
0.25
 40
0.375
 40
0.375
 40
0.375
 40
0.375
 40
0.5
 40
0.5
 40
0.5
 40
0.5
 40
0.625
 40
0.625
 40
0.625
 40
0.625
 40
0.75
 40
0.75
 40
0.75
 40
0.75
 40
1.0
 40
1.0
 40
1.0
 40
1.0
 10
-7.4448
 20
11.1755
 30
0.0
 10
-7.4448
 20
11.1755
 30
0.0
 10
-7.4448
 20
11.1755
 30
0.0
 10
-7.4448
 20
11.1755
 30
0.0
 10
-7.4448
 20
11.1755
 30
0.0
 10
-7.4448
 20
11.1755
 30
0.0
 10
-7.4448
 20
11.1755
 30
0.0
 10
-7.4448
 20
11.1755
 30
0.0
 10
-7.4448
 20
11.1755
 30
0.0
 10
-7.4448
 20
11.1755
 30
0.0
 10
-7.7756
 20
9.8689
 30
0.0
 10
-7.7756
 20
9.8689
 30
0.0
 10
-7.7756
 20
9.8689
 30
0.0
 10
-7.7756
 20
9.8689
 30
0.0
 10
-8.3282
 20
11.0982
 30
0.0
 10
-8.3282
 20
11.0982
 30
0.0
 10
-8.3282
 20
11.0982
 30
0.0
 10
-8.3282
 20
11.0982
 30
0.0
 10
-8.3282
 20
11.0982
 30
0.0
 10
-8.3282
 20
11.0982
 30
0.0
 10
-8.3282
 20
11.0982
 30
0.0
 10
-8.3282
 20
11.0982
 30
0.0
 10
-8.3282
 20
11.0982
 30
0.0
 10
-8.3282
 20
11.0982
 30
0.0
 10
-8.3282
 20
11.0982
 30
0.0
 10
-8.3282
 20
11.0982
 30
0.0
 10
-7.4448
 20
11.1755
 30
0.0
 10
-7.4448
 20
11.1755
 30
0.0
  0
SPLINE
  5
FA
330
1F
100
AcDbEntity
  8
ROUND
 62
   250
370
     9
100
AcDbSpline
210
0.0
220
0.0
230
1.0
 70
    11
 71
     3
 72
    32
 73
    28
 74
     0
 42
0.0000000001
 43
0.0000000001
 40
0.0
 40
0.0
 40
0.0
 40
0.0
 40
0.125
 40
0.125
 40
0.125
 40
0.125
 40
0.25
 40
0.25
 40
0.25
 40
0.25
 40
0.375
 40
0.375
 40
0.375
 40
0.375
 40
0.5
 40
0.5
 40
0.5
 40
0.5
 40
0.625
 40
0.625
 40
0.625
 40
0.625
 40
0.75
 40
0.75
 40
0.75
 40
0.75
 40
1.0
 40
1.0
 40
1.0
 40
1.0
 10
14.1583
 20
-6.1232
 30
0.0
 10
14.1583
 20
-6.1232
 30
0.0
 10
14.1583
 20
-6.1232
 30
0.0
 10
14.1583
 20
-6.1232
 30
0.0
 10
14.1583
 20
-6.1232
 30
0.0
 10
14.1583
 20
-6.1232
 30
0.0
 10
14.1583
 20
-6.1232
 30
0.0
 10
14.1583
 20
-6.1232
 30
0.0
 10
14.1583
 20
-6.1232
 30
0.0
 10
14.1583
 20
-6.1232
 30
0.0
 10
13.7149
 20
-7.396
 30
0.0
 10
13.7149
 20
-7.396
 30
0.0
 10
13.7149
 20
-7.396
 30
0.0
 10
13.7149
 20
-7.396
 30
0.0
 10
13.2715
 20
-6.1232
 30
0.0
 10
13.2715
 20
-6.1232
 30
0.0
 10
13.2715
 20
-6.1232
 30
0.0
 10
13.2715
 20
-6.1232
 30
0.0
 10
13.2715
 20
-6.1232
 30
0.0
 10
13.2715
 20
-6.1232
 30
0.0
 10
13.2715
 20
-6.1232
 30
0.0
 10
13.2715
 20
-6.1232
 30
0.0
 10
13.2715
 20
-6.1232
 30
0.0
 10
13.2715
 20
-6.1232
 30
0.0
 10
13.2715
 20
-6.1232
 30
0.0
 10
13.2715
 20
-6.1232
 30
0.0
 10
14.1583
 20
-6.1232
 30
0.0
 10
14.1583
 20
-6.1232
 30
0.0
  0
SPLINE
  5
FB
330
1F
100
AcDbEntity
  8
ROUND
 62
   250
370
     9
100
AcDbSpline
210
0.0
220
0.0
230
1.0
 70
    11
 71
     3
 72
    32
 73
    28
 74
     0
 42
0.0000000001
 43
0.0000000001
 40
0.0
 40
0.0
 40
0.0
 40
0.0
 40
0.125
 40
0.125
 40
0.125
 40
0.125
 40
0.25
 40
0.25
 40
0.25
 40
0.25
 40
0.375
 40
0.375
 40
0.375
 40
0.375
 40
0.5
 40
0.5
 40
0.5
 40
0.5
 40
0.625
 40
0.625
 40
0.625
 40
0.625
 40
0.75
 40
0.75
 40
0.75
 40
0.75
 40
1.0
 40
1.0
 40
1.0
 40
1.0
 10
14.1693
 20
9.6096
 30
0.0
 10
14.1693
 20
9.6096
 30
0.0
 10
14.1693
 20
9.6096
 30
0.0
 10
14.1693
 20
9.6096
 30
0.0
 10
14.1693
 20
9.6096
 30
0.0
 10
14.1693
 20
9.6096
 30
0.0
 10
14.1693
 20
9.6096
 30
0.0
 10
14.1693
 20
9.6096
 30
0.0
 10
14.1693
 20
9.6096
 30
0.0
 10
14.1693
 20
9.6096
 30
0.0
 10
13.7259
 20
10.8824
 30
0.0
 10
13.7259
 20
10.8824
 30
0.0
 10
13.7259
 20
10.8824
 30
0.0
 10
13.7259
 20
10.8824
 30
0.0
 10
13.2825
 20
9.6096
 30
0.0
 10
13.2825
 20
9.6096
 30
0.0
 10
13.2825
 20
9.6096
 30
0.0
 10
13.2825
 20
9.6096
 30
0.0
 10
13.2825
 20
9.6096
 30
0.0
 10
13.2825
 20
9.6096
 30
0.0
 10
13.2825
 20
9.6096
 30
0.0
 10
13.2825
 20
9.6096
 30
0.0
 10
13.2825
 20
9.6096
 30
0.0
 10
13.2825
 20
9.6096
 30
0.0
 10
13.2825
 20
9.6096
 30
0.0
 10
13.2825
 20
9.6096
 30
0.0
 10
14.1693
 20
9.6096
 30
0.0
 10
14.1693
 20
9.6096
 30
0.0
  0
SPLINE
  5
FC
330
1F
100
AcDbEntity
  8
ROUND
 62
   250
370
     9
100
AcDbSpline
210
0.0
220
0.0
230
1.0
 70
    11
 71
     3
 72
    32
 73
    28
 74
     0
 42
0.0000000001
 43
0.0000000001
 40
0.0
 40
0.0
 40
0.0
 40
0.0
 40
0.125
 40
0.125
 40
0.125
 40
0.125
 40
0.25
 40
0.25
 40
0.25
 40
0.25
 40
0.375
 40
0.375
 40
0.375
 40
0.375
 40
0.5
 40
0.5
 40
0.5
 40
0.5
 40
0.625
 40
0.625
 40
0.625
 40
0.625
 40
0.75
 40
0.75
 40
0.75
 40
0.75
 40
1.0
 40
1.0
 40
1.0
 40
1.0
 10
3.6231
 20
-11.9572
 30
0.0
 10
3.6231
 20
-11.9572
 30
0.0
 10
3.6231
 20
-11.9572
 30
0.0
 10
3.6231
 20
-11.9572
 30
0.0
 10
3.6231
 20
-11.9572
 30
0.0
 10
3.6231
 20
-11.9572
 30
0.0
 10
3.6231
 20
-11.9572
 30
0.0
 10
3.6231
 20
-11.9572
 30
0.0
 10
3.6231
 20
-11.9572
 30
0.0
 10
3.6231
 20
-11.9572
 30
0.0
 10
2.3503
 20
-11.5138
 30
0.0
 10
2.3503
 20
-11.5138
 30
0.0
 10
2.3503
 20
-11.5138
 30
0.0
 10
2.3503
 20
-11.5138
 30
0.0
 10
3.6231
 20
-11.0704
 30
0.0
 10
3.6231
 20
-11.0704
 30
0.0
 10
3.6231
 20
-11.0704
 30
0.0
 10
3.6231
 20
-11.0704
 30
0.0
 10
3.6231
 20
-11.0704
 30
0.0
 10
3.6231
 20
-11.0704
 30
0.0
 10
3.6231
 20
-11.0704
 30
0.0
 10
3.6231
 20
-11.0704
 30
0.0
 10
3.6231
 20
-11.0704
 30
0.0
 10
3.6231
 20
-11.0704
 30
0.0
 10
3.6231
 20
-11.0704
 30
0.0
 10
3.6231
 20
-11.0704
 30
0.0
 10
3.6231
 20
-11.9572
 30
0.0
 10
3.6231
 20
-11.9572
 30
0.0
  0
SPLINE
  5
FD
330
1F
100
AcDbEntity
  8
ROUND
 62
   250
370
     9
100
AcDbSpline
210
0.0
220
0.0
230
1.0
 70
    11
 71
     3
 72
    32
 73
    28
 74
     0
 42
0.0000000001
 43
0.0000000001
 40
0.0
 40
0.0
 40
0.0
 40
0.0
 40
0.125
 40
0.125
 40
0.125
 40
0.125
 40
0.25
 40
0.25
 40
0.25
 40
0.25
 40
0.375
 40
0.375
 40
0.375
 40
0.375
 40
0.5
 40
0.5
 40
0.5
 40
0.5
 40
0.625
 40
0.625
 40
0.625
 40
0.625
 40
0.75
 40
0.75
 40
0.75
 40
0.75
 40
1.0
 40
1.0
 40
1.0
 40
1.0
 10
26.3813
 20
4.1515
 30
0.0
 10
26.3813
 20
4.1515
 30
0.0
 10
26.3813
 20
4.1515
 30
0.0
 10
26.3813
 20
4.1515
 30
0.0
 10
26.3813
 20
4.1515
 30
0.0
 10
26.3813
 20
4.1515
 30
0.0
 10
26.3813
 20
4.1515
 30
0.0
 10
26.3813
 20
4.1515
 30
0.0
 10
26.3813
 20
4.1515
 30
0.0
 10
26.3813
 20
4.1515
 30
0.0
 10
25.1085
 20
4.5949
 30
0.0
 10
25.1085
 20
4.5949
 30
0.0
 10
25.1085
 20
4.5949
 30
0.0
 10
25.1085
 20
4.5949
 30
0.0
 10
26.3813
 20
5.0383
 30
0.0
 10
26.3813
 20
5.0383
 30
0.0
 10
26.3813
 20
5.0383
 30
0.0
 10
26.3813
 20
5.0383
 30
0.0
 10
26.3813
 20
5.0383
 30
0.0
 10
26.3813
 20
5.0383
 30
0.0
 10
26.3813
 20
5.0383
 30
0.0
 10
26.3813
 20
5.0383
 30
0.0
 10
26.3813
 20
5.0383
 30
0.0
 10
26.3813
 20
5.0383
 30
0.0
 10
26.3813
 20
5.0383
 30
0.0
 10
26.3813
 20
5.0383
 30
0.0
 10
26.3813
 20
4.1515
 30
0.0
 10
26.3813
 20
4.1515
 30
0.0
  0
ENDSEC
  0
SECTION
  2
OBJECTS
  0
DICTIONARY
  5
C
330
0
100
AcDbDictionary
281
     1
  3
ACAD_GROUP
350
D
  3
ACAD_LAYOUT
350
1A
  3
ACAD_MATERIAL
350
3B
  3
ACAD_MLEADERSTYLE
350
100
  3
ACAD_MLINESTYLE
350
17
  3
ACAD_PLOTSETTINGS
350
19
  3
ACAD_PLOTSTYLENAME
350
E
  3
ACAD_VISUALSTYLE
350
2A
  3
AcDbVariableDictionary
350
FE
  0
DICTIONARY
  5
D
102
{ACAD_REACTORS
330
C
102
}
330
C
100
AcDbDictionary
281
     1
  0
DICTIONARY
  5
1A
102
{ACAD_REACTORS
330
C
102
}
330
C
100
AcDbDictionary
281
     1
  3
Layout1
350
1E
  3
Layout2
350
26
  3
Model
350
22
  0
DICTIONARY
  5
3B
102
{ACAD_REACTORS
330
C
102
}
330
C
100
AcDbDictionary
281
     1
  3
ByBlock
350
3D
  3
ByLayer
350
3C
  3
Global
350
3E
  0
DICTIONARY
  5
100
102
{ACAD_REACTORS
330
C
102
}
330
C
100
AcDbDictionary
281
     1
  0
DICTIONARY
  5
17
102
{ACAD_REACTORS
330
C
102
}
330
C
100
AcDbDictionary
281
     1
  3
Standard
350
18
  0
DICTIONARY
  5
19
102
{ACAD_REACTORS
330
C
102
}
330
C
100
AcDbDictionary
281
     1
  0
ACDBDICTIONARYWDFLT
  5
E
102
{ACAD_REACTORS
330
C
102
}
330
C
100
AcDbDictionary
281
     1
  3
Normal
350
F
100
AcDbDictionaryWithDefault
340
F
  0
DICTIONARY
  5
2A
102
{ACAD_REACTORS
330
C
102
}
330
C
100
AcDbDictionary
281
     1
  3
2dWireframe
350
2F
  3
3D Hidden
350
31
  3
3dWireframe
350
30
  3
Basic
350
32
  3
Brighten
350
36
  3
ColorChange
350
3A
  3
Conceptual
350
34
  3
Dim
350
35
  3
Facepattern
350
39
  3
Flat
350
2B
  3
FlatWithEdges
350
2C
  3
Gouraud
350
2D
  3
GouraudWithEdges
350
2E
  3
Linepattern
350
38
  3
Realistic
350
33
  3
Thicken
350
37
  0
DICTIONARY
  5
FE
102
{ACAD_REACTORS
330
C
102
}
330
C
100
AcDbDictionary
281
     1
  3
DIMASSOC
350
101
  3
HIDETEXT
350
102
  0
LAYOUT
  5
1E
102
{ACAD_REACTORS
330
1A
102
}
330
1A
100
AcDbPlotSettings
  1

  2
none_device
  4

  6

 40
0.0
 41
0.0
 42
0.0
 43
0.0
 44
0.0
 45
0.0
 46
0.0
 47
0.0
 48
0.0
 49
0.0
140
0.0
141
0.0
142
1.0
143
1.0
 70
   688
 72
     0
 73
     0
 74
     5
  7

 75
    16
147
1.0
148
0.0
149
0.0
100
AcDbLayout
  1
Layout1
 70
     1
 71
     1
 10
0.0
 20
0.0
 11
12.0
 21
9.0
 12
0.0
 22
0.0
 32
0.0
 14
1.000000000000000E+20
 24
1.000000000000000E+20
 34
1.000000000000000E+20
 15
-1.000000000000000E+20
 25
-1.000000000000000E+20
 35
-1.000000000000000E+20
146
0.0
 13
0.0
 23
0.0
 33
0.0
 16
1.0
 26
0.0
 36
0.0
 17
0.0
 27
1.0
 37
0.0
 76
     0
330
1B
  0
LAYOUT
  5
26
102
{ACAD_REACTORS
330
1A
102
}
330
1A
100
AcDbPlotSettings
  1

  2
none_device
  4

  6

 40
0.0
 41
0.0
 42
0.0
 43
0.0
 44
0.0
 45
0.0
 46
0.0
 47
0.0
 48
0.0
 49
0.0
140
0.0
141
0.0
142
1.0
143
1.0
 70
   688
 72
     0
 73
     0
 74
     5
  7

 75
    16
147
1.0
148
0.0
149
0.0
100
AcDbLayout
  1
Layout2
 70
     1
 71
     2
 10
0.0
 20
0.0
 11
0.0
 21
0.0
 12
0.0
 22
0.0
 32
0.0
 14
0.0
 24
0.0
 34
0.0
 15
0.0
 25
0.0
 35
0.0
146
0.0
 13
0.0
 23
0.0
 33
0.0
 16
1.0
 26
0.0
 36
0.0
 17
0.0
 27
1.0
 37
0.0
 76
     0
330
23
  0
LAYOUT
  5
22
102
{ACAD_REACTORS
330
1A
102
}
330
1A
100
AcDbPlotSettings
  1

  2
none_device
  4

  6

 40
0.0
 41
0.0
 42
0.0
 43
0.0
 44
0.0
 45
0.0
 46
0.0
 47
0.0
 48
0.0
 49
0.0
140
0.0
141
0.0
142
1.0
143
1.0
 70
  1712
 72
     0
 73
     0
 74
     0
  7

 75
     0
147
1.0
148
0.0
149
0.0
100
AcDbLayout
  1
Model
 70
     1
 71
     0
 10
0.0
 20
0.0
 11
12.0
 21
9.0
 12
0.0
 22
0.0
 32
0.0
 14
-26.9127
 24
-12.0209
 34
0.0
 15
26.9067
 25
12.0288
 35
0.0
146
0.0
 13
0.0
 23
0.0
 33
0.0
 16
1.0
 26
0.0
 36
0.0
 17
0.0
 27
1.0
 37
0.0
 76
     0
330
1F
331
29
  0
MATERIAL
  5
3D
102
{ACAD_REACTORS
330
3B
102
}
102
{ACAD_XDICTIONARY
360
125
102
}
330
3B
100
AcDbMaterial
  1
ByBlock
  0
MATERIAL
  5
3C
102
{ACAD_REACTORS
330
3B
102
}
102
{ACAD_XDICTIONARY
360
123
102
}
330
3B
100
AcDbMaterial
  1
ByLayer
  0
MATERIAL
  5
3E
102
{ACAD_REACTORS
330
3B
102
}
102
{ACAD_XDICTIONARY
360
127
102
}
330
3B
100
AcDbMaterial
  1
Global
  0
MLINESTYLE
  5
18
102
{ACAD_REACTORS
330
17
102
}
330
17
100
AcDbMlineStyle
  2
Standard
 70
     0
  3

 62
   256
 51
90.0
 52
90.0
 71
     2
 49
0.5
 62
   256
  6
BYLAYER
 49
-0.5
 62
   256
  6
BYLAYER
  0
ACDBPLACEHOLDER
  5
F
102
{ACAD_REACTORS
330
E
102
}
330
E
  0
VISUALSTYLE
  5
2F
102
{ACAD_REACTORS
330
2A
102
}
102
{ACAD_XDICTIONARY
360
10B
102
}
330
2A
100
AcDbVisualStyle
  2
2dWireframe
 70
     4
 71
     0
 72
     2
 73
     0
 90
        0
 40
-0.6
 41
-30.0
 62
     5
 63
     7
 74
     1
 91
        4
 64
     7
 65
   257
 75
     1
175
     1
 42
1.0
 92
        0
 66
   257
 43
1.0
 76
     1
 77
     6
 78
     2
 67
     7
 79
     5
170
     0
171
     0
290
     0
174
     0
 93
        1
 44
0.0
173
     0
291
     0
 45
0.0
1001
ACAD
1000
AcDbSavedByObjectVersion
1070
     0
  0
VISUALSTYLE
  5
31
102
{ACAD_REACTORS
330
2A
102
}
102
{ACAD_XDICTIONARY
360
10F
102
}
330
2A
100
AcDbVisualStyle
  2
3D Hidden
 70
     6
 71
     1
 72
     2
 73
     2
 90
        0
 40
-0.6
 41
-30.0
 62
     5
 63
     7
 74
     2
 91
        2
 64
     7
 65
   257
 75
     2
175
     1
 42
40.0
 92
        0
 66
   257
 43
1.0
 76
     1
 77
     6
 78
     2
 67
     7
 79
     3
170
     0
171
     0
290
     0
174
     0
 93
        1
 44
0.0
173
     0
291
     0
 45
0.0
1001
ACAD
1000
AcDbSavedByObjectVersion
1070
     0
  0
VISUALSTYLE
  5
30
102
{ACAD_REACTORS
330
2A
102
}
102
{ACAD_XDICTIONARY
360
10D
102
}
330
2A
100
AcDbVisualStyle
  2
3dWireframe
 70
     5
 71
     0
 72
     2
 73
     0
 90
        0
 40
-0.6
 41
-30.0
 62
     5
 63
     7
 74
     1
 91
        4
 64
     7
 65
   257
 75
     1
175
     1
 42
1.0
 92
        0
 66
   257
 43
1.0
 76
     1
 77
     6
 78
     2
 67
     7
 79
     5
170
     0
171
     0
290
     0
174
     0
 93
        1
 44
0.0
173
     0
291
     0
 45
0.0
1001
ACAD
1000
AcDbSavedByObjectVersion
1070
     0
  0
VISUALSTYLE
  5
32
102
{ACAD_REACTORS
330
2A
102
}
102
{ACAD_XDICTIONARY
360
111
102
}
330
2A
100
AcDbVisualStyle
  2
Basic
 70
     7
 71
     1
 72
     0
 73
     1
 90
        0
 40
-0.6
 41
-30.0
 62
     5
 63
     7
 74
     0
 91
        4
 64
     7
 65
   257
 75
     1
175
     1
 42
1.0
 92
        8
 66
     7
 43
1.0
 76
     1
 77
     6
 78
     2
 67
     7
 79
     5
170
     0
171
     0
290
     0
174
     0
 93
        1
 44
0.0
173
     0
291
     1
 45
0.0
1001
ACAD
1000
AcDbSavedByObjectVersion
1070
     0
  0
VISUALSTYLE
  5
36
102
{ACAD_REACTORS
330
2A
102
}
102
{ACAD_XDICTIONARY
360
119
102
}
330
2A
100
AcDbVisualStyle
  2
Brighten
 70
    12
 71
     2
 72
     2
 73
     0
 90
        0
 40
-0.6
 41
-30.0
 62
     5
 63
     7
 74
     1
 91
        4
 64
     7
 65
   257
 75
     1
175
     1
 42
1.0
 92
        8
 66
     7
 43
1.0
 76
     1
 77
     6
 78
     2
 67
     7
 79
     5
170
     0
171
     0
290
     0
174
     0
 93
        1
 44
50.0
173
     0
291
     1
 45
0.0
1001
ACAD
1000
AcDbSavedByObjectVersion
1070
     0
  0
VISUALSTYLE
  5
3A
102
{ACAD_REACTORS
330
2A
102
}
102
{ACAD_XDICTIONARY
360
121
102
}
330
2A
100
AcDbVisualStyle
  2
ColorChange
 70
    16
 71
     2
 72
     2
 73
     3
 90
        0
 40
-0.6
 41
-30.0
 62
     5
 63
     8
 74
     1
 91
        4
 64
     7
 65
   257
 75
     1
175
     1
 42
1.0
 92
        8
 66
     8
 43
1.0
 76
     1
 77
     6
 78
     2
 67
     7
 79
     5
170
     0
171
     0
290
     0
174
     0
 93
        1
 44
0.0
173
     0
291
     1
 45
0.0
1001
ACAD
1000
AcDbSavedByObjectVersion
1070
     0
  0
VISUALSTYLE
  5
34
102
{ACAD_REACTORS
330
2A
102
}
102
{ACAD_XDICTIONARY
360
115
102
}
330
2A
100
AcDbVisualStyle
  2
Conceptual
 70
     9
 71
     3
 72
     2
 73
     0
 90
        0
 40
-0.6
 41
-30.0
 62
     5
 63
     7
 74
     2
 91
        2
 64
     7
 65
   257
 75
     1
175
     1
 42
40.0
 92
        8
 66
     7
 43
1.0
 76
     1
 77
     6
 78
     2
 67
     7
 79
     3
170
     0
171
     0
290
     0
174
     0
 93
        1
 44
0.0
173
     0
291
     0
 45
0.0
1001
ACAD
1000
AcDbSavedByObjectVersion
1070
     0
  0
VISUALSTYLE
  5
35
102
{ACAD_REACTORS
330
2A
102
}
102
{ACAD_XDICTIONARY
360
117
102
}
330
2A
100
AcDbVisualStyle
  2
Dim
 70
    11
 71
     2
 72
     2
 73
     0
 90
        0
 40
-0.6
 41
-30.0
 62
     5
 63
     7
 74
     1
 91
        4
 64
     7
 65
   257
 75
     1
175
     1
 42
1.0
 92
        8
 66
     7
 43
1.0
 76
     1
 77
     6
 78
     2
 67
     7
 79
     5
170
     0
171
     0
290
     0
174
     0
 93
        1
 44
-50.0
173
     0
291
     1
 45
0.0
1001
ACAD
1000
AcDbSavedByObjectVersion
1070
     0
  0
VISUALSTYLE
  5
39
102
{ACAD_REACTORS
330
2A
102
}
102
{ACAD_XDICTIONARY
360
11F
102
}
330
2A
100
AcDbVisualStyle
  2
Facepattern
 70
    15
 71
     2
 72
     2
 73
     0
 90
        0
 40
-0.6
 41
-30.0
 62
     5
 63
     7
 74
     1
 91
        4
 64
     7
 65
   257
 75
     1
175
     1
 42
1.0
 92
        8
 66
     7
 43
1.0
 76
     1
 77
     6
 78
     2
 67
     7
 79
     5
170
     0
171
     0
290
     0
174
     0
 93
        1
 44
0.0
173
     0
291
     1
 45
0.0
1001
ACAD
1000
AcDbSavedByObjectVersion
1070
     0
  0
VISUALSTYLE
  5
2B
102
{ACAD_REACTORS
330
2A
102
}
102
{ACAD_XDICTIONARY
360
103
102
}
330
2A
100
AcDbVisualStyle
  2
Flat
 70
     0
 71
     2
 72
     1
 73
     1
 90
        2
 40
-0.6
 41
30.0
 62
     5
 63
     7
 74
     0
 91
        4
 64
     7
 65
   257
 75
     1
175
     1
 42
1.0
 92
        8
 66
     7
 43
1.0
 76
     1
 77
     6
 78
     2
 67
     7
 79
     5
170
     0
171
     0
290
     0
174
     0
 93
       13
 44
0.0
173
     0
291
     1
 45
0.0
1001
ACAD
1000
AcDbSavedByObjectVersion
1070
     0
  0
VISUALSTYLE
  5
2C
102
{ACAD_REACTORS
330
2A
102
}
102
{ACAD_XDICTIONARY
360
105
102
}
330
2A
100
AcDbVisualStyle
  2
FlatWithEdges
 70
     1
 71
     2
 72
     1
 73
     1
 90
        2
 40
-0.6
 41
30.0
 62
     5
 63
     7
 74
     1
 91
        4
 64
     7
 65
   257
 75
     1
175
     1
 42
1.0
 92
        0
 66
   257
 43
1.0
 76
     1
 77
     6
 78
     2
 67
     7
 79
     5
170
     0
171
     0
290
     0
174
     0
 93
       13
 44
0.0
173
     0
291
     1
 45
0.0
1001
ACAD
1000
AcDbSavedByObjectVersion
1070
     0
  0
VISUALSTYLE
  5
2D
102
{ACAD_REACTORS
330
2A
102
}
102
{ACAD_XDICTIONARY
360
107
102
}
330
2A
100
AcDbVisualStyle
  2
Gouraud
 70
     2
 71
     2
 72
     2
 73
     1
 90
        2
 40
-0.6
 41
30.0
 62
     5
 63
     7
 74
     0
 91
        4
 64
     7
 65
   257
 75
     1
175
     1
 42
1.0
 92
        0
 66
     7
 43
1.0
 76
     1
 77
     6
 78
     2
 67
     7
 79
     5
170
     0
171
     0
290
     0
174
     0
 93
       13
 44
0.0
173
     0
291
     1
 45
0.0
1001
ACAD
1000
AcDbSavedByObjectVersion
1070
     0
  0
VISUALSTYLE
  5
2E
102
{ACAD_REACTORS
330
2A
102
}
102
{ACAD_XDICTIONARY
360
109
102
}
330
2A
100
AcDbVisualStyle
  2
GouraudWithEdges
 70
     3
 71
     2
 72
     2
 73
     1
 90
        2
 40
-0.6
 41
30.0
 62
     5
 63
     7
 74
     1
 91
        4
 64
     7
 65
   257
 75
     1
175
     1
 42
1.0
 92
        0
 66
   257
 43
1.0
 76
     1
 77
     6
 78
     2
 67
     7
 79
     5
170
     0
171
     0
290
     0
174
     0
 93
       13
 44
0.0
173
     0
291
     1
 45
0.0
1001
ACAD
1000
AcDbSavedByObjectVersion
1070
     0
  0
VISUALSTYLE
  5
38
102
{ACAD_REACTORS
330
2A
102
}
102
{ACAD_XDICTIONARY
360
11D
102
}
330
2A
100
AcDbVisualStyle
  2
Linepattern
 70
    14
 71
     2
 72
     2
 73
     0
 90
        0
 40
-0.6
 41
-30.0
 62
     5
 63
     7
 74
     1
 91
        4
 64
     7
 65
   257
 75
     7
175
     7
 42
1.0
 92
        8
 66
     7
 43
1.0
 76
     1
 77
     6
 78
     2
 67
     7
 79
     5
170
     0
171
     0
290
     0
174
     0
 93
        1
 44
0.0
173
     0
291
     1
 45
0.0
1001
ACAD
1000
AcDbSavedByObjectVersion
1070
     0
  0
VISUALSTYLE
  5
33
102
{ACAD_REACTORS
330
2A
102
}
102
{ACAD_XDICTIONARY
360
113
102
}
330
2A
100
AcDbVisualStyle
  2
Realistic
 70
     8
 71
     2
 72
     2
 73
     0
 90
        0
 40
-0.6
 41
-30.0
 62
     5
 63
     7
 74
     1
 91
        0
 64
     7
 65
   257
 75
     1
175
     1
 42
1.0
 92
        8
 66
     8
 43
1.0
 76
     1
 77
     6
 78
     2
 67
     7
 79
     5
170
     0
171
     0
290
     0
174
     0
 93
       13
 44
0.0
173
     0
291
     0
 45
0.0
1001
ACAD
1000
AcDbSavedByObjectVersion
1070
     0
  0
VISUALSTYLE
  5
37
102
{ACAD_REACTORS
330
2A
102
}
102
{ACAD_XDICTIONARY
360
11B
102
}
330
2A
100
AcDbVisualStyle
  2
Thicken
 70
    13
 71
     2
 72
     2
 73
     0
 90
        0
 40
-0.6
 41
-30.0
 62
     5
 63
     7
 74
     1
 91
        4
 64
     7
 65
   257
 75
     1
175
     1
 42
1.0
 92
       12
 66
     7
 43
1.0
 76
     1
 77
     6
 78
     2
 67
     7
 79
     5
170
     0
171
     0
290
     0
174
     0
 93
        1
 44
0.0
173
     0
291
     1
 45
0.0
1001
ACAD
1000
AcDbSavedByObjectVersion
1070
     0
  0
DICTIONARYVAR
  5
101
102
{ACAD_REACTORS
330
FE
102
}
330
FE
100
DictionaryVariables
280
     0
  1
2
  0
DICTIONARYVAR
  5
102
102
{ACAD_REACTORS
330
FE
102
}
330
FE
100
DictionaryVariables
280
     0
  1
1
  0
DICTIONARY
  5
125
330
3D
100
AcDbDictionary
280
     1
281
     1
  3
ACAD_XREC_ROUNDTRIP
360
126
  0
DICTIONARY
  5
123
330
3C
100
AcDbDictionary
280
     1
281
     1
  3
ACAD_XREC_ROUNDTRIP
360
124
  0
DICTIONARY
  5
127
330
3E
100
AcDbDictionary
280
     1
281
     1
  3
ACAD_XREC_ROUNDTRIP
360
128
  0
DICTIONARY
  5
10B
330
2F
100
AcDbDictionary
280
     1
281
     1
  3
ACAD_XREC_ROUNDTRIP
360
10C
  0
DICTIONARY
  5
10F
330
31
100
AcDbDictionary
280
     1
281
     1
  3
ACAD_XREC_ROUNDTRIP
360
110
  0
DICTIONARY
  5
10D
330
30
100
AcDbDictionary
280
     1
281
     1
  3
ACAD_XREC_ROUNDTRIP
360
10E
  0
DICTIONARY
  5
111
330
32
100
AcDbDictionary
280
     1
281
     1
  3
ACAD_XREC_ROUNDTRIP
360
112
  0
DICTIONARY
  5
119
330
36
100
AcDbDictionary
280
     1
281
     1
  3
ACAD_XREC_ROUNDTRIP
360
11A
  0
DICTIONARY
  5
121
330
3A
100
AcDbDictionary
280
     1
281
     1
  3
ACAD_XREC_ROUNDTRIP
360
122
  0
DICTIONARY
  5
115
330
34
100
AcDbDictionary
280
     1
281
     1
  3
ACAD_XREC_ROUNDTRIP
360
116
  0
DICTIONARY
  5
117
330
35
100
AcDbDictionary
280
     1
281
     1
  3
ACAD_XREC_ROUNDTRIP
360
118
  0
DICTIONARY
  5
11F
330
39
100
AcDbDictionary
280
     1
281
     1
  3
ACAD_XREC_ROUNDTRIP
360
120
  0
DICTIONARY
  5
103
330
2B
100
AcDbDictionary
280
     1
281
     1
  3
ACAD_XREC_ROUNDTRIP
360
104
  0
DICTIONARY
  5
105
330
2C
100
AcDbDictionary
280
     1
281
     1
  3
ACAD_XREC_ROUNDTRIP
360
106
  0
DICTIONARY
  5
107
330
2D
100
AcDbDictionary
280
     1
281
     1
  3
ACAD_XREC_ROUNDTRIP
360
108
  0
DICTIONARY
  5
109
330
2E
100
AcDbDictionary
280
     1
281
     1
  3
ACAD_XREC_ROUNDTRIP
360
10A
  0
DICTIONARY
  5
11D
330
38
100
AcDbDictionary
280
     1
281
     1
  3
ACAD_XREC_ROUNDTRIP
360
11E
  0
DICTIONARY
  5
113
330
33
100
AcDbDictionary
280
     1
281
     1
  3
ACAD_XREC_ROUNDTRIP
360
114
  0
DICTIONARY
  5
11B
330
37
100
AcDbDictionary
280
     1
281
     1
  3
ACAD_XREC_ROUNDTRIP
360
11C
  0
XRECORD
  5
126
102
{ACAD_REACTORS
330
125
102
}
330
125
100
AcDbXrecord
280
     1
102
MATERIAL
148
0.0
149
0.0
149
0.0
 93
        0
 94
      127
282
     0
 72
     1
 77
     1
171
     1
175
     1
179
     1
273
     0
  0
XRECORD
  5
124
102
{ACAD_REACTORS
330
123
102
}
330
123
100
AcDbXrecord
280
     1
102
MATERIAL
148
0.0
149
0.0
149
0.0
 93
        0
 94
      127
282
     0
 72
     1
 77
     1
171
     1
175
     1
179
     1
273
     0
  0
XRECORD
  5
128
102
{ACAD_REACTORS
330
127
102
}
330
127
100
AcDbXrecord
280
     1
102
MATERIAL
148
0.0
149
0.0
149
0.0
 93
        0
 94
      127
282
     0
 72
     1
 77
     1
171
     1
175
     1
179
     1
273
     0
  0
XRECORD
  5
10C
102
{ACAD_REACTORS
330
10B
102
}
330
10B
100
AcDbXrecord
280
     1
102
RTVSPropertyOp0
 70
     1
102
RTVSPropertyOp1
 70
     1
102
RTVSPropertyOp2
 70
     1
102
RTVSPropertyOp3
 70
     1
102
RTVSPropertyOp4
 70
     1
102
RTVSPropertyOp5
 70
     1
102
RTVSPropertyOp6
 70
     1
102
RTVSPropertyOp7
 70
     1
102
RTVSPropertyOp8
 70
     1
102
RTVSPropertyOp9
 70
     1
102
RTVSPropertyOp10
 70
     1
102
RTVSPropertyOp11
 70
     1
102
RTVSPropertyOp12
 70
     1
102
RTVSPropertyOp13
 70
     1
102
RTVSPropertyOp14
 70
     1
102
RTVSPropertyOp15
 70
     1
102
RTVSPropertyOp16
 70
     1
102
RTVSPropertyOp17
 70
     1
102
RTVSPropertyOp18
 70
     1
102
RTVSPropertyOp19
 70
     1
102
RTVSPropertyOp20
 70
     1
102
RTVSPropertyOp21
 70
     1
102
RTVSPropertyOp22
 70
     1
102
RTVSPropertyOp23
 70
     1
102
RTVSPropertyOp24
 70
     1
102
RTVSPropertyOp25
 70
     1
102
RTVSPropertyOp26
 70
     1
102
RTVSPropertyOp27
 70
     1
  0
XRECORD
  5
110
102
{ACAD_REACTORS
330
10F
102
}
330
10F
100
AcDbXrecord
280
     1
102
RTVSPropertyOp0
 70
     1
102
RTVSPropertyOp1
 70
     1
102
RTVSPropertyOp2
 70
     1
102
RTVSPropertyOp3
 70
     1
102
RTVSPropertyOp4
 70
     1
102
RTVSPropertyOp5
 70
     1
102
RTVSPropertyOp6
 70
     1
102
RTVSPropertyOp7
 70
     1
102
RTVSPropertyOp8
 70
     1
102
RTVSPropertyOp9
 70
     1
102
RTVSPropertyOp10
 70
     1
102
RTVSPropertyOp11
 70
     1
102
RTVSPropertyOp12
 70
     1
102
RTVSPropertyOp13
 70
     1
102
RTVSPropertyOp14
 70
     1
102
RTVSPropertyOp15
 70
     1
102
RTVSPropertyOp16
 70
     1
102
RTVSPropertyOp17
 70
     1
102
RTVSPropertyOp18
 70
     1
102
RTVSPropertyOp19
 70
     1
102
RTVSPropertyOp20
 70
     1
102
RTVSPropertyOp21
 70
     1
102
RTVSPropertyOp22
 70
     1
102
RTVSPropertyOp23
 70
     1
102
RTVSPropertyOp24
 70
     1
102
RTVSPropertyOp25
 70
     1
102
RTVSPropertyOp26
 70
     1
102
RTVSPropertyOp27
 70
     1
  0
XRECORD
  5
10E
102
{ACAD_REACTORS
330
10D
102
}
330
10D
100
AcDbXrecord
280
     1
102
RTVSPropertyOp0
 70
     1
102
RTVSPropertyOp1
 70
     1
102
RTVSPropertyOp2
 70
     1
102
RTVSPropertyOp3
 70
     1
102
RTVSPropertyOp4
 70
     1
102
RTVSPropertyOp5
 70
     1
102
RTVSPropertyOp6
 70
     1
102
RTVSPropertyOp7
 70
     1
102
RTVSPropertyOp8
 70
     1
102
RTVSPropertyOp9
 70
     1
102
RTVSPropertyOp10
 70
     1
102
RTVSPropertyOp11
 70
     1
102
RTVSPropertyOp12
 70
     1
102
RTVSPropertyOp13
 70
     1
102
RTVSPropertyOp14
 70
     1
102
RTVSPropertyOp15
 70
     1
102
RTVSPropertyOp16
 70
     1
102
RTVSPropertyOp17
 70
     1
102
RTVSPropertyOp18
 70
     1
102
RTVSPropertyOp19
 70
     1
102
RTVSPropertyOp20
 70
     1
102
RTVSPropertyOp21
 70
     1
102
RTVSPropertyOp22
 70
     1
102
RTVSPropertyOp23
 70
     1
102
RTVSPropertyOp24
 70
     1
102
RTVSPropertyOp25
 70
     1
102
RTVSPropertyOp26
 70
     1
102
RTVSPropertyOp27
 70
     1
  0
XRECORD
  5
112
102
{ACAD_REACTORS
330
111
102
}
330
111
100
AcDbXrecord
280
     1
102
RTVSPropertyOp0
 70
     1
102
RTVSPropertyOp1
 70
     1
102
RTVSPropertyOp2
 70
     1
102
RTVSPropertyOp3
 70
     1
102
RTVSPropertyOp4
 70
     1
102
RTVSPropertyOp5
 70
     1
102
RTVSPropertyOp6
 70
     1
102
RTVSPropertyOp7
 70
     1
102
RTVSPropertyOp8
 70
     1
102
RTVSPropertyOp9
 70
     1
102
RTVSPropertyOp10
 70
     1
102
RTVSPropertyOp11
 70
     1
102
RTVSPropertyOp12
 70
     1
102
RTVSPropertyOp13
 70
     1
102
RTVSPropertyOp14
 70
     1
102
RTVSPropertyOp15
 70
     1
102
RTVSPropertyOp16
 70
     1
102
RTVSPropertyOp17
 70
     1
102
RTVSPropertyOp18
 70
     1
102
RTVSPropertyOp19
 70
     1
102
RTVSPropertyOp20
 70
     1
102
RTVSPropertyOp21
 70
     1
102
RTVSPropertyOp22
 70
     1
102
RTVSPropertyOp23
 70
     1
102
RTVSPropertyOp24
 70
     1
102
RTVSPropertyOp25
 70
     1
102
RTVSPropertyOp26
 70
     1
102
RTVSPropertyOp27
 70
     1
  0
XRECORD
  5
11A
102
{ACAD_REACTORS
330
119
102
}
330
119
100
AcDbXrecord
280
     1
102
RTVSPropertyOp0
 70
     1
102
RTVSPropertyOp1
 70
     1
102
RTVSPropertyOp2
 70
     1
102
RTVSPropertyOp3
 70
     1
102
RTVSPropertyOp4
 70
     1
102
RTVSPropertyOp5
 70
     1
102
RTVSPropertyOp6
 70
     1
102
RTVSPropertyOp7
 70
     1
102
RTVSPropertyOp8
 70
     1
102
RTVSPropertyOp9
 70
     1
102
RTVSPropertyOp10
 70
     1
102
RTVSPropertyOp11
 70
     1
102
RTVSPropertyOp12
 70
     1
102
RTVSPropertyOp13
 70
     1
102
RTVSPropertyOp14
 70
     1
102
RTVSPropertyOp15
 70
     1
102
RTVSPropertyOp16
 70
     1
102
RTVSPropertyOp17
 70
     1
102
RTVSPropertyOp18
 70
     1
102
RTVSPropertyOp19
 70
     1
102
RTVSPropertyOp20
 70
     1
102
RTVSPropertyOp21
 70
     1
102
RTVSPropertyOp22
 70
     1
102
RTVSPropertyOp23
 70
     1
102
RTVSPropertyOp24
 70
     1
102
RTVSPropertyOp25
 70
     1
102
RTVSPropertyOp26
 70
     1
102
RTVSPropertyOp27
 70
     1
  0
XRECORD
  5
122
102
{ACAD_REACTORS
330
121
102
}
330
121
100
AcDbXrecord
280
     1
102
RTVSPropertyOp0
 70
     1
102
RTVSPropertyOp1
 70
     1
102
RTVSPropertyOp2
 70
     1
102
RTVSPropertyOp3
 70
     1
102
RTVSPropertyOp4
 70
     1
102
RTVSPropertyOp5
 70
     1
102
RTVSPropertyOp6
 70
     1
102
RTVSPropertyOp7
 70
     1
102
RTVSPropertyOp8
 70
     1
102
RTVSPropertyOp9
 70
     1
102
RTVSPropertyOp10
 70
     1
102
RTVSPropertyOp11
 70
     1
102
RTVSPropertyOp12
 70
     1
102
RTVSPropertyOp13
 70
     1
102
RTVSPropertyOp14
 70
     1
102
RTVSPropertyOp15
 70
     1
102
RTVSPropertyOp16
 70
     1
102
RTVSPropertyOp17
 70
     1
102
RTVSPropertyOp18
 70
     1
102
RTVSPropertyOp19
 70
     1
102
RTVSPropertyOp20
 70
     1
102
RTVSPropertyOp21
 70
     1
102
RTVSPropertyOp22
 70
     1
102
RTVSPropertyOp23
 70
     1
102
RTVSPropertyOp24
 70
     1
102
RTVSPropertyOp25
 70
     1
102
RTVSPropertyOp26
 70
     1
102
RTVSPropertyOp27
 70
     1
  0
XRECORD
  5
116
102
{ACAD_REACTORS
330
115
102
}
330
115
100
AcDbXrecord
280
     1
102
RTVSPropertyOp0
 70
     1
102
RTVSPropertyOp1
 70
     1
102
RTVSPropertyOp2
 70
     1
102
RTVSPropertyOp3
 70
     1
102
RTVSPropertyOp4
 70
     1
102
RTVSPropertyOp5
 70
     1
102
RTVSPropertyOp6
 70
     1
102
RTVSPropertyOp7
 70
     1
102
RTVSPropertyOp8
 70
     1
102
RTVSPropertyOp9
 70
     1
102
RTVSPropertyOp10
 70
     1
102
RTVSPropertyOp11
 70
     1
102
RTVSPropertyOp12
 70
     1
102
RTVSPropertyOp13
 70
     1
102
RTVSPropertyOp14
 70
     1
102
RTVSPropertyOp15
 70
     1
102
RTVSPropertyOp16
 70
     1
102
RTVSPropertyOp17
 70
     1
102
RTVSPropertyOp18
 70
     1
102
RTVSPropertyOp19
 70
     1
102
RTVSPropertyOp20
 70
     1
102
RTVSPropertyOp21
 70
     1
102
RTVSPropertyOp22
 70
     1
102
RTVSPropertyOp23
 70
     1
102
RTVSPropertyOp24
 70
     1
102
RTVSPropertyOp25
 70
     1
102
RTVSPropertyOp26
 70
     1
102
RTVSPropertyOp27
 70
     1
  0
XRECORD
  5
118
102
{ACAD_REACTORS
330
117
102
}
330
117
100
AcDbXrecord
280
     1
102
RTVSPropertyOp0
 70
     1
102
RTVSPropertyOp1
 70
     1
102
RTVSPropertyOp2
 70
     1
102
RTVSPropertyOp3
 70
     1
102
RTVSPropertyOp4
 70
     1
102
RTVSPropertyOp5
 70
     1
102
RTVSPropertyOp6
 70
     1
102
RTVSPropertyOp7
 70
     1
102
RTVSPropertyOp8
 70
     1
102
RTVSPropertyOp9
 70
     1
102
RTVSPropertyOp10
 70
     1
102
RTVSPropertyOp11
 70
     1
102
RTVSPropertyOp12
 70
     1
102
RTVSPropertyOp13
 70
     1
102
RTVSPropertyOp14
 70
     1
102
RTVSPropertyOp15
 70
     1
102
RTVSPropertyOp16
 70
     1
102
RTVSPropertyOp17
 70
     1
102
RTVSPropertyOp18
 70
     1
102
RTVSPropertyOp19
 70
     1
102
RTVSPropertyOp20
 70
     1
102
RTVSPropertyOp21
 70
     1
102
RTVSPropertyOp22
 70
     1
102
RTVSPropertyOp23
 70
     1
102
RTVSPropertyOp24
 70
     1
102
RTVSPropertyOp25
 70
     1
102
RTVSPropertyOp26
 70
     1
102
RTVSPropertyOp27
 70
     1
  0
XRECORD
  5
120
102
{ACAD_REACTORS
330
11F
102
}
330
11F
100
AcDbXrecord
280
     1
102
RTVSPropertyOp0
 70
     1
102
RTVSPropertyOp1
 70
     1
102
RTVSPropertyOp2
 70
     1
102
RTVSPropertyOp3
 70
     1
102
RTVSPropertyOp4
 70
     1
102
RTVSPropertyOp5
 70
     1
102
RTVSPropertyOp6
 70
     1
102
RTVSPropertyOp7
 70
     1
102
RTVSPropertyOp8
 70
     1
102
RTVSPropertyOp9
 70
     1
102
RTVSPropertyOp10
 70
     1
102
RTVSPropertyOp11
 70
     1
102
RTVSPropertyOp12
 70
     1
102
RTVSPropertyOp13
 70
     1
102
RTVSPropertyOp14
 70
     1
102
RTVSPropertyOp15
 70
     1
102
RTVSPropertyOp16
 70
     1
102
RTVSPropertyOp17
 70
     1
102
RTVSPropertyOp18
 70
     1
102
RTVSPropertyOp19
 70
     1
102
RTVSPropertyOp20
 70
     1
102
RTVSPropertyOp21
 70
     1
102
RTVSPropertyOp22
 70
     1
102
RTVSPropertyOp23
 70
     1
102
RTVSPropertyOp24
 70
     1
102
RTVSPropertyOp25
 70
     1
102
RTVSPropertyOp26
 70
     1
102
RTVSPropertyOp27
 70
     1
  0
XRECORD
  5
104
102
{ACAD_REACTORS
330
103
102
}
330
103
100
AcDbXrecord
280
     1
102
RTVSPropertyOp0
 70
     1
102
RTVSPropertyOp1
 70
     1
102
RTVSPropertyOp2
 70
     1
102
RTVSPropertyOp3
 70
     1
102
RTVSPropertyOp4
 70
     1
102
RTVSPropertyOp5
 70
     1
102
RTVSPropertyOp6
 70
     1
102
RTVSPropertyOp7
 70
     1
102
RTVSPropertyOp8
 70
     1
102
RTVSPropertyOp9
 70
     1
102
RTVSPropertyOp10
 70
     1
102
RTVSPropertyOp11
 70
     1
102
RTVSPropertyOp12
 70
     1
102
RTVSPropertyOp13
 70
     1
102
RTVSPropertyOp14
 70
     1
102
RTVSPropertyOp15
 70
     1
102
RTVSPropertyOp16
 70
     1
102
RTVSPropertyOp17
 70
     1
102
RTVSPropertyOp18
 70
     1
102
RTVSPropertyOp19
 70
     1
102
RTVSPropertyOp20
 70
     1
102
RTVSPropertyOp21
 70
     1
102
RTVSPropertyOp22
 70
     1
102
RTVSPropertyOp23
 70
     1
102
RTVSPropertyOp24
 70
     1
102
RTVSPropertyOp25
 70
     1
102
RTVSPropertyOp26
 70
     1
102
RTVSPropertyOp27
 70
     1
  0
XRECORD
  5
106
102
{ACAD_REACTORS
330
105
102
}
330
105
100
AcDbXrecord
280
     1
102
RTVSPropertyOp0
 70
     1
102
RTVSPropertyOp1
 70
     1
102
RTVSPropertyOp2
 70
     1
102
RTVSPropertyOp3
 70
     1
102
RTVSPropertyOp4
 70
     1
102
RTVSPropertyOp5
 70
     1
102
RTVSPropertyOp6
 70
     1
102
RTVSPropertyOp7
 70
     1
102
RTVSPropertyOp8
 70
     1
102
RTVSPropertyOp9
 70
     1
102
RTVSPropertyOp10
 70
     1
102
RTVSPropertyOp11
 70
     1
102
RTVSPropertyOp12
 70
     1
102
RTVSPropertyOp13
 70
     1
102
RTVSPropertyOp14
 70
     1
102
RTVSPropertyOp15
 70
     1
102
RTVSPropertyOp16
 70
     1
102
RTVSPropertyOp17
 70
     1
102
RTVSPropertyOp18
 70
     1
102
RTVSPropertyOp19
 70
     1
102
RTVSPropertyOp20
 70
     1
102
RTVSPropertyOp21
 70
     1
102
RTVSPropertyOp22
 70
     1
102
RTVSPropertyOp23
 70
     1
102
RTVSPropertyOp24
 70
     1
102
RTVSPropertyOp25
 70
     1
102
RTVSPropertyOp26
 70
     1
102
RTVSPropertyOp27
 70
     1
  0
XRECORD
  5
108
102
{ACAD_REACTORS
330
107
102
}
330
107
100
AcDbXrecord
280
     1
102
RTVSPropertyOp0
 70
     1
102
RTVSPropertyOp1
 70
     1
102
RTVSPropertyOp2
 70
     1
102
RTVSPropertyOp3
 70
     1
102
RTVSPropertyOp4
 70
     1
102
RTVSPropertyOp5
 70
     1
102
RTVSPropertyOp6
 70
     1
102
RTVSPropertyOp7
 70
     1
102
RTVSPropertyOp8
 70
     1
102
RTVSPropertyOp9
 70
     1
102
RTVSPropertyOp10
 70
     1
102
RTVSPropertyOp11
 70
     1
102
RTVSPropertyOp12
 70
     1
102
RTVSPropertyOp13
 70
     1
102
RTVSPropertyOp14
 70
     1
102
RTVSPropertyOp15
 70
     1
102
RTVSPropertyOp16
 70
     1
102
RTVSPropertyOp17
 70
     1
102
RTVSPropertyOp18
 70
     1
102
RTVSPropertyOp19
 70
     1
102
RTVSPropertyOp20
 70
     1
102
RTVSPropertyOp21
 70
     1
102
RTVSPropertyOp22
 70
     1
102
RTVSPropertyOp23
 70
     1
102
RTVSPropertyOp24
 70
     1
102
RTVSPropertyOp25
 70
     1
102
RTVSPropertyOp26
 70
     1
102
RTVSPropertyOp27
 70
     1
  0
XRECORD
  5
10A
102
{ACAD_REACTORS
330
109
102
}
330
109
100
AcDbXrecord
280
     1
102
RTVSPropertyOp0
 70
     1
102
RTVSPropertyOp1
 70
     1
102
RTVSPropertyOp2
 70
     1
102
RTVSPropertyOp3
 70
     1
102
RTVSPropertyOp4
 70
     1
102
RTVSPropertyOp5
 70
     1
102
RTVSPropertyOp6
 70
     1
102
RTVSPropertyOp7
 70
     1
102
RTVSPropertyOp8
 70
     1
102
RTVSPropertyOp9
 70
     1
102
RTVSPropertyOp10
 70
     1
102
RTVSPropertyOp11
 70
     1
102
RTVSPropertyOp12
 70
     1
102
RTVSPropertyOp13
 70
     1
102
RTVSPropertyOp14
 70
     1
102
RTVSPropertyOp15
 70
     1
102
RTVSPropertyOp16
 70
     1
102
RTVSPropertyOp17
 70
     1
102
RTVSPropertyOp18
 70
     1
102
RTVSPropertyOp19
 70
     1
102
RTVSPropertyOp20
 70
     1
102
RTVSPropertyOp21
 70
     1
102
RTVSPropertyOp22
 70
     1
102
RTVSPropertyOp23
 70
     1
102
RTVSPropertyOp24
 70
     1
102
RTVSPropertyOp25
 70
     1
102
RTVSPropertyOp26
 70
     1
102
RTVSPropertyOp27
 70
     1
  0
XRECORD
  5
11E
102
{ACAD_REACTORS
330
11D
102
}
330
11D
100
AcDbXrecord
280
     1
102
RTVSPropertyOp0
 70
     1
102
RTVSPropertyOp1
 70
     1
102
RTVSPropertyOp2
 70
     1
102
RTVSPropertyOp3
 70
     1
102
RTVSPropertyOp4
 70
     1
102
RTVSPropertyOp5
 70
     1
102
RTVSPropertyOp6
 70
     1
102
RTVSPropertyOp7
 70
     1
102
RTVSPropertyOp8
 70
     1
102
RTVSPropertyOp9
 70
     1
102
RTVSPropertyOp10
 70
     1
102
RTVSPropertyOp11
 70
     1
102
RTVSPropertyOp12
 70
     1
102
RTVSPropertyOp13
 70
     1
102
RTVSPropertyOp14
 70
     1
102
RTVSPropertyOp15
 70
     1
102
RTVSPropertyOp16
 70
     1
102
RTVSPropertyOp17
 70
     1
102
RTVSPropertyOp18
 70
     1
102
RTVSPropertyOp19
 70
     1
102
RTVSPropertyOp20
 70
     1
102
RTVSPropertyOp21
 70
     1
102
RTVSPropertyOp22
 70
     1
102
RTVSPropertyOp23
 70
     1
102
RTVSPropertyOp24
 70
     1
102
RTVSPropertyOp25
 70
     1
102
RTVSPropertyOp26
 70
     1
102
RTVSPropertyOp27
 70
     1
  0
XRECORD
  5
114
102
{ACAD_REACTORS
330
113
102
}
330
113
100
AcDbXrecord
280
     1
102
RTVSPropertyOp0
 70
     1
102
RTVSPropertyOp1
 70
     1
102
RTVSPropertyOp2
 70
     1
102
RTVSPropertyOp3
 70
     1
102
RTVSPropertyOp4
 70
     1
102
RTVSPropertyOp5
 70
     1
102
RTVSPropertyOp6
 70
     1
102
RTVSPropertyOp7
 70
     1
102
RTVSPropertyOp8
 70
     1
102
RTVSPropertyOp9
 70
     1
102
RTVSPropertyOp10
 70
     1
102
RTVSPropertyOp11
 70
     1
102
RTVSPropertyOp12
 70
     1
102
RTVSPropertyOp13
 70
     1
102
RTVSPropertyOp14
 70
     1
102
RTVSPropertyOp15
 70
     1
102
RTVSPropertyOp16
 70
     1
102
RTVSPropertyOp17
 70
     1
102
RTVSPropertyOp18
 70
     1
102
RTVSPropertyOp19
 70
     1
102
RTVSPropertyOp20
 70
     1
102
RTVSPropertyOp21
 70
     1
102
RTVSPropertyOp22
 70
     1
102
RTVSPropertyOp23
 70
     1
102
RTVSPropertyOp24
 70
     1
102
RTVSPropertyOp25
 70
     1
102
RTVSPropertyOp26
 70
     1
102
RTVSPropertyOp27
 70
     1
  0
XRECORD
  5
11C
102
{ACAD_REACTORS
330
11B
102
}
330
11B
100
AcDbXrecord
280
     1
102
RTVSPropertyOp0
 70
     1
102
RTVSPropertyOp1
 70
     1
102
RTVSPropertyOp2
 70
     1
102
RTVSPropertyOp3
 70
     1
102
RTVSPropertyOp4
 70
     1
102
RTVSPropertyOp5
 70
     1
102
RTVSPropertyOp6
 70
     1
102
RTVSPropertyOp7
 70
     1
102
RTVSPropertyOp8
 70
     1
102
RTVSPropertyOp9
 70
     1
102
RTVSPropertyOp10
 70
     1
102
RTVSPropertyOp11
 70
     1
102
RTVSPropertyOp12
 70
     1
102
RTVSPropertyOp13
 70
     1
102
RTVSPropertyOp14
 70
     1
102
RTVSPropertyOp15
 70
     1
102
RTVSPropertyOp16
 70
     1
102
RTVSPropertyOp17
 70
     1
102
RTVSPropertyOp18
 70
     1
102
RTVSPropertyOp19
 70
     1
102
RTVSPropertyOp20
 70
     1
102
RTVSPropertyOp21
 70
     1
102
RTVSPropertyOp22
 70
     1
102
RTVSPropertyOp23
 70
     1
102
RTVSPropertyOp24
 70
     1
102
RTVSPropertyOp25
 70
     1
102
RTVSPropertyOp26
 70
     1
102
RTVSPropertyOp27
 70
     1
  0
ENDSEC
  0
EOF
