  0
SECTION
  2
HEADER
  9
$ACADVER
  1
AC1015
  9
$ACADMAINTVER
 70
     6
  9
$DWGCODEPAGE
  3
ANSI_1250
  9
$INSBASE
 10
0.0
 20
0.0
 30
0.0
  9
$EXTMIN
 10
-17.8121
 20
-23.4262
 30
0.0
  9
$EXTMAX
 10
17.6786
 20
23.3725
 30
0.0
  9
$LIMMIN
 10
0.0
 20
0.0
  9
$LIMMAX
 10
12.0
 20
9.0
  9
$ORTHOMODE
 70
     0
  9
$REGENMODE
 70
     1
  9
$FILLMODE
 70
     1
  9
$QTEXTMODE
 70
     0
  9
$MIRRTEXT
 70
     1
  9
$LTSCALE
 40
1.0
  9
$ATTMODE
 70
     1
  9
$TEXTSIZE
 40
0.2
  9
$TRACEWID
 40
0.05
  9
$TEXTSTYLE
  7
Standard
  9
$CLAYER
  8
0
  9
$CELTYPE
  6
ByLayer
  9
$CECOLOR
 62
   256
  9
$CELTSCALE
 40
1.0
  9
$DISPSILH
 70
     0
  9
$DIMSCALE
 40
1.0
  9
$DIMASZ
 40
0.18
  9
$DIMEXO
 40
0.0625
  9
$DIMDLI
 40
0.38
  9
$DIMRND
 40
0.0
  9
$DIMDLE
 40
0.0
  9
$DIMEXE
 40
0.18
  9
$DIMTP
 40
0.0
  9
$DIMTM
 40
0.0
  9
$DIMTXT
 40
0.18
  9
$DIMCEN
 40
0.09
  9
$DIMTSZ
 40
0.0
  9
$DIMTOL
 70
     0
  9
$DIMLIM
 70
     0
  9
$DIMTIH
 70
     1
  9
$DIMTOH
 70
     1
  9
$DIMSE1
 70
     0
  9
$DIMSE2
 70
     0
  9
$DIMTAD
 70
     0
  9
$DIMZIN
 70
     0
  9
$DIMBLK
  1

  9
$DIMASO
 70
     1
  9
$DIMSHO
 70
     1
  9
$DIMPOST
  1

  9
$DIMAPOST
  1

  9
$DIMALT
 70
     0
  9
$DIMALTD
 70
     2
  9
$DIMALTF
 40
25.4
  9
$DIMLFAC
 40
1.0
  9
$DIMTOFL
 70
     0
  9
$DIMTVP
 40
0.0
  9
$DIMTIX
 70
     0
  9
$DIMSOXD
 70
     0
  9
$DIMSAH
 70
     0
  9
$DIMBLK1
  1

  9
$DIMBLK2
  1

  9
$DIMSTYLE
  2
Standard
  9
$DIMCLRD
 70
     0
  9
$DIMCLRE
 70
     0
  9
$DIMCLRT
 70
     0
  9
$DIMTFAC
 40
1.0
  9
$DIMGAP
 40
0.09
  9
$DIMJUST
 70
     0
  9
$DIMSD1
 70
     0
  9
$DIMSD2
 70
     0
  9
$DIMTOLJ
 70
     1
  9
$DIMTZIN
 70
     0
  9
$DIMALTZ
 70
     0
  9
$DIMALTTZ
 70
     0
  9
$DIMUPT
 70
     0
  9
$DIMDEC
 70
     4
  9
$DIMTDEC
 70
     4
  9
$DIMALTU
 70
     2
  9
$DIMALTTD
 70
     2
  9
$DIMTXSTY
  7
Standard
  9
$DIMAUNIT
 70
     0
  9
$DIMADEC
 70
     0
  9
$DIMALTRND
 40
0.0
  9
$DIMAZIN
 70
     0
  9
$DIMDSEP
 70
    46
  9
$DIMATFIT
 70
     3
  9
$DIMFRAC
 70
     0
  9
$DIMLDRBLK
  1

  9
$DIMLUNIT
 70
     2
  9
$DIMLWD
 70
    -2
  9
$DIMLWE
 70
    -2
  9
$DIMTMOVE
 70
     0
  9
$LUNITS
 70
     2
  9
$LUPREC
 70
     4
  9
$SKETCHINC
 40
0.1
  9
$FILLETRAD
 40
0.5
  9
$AUNITS
 70
     0
  9
$AUPREC
 70
     0
  9
$MENU
  1
.
  9
$ELEVATION
 40
0.0
  9
$PELEVATION
 40
0.0
  9
$THICKNESS
 40
0.0
  9
$LIMCHECK
 70
     0
  9
$CHAMFERA
 40
0.5
  9
$CHAMFERB
 40
0.5
  9
$CHAMFERC
 40
1.0
  9
$CHAMFERD
 40
0.0
  9
$SKPOLY
 70
     0
  9
$TDCREATE
 40
2457637.367202234
  9
$TDUCREATE
 40
2457637.283868901
  9
$TDUPDATE
 40
2457637.367202245
  9
$TDUUPDATE
 40
2457637.283868912
  9
$TDINDWG
 40
0.0000000116
  9
$TDUSRTIMER
 40
0.0000000116
  9
$USRTIMER
 70
     1
  9
$ANGBASE
 50
0.0
  9
$ANGDIR
 70
     0
  9
$PDMODE
 70
     0
  9
$PDSIZE
 40
0.0
  9
$PLINEWID
 40
0.0
  9
$SPLFRAME
 70
     0
  9
$SPLINETYPE
 70
     6
  9
$SPLINESEGS
 70
     8
  9
$HANDSEED
  5
120
  9
$SURFTAB1
 70
     6
  9
$SURFTAB2
 70
     6
  9
$SURFTYPE
 70
     6
  9
$SURFU
 70
     6
  9
$SURFV
 70
     6
  9
$UCSBASE
  2

  9
$UCSNAME
  2

  9
$UCSORG
 10
0.0
 20
0.0
 30
0.0
  9
$UCSXDIR
 10
1.0
 20
0.0
 30
0.0
  9
$UCSYDIR
 10
0.0
 20
1.0
 30
0.0
  9
$UCSORTHOREF
  2

  9
$UCSORTHOVIEW
 70
     0
  9
$UCSORGTOP
 10
0.0
 20
0.0
 30
0.0
  9
$UCSORGBOTTOM
 10
0.0
 20
0.0
 30
0.0
  9
$UCSORGLEFT
 10
0.0
 20
0.0
 30
0.0
  9
$UCSORGRIGHT
 10
0.0
 20
0.0
 30
0.0
  9
$UCSORGFRONT
 10
0.0
 20
0.0
 30
0.0
  9
$UCSORGBACK
 10
0.0
 20
0.0
 30
0.0
  9
$PUCSBASE
  2

  9
$PUCSNAME
  2

  9
$PUCSORG
 10
0.0
 20
0.0
 30
0.0
  9
$PUCSXDIR
 10
1.0
 20
0.0
 30
0.0
  9
$PUCSYDIR
 10
0.0
 20
1.0
 30
0.0
  9
$PUCSORTHOREF
  2

  9
$PUCSORTHOVIEW
 70
     0
  9
$PUCSORGTOP
 10
0.0
 20
0.0
 30
0.0
  9
$PUCSORGBOTTOM
 10
0.0
 20
0.0
 30
0.0
  9
$PUCSORGLEFT
 10
0.0
 20
0.0
 30
0.0
  9
$PUCSORGRIGHT
 10
0.0
 20
0.0
 30
0.0
  9
$PUCSORGFRONT
 10
0.0
 20
0.0
 30
0.0
  9
$PUCSORGBACK
 10
0.0
 20
0.0
 30
0.0
  9
$USERI1
 70
     0
  9
$USERI2
 70
     0
  9
$USERI3
 70
     0
  9
$USERI4
 70
     0
  9
$USERI5
 70
     0
  9
$USERR1
 40
0.0
  9
$USERR2
 40
0.0
  9
$USERR3
 40
0.0
  9
$USERR4
 40
0.0
  9
$USERR5
 40
0.0
  9
$WORLDVIEW
 70
     1
  9
$SHADEDGE
 70
     3
  9
$SHADEDIF
 70
    70
  9
$TILEMODE
 70
     1
  9
$MAXACTVP
 70
    64
  9
$PINSBASE
 10
0.0
 20
0.0
 30
0.0
  9
$PLIMCHECK
 70
     0
  9
$PEXTMIN
 10
1.000000000000000E+20
 20
1.000000000000000E+20
 30
1.000000000000000E+20
  9
$PEXTMAX
 10
-1.000000000000000E+20
 20
-1.000000000000000E+20
 30
-1.000000000000000E+20
  9
$PLIMMIN
 10
0.0
 20
0.0
  9
$PLIMMAX
 10
12.0
 20
9.0
  9
$UNITMODE
 70
     0
  9
$VISRETAIN
 70
     1
  9
$PLINEGEN
 70
     0
  9
$PSLTSCALE
 70
     1
  9
$TREEDEPTH
 70
  3020
  9
$CMLSTYLE
  2
Standard
  9
$CMLJUST
 70
     0
  9
$CMLSCALE
 40
1.0
  9
$PROXYGRAPHICS
 70
     1
  9
$MEASUREMENT
 70
     0
  9
$CELWEIGHT
370
    -1
  9
$ENDCAPS
280
     0
  9
$JOINSTYLE
280
     0
  9
$LWDISPLAY
290
     0
  9
$INSUNITS
 70
     4
  9
$HYPERLINKBASE
  1

  9
$STYLESHEET
  1

  9
$XEDIT
290
     1
  9
$CEPSNTYPE
380
     0
  9
$PSTYLEMODE
290
     1
  9
$FINGERPRINTGUID
  2
{5B9B8234-797F-4702-B153-C6E4BED15F4F}
  9
$VERSIONGUID
  2
{FAEB1C32-E019-11D5-929B-00C0DF256EC4}
  9
$EXTNAMES
290
     1
  9
$PSVPSCALE
 40
0.0
  9
$OLESTARTUP
290
     0
  0
ENDSEC
  0
SECTION
  2
CLASSES
  0
CLASS
  1
ACDBDICTIONARYWDFLT
  2
AcDbDictionaryWithDefault
  3
ObjectDBX Classes
 90
        0
280
     0
281
     0
  0
CLASS
  1
VISUALSTYLE
  2
AcDbVisualStyle
  3
ObjectDBX Classes
 90
     4095
280
     0
281
     0
  0
CLASS
  1
MATERIAL
  2
AcDbMaterial
  3
ObjectDBX Classes
 90
     1153
280
     0
281
     0
  0
CLASS
  1
DICTIONARYVAR
  2
AcDbDictionaryVar
  3
ObjectDBX Classes
 90
        0
280
     0
281
     0
  0
CLASS
  1
ACDBPLACEHOLDER
  2
AcDbPlaceHolder
  3
ObjectDBX Classes
 90
        0
280
     0
281
     0
  0
CLASS
  1
LAYOUT
  2
AcDbLayout
  3
ObjectDBX Classes
 90
        0
280
     0
281
     0
  0
ENDSEC
  0
SECTION
  2
TABLES
  0
TABLE
  2
VPORT
  5
8
330
0
100
AcDbSymbolTable
 70
     1
  0
VPORT
  5
29
330
8
100
AcDbSymbolTableRecord
100
AcDbViewportTableRecord
  2
*Active
 70
     0
 10
0.0
 20
0.0
 11
1.0
 21
1.0
 12
10.42990654205607
 22
4.5
 13
0.0
 23
0.0
 14
0.5
 24
0.5
 15
0.5
 25
0.5
 16
0.0
 26
0.0
 36
1.0
 17
0.0
 27
0.0
 37
0.0
 40
9.0
 41
1.972972972850329
 42
50.0
 43
0.0
 44
0.0
 50
0.0
 51
0.0
 71
     0
 72
   100
 73
     1
 74
     3
 75
     0
 76
     0
 77
     0
 78
     0
281
     0
 65
     1
110
0.0
120
0.0
130
0.0
111
1.0
121
0.0
131
0.0
112
0.0
122
1.0
132
0.0
 79
     0
146
0.0
  0
ENDTAB
  0
TABLE
  2
LTYPE
  5
5
330
0
100
AcDbSymbolTable
 70
     2
  0
LTYPE
  5
14
330
5
100
AcDbSymbolTableRecord
100
AcDbLinetypeTableRecord
  2
ByBlock
 70
     0
  3

 72
    65
 73
     0
 40
0.0
  0
LTYPE
  5
15
330
5
100
AcDbSymbolTableRecord
100
AcDbLinetypeTableRecord
  2
ByLayer
 70
     0
  3

 72
    65
 73
     0
 40
0.0
  0
LTYPE
  5
16
330
5
100
AcDbSymbolTableRecord
100
AcDbLinetypeTableRecord
  2
Continuous
 70
     0
  3
Solid line
 72
    65
 73
     0
 40
0.0
  0
LTYPE
  5
C9
330
5
100
AcDbSymbolTableRecord
100
AcDbLinetypeTableRecord
  2
New Line1
 70
     0
  3

 72
    65
 73
     4
 40
1.2
 49
0.5
 74
     4
 75
     0
340
0
 46
1.0
 50
0.0
 44
0.0
 45
0.0
 49
-0.3
 74
     4
 75
     0
340
0
 46
1.0
 50
0.0
 44
0.0
 45
0.0
 49
0.1
 74
     4
 75
     0
340
0
 46
1.0
 50
0.0
 44
0.0
 45
0.0
 49
-0.3
 74
     4
 75
     0
340
0
 46
1.0
 50
0.0
 44
0.0
 45
0.0
  0
ENDTAB
  0
TABLE
  2
LAYER
  5
2
330
0
100
AcDbSymbolTable
 70
     2
  0
LAYER
  5
10
330
2
100
AcDbSymbolTableRecord
100
AcDbLayerTableRecord
  2
0
 70
     0
 62
     7
  6
Continuous
370
    -3
390
F
  0
LAYER
  5
40
330
2
100
AcDbSymbolTableRecord
100
AcDbLayerTableRecord
  2
Ilustrace
 70
     0
 62
     7
  6
Continuous
370
    -3
390
F
  0
ENDTAB
  0
TABLE
  2
STYLE
  5
3
330
0
100
AcDbSymbolTable
 70
     1
  0
STYLE
  5
11
330
3
100
AcDbSymbolTableRecord
100
AcDbTextStyleTableRecord
  2
Standard
 70
     0
 40
0.0
 41
1.0
 50
0.0
 71
     0
 42
0.2
  3
txt
  4

  0
ENDTAB
  0
TABLE
  2
VIEW
  5
6
330
0
100
AcDbSymbolTable
 70
     0
  0
ENDTAB
  0
TABLE
  2
UCS
  5
7
330
0
100
AcDbSymbolTable
 70
     0
  0
ENDTAB
  0
TABLE
  2
APPID
  5
9
330
0
100
AcDbSymbolTable
 70
     2
  0
APPID
  5
12
330
9
100
AcDbSymbolTableRecord
100
AcDbRegAppTableRecord
  2
ACAD
 70
     0
  0
APPID
  5
3F
330
9
100
AcDbSymbolTableRecord
100
AcDbRegAppTableRecord
  2
ODA
 70
     0
  0
ENDTAB
  0
TABLE
  2
DIMSTYLE
  5
A
330
0
100
AcDbSymbolTable
 70
     1
100
AcDbDimStyleTable
  0
DIMSTYLE
105
27
330
A
100
AcDbSymbolTableRecord
100
AcDbDimStyleTableRecord
  2
Standard
 70
     0
340
11
  0
ENDTAB
  0
TABLE
  2
BLOCK_RECORD
  5
1
330
0
100
AcDbSymbolTable
 70
     1
  0
BLOCK_RECORD
  5
1F
330
1
100
AcDbSymbolTableRecord
100
AcDbBlockTableRecord
  2
*Model_Space
340
22
  0
BLOCK_RECORD
  5
1B
330
1
100
AcDbSymbolTableRecord
100
AcDbBlockTableRecord
  2
*Paper_Space
340
1E
  0
BLOCK_RECORD
  5
23
330
1
100
AcDbSymbolTableRecord
100
AcDbBlockTableRecord
  2
*Paper_Space0
340
26
  0
ENDTAB
  0
ENDSEC
  0
SECTION
  2
BLOCKS
  0
BLOCK
  5
20
330
1F
100
AcDbEntity
  8
0
100
AcDbBlockBegin
  2
*Model_Space
 70
     0
 10
0.0
 20
0.0
 30
0.0
  3
*Model_Space
  1

  0
ENDBLK
  5
21
330
1F
100
AcDbEntity
  8
0
100
AcDbBlockEnd
  0
BLOCK
  5
1C
330
1B
100
AcDbEntity
 67
     1
  8
0
100
AcDbBlockBegin
  2
*Paper_Space
 70
     0
 10
0.0
 20
0.0
 30
0.0
  3
*Paper_Space
  1

  0
ENDBLK
  5
1D
330
1B
100
AcDbEntity
 67
     1
  8
0
100
AcDbBlockEnd
  0
BLOCK
  5
24
330
23
100
AcDbEntity
  8
0
100
AcDbBlockBegin
  2
*Paper_Space0
 70
     0
 10
0.0
 20
0.0
 30
0.0
  3
*Paper_Space0
  1

  0
ENDBLK
  5
25
330
23
100
AcDbEntity
  8
0
100
AcDbBlockEnd
  0
ENDSEC
  0
SECTION
  2
ENTITIES
  0
SPLINE
  5
41
330
1F
100
AcDbEntity
  8
Ilustrace
 62
   250
370
    30
100
AcDbSpline
210
0.0
220
0.0
230
1.0
 70
    24
 71
     3
 72
     8
 73
     4
 74
     0
 42
0.0000000001
 43
0.0000000001
 40
0.0
 40
0.0
 40
0.0
 40
0.0
 40
1.0
 40
1.0
 40
1.0
 40
1.0
 10
2.7598
 20
1.8624
 30
0.0
 10
2.7598
 20
1.8624
 30
0.0
 10
-13.3968
 20
1.8624
 30
0.0
 10
-13.3968
 20
1.8624
 30
0.0
  0
SPLINE
  5
42
330
1F
100
AcDbEntity
  8
Ilustrace
 62
   250
370
    30
100
AcDbSpline
210
0.0
220
0.0
230
1.0
 70
    24
 71
     3
 72
     8
 73
     4
 74
     0
 42
0.0000000001
 43
0.0000000001
 40
0.0
 40
0.0
 40
0.0
 40
0.0
 40
1.0
 40
1.0
 40
1.0
 40
1.0
 10
4.4082
 20
3.1536
 30
0.0
 10
4.4082
 20
3.1536
 30
0.0
 10
-15.0452
 20
3.1536
 30
0.0
 10
-15.0452
 20
3.1536
 30
0.0
  0
SPLINE
  5
43
330
1F
100
AcDbEntity
  8
Ilustrace
 62
   250
370
    30
100
AcDbSpline
210
0.0
220
0.0
230
1.0
 70
    24
 71
     3
 72
     8
 73
     4
 74
     0
 42
0.0000000001
 43
0.0000000001
 40
0.0
 40
0.0
 40
0.0
 40
0.0
 40
1.0
 40
1.0
 40
1.0
 40
1.0
 10
5.1832
 20
4.4286
 30
0.0
 10
5.1832
 20
4.4286
 30
0.0
 10
-15.8203
 20
4.4286
 30
0.0
 10
-15.8203
 20
4.4286
 30
0.0
  0
SPLINE
  5
44
330
1F
100
AcDbEntity
  8
Ilustrace
 62
   250
370
    30
100
AcDbSpline
210
0.0
220
0.0
230
1.0
 70
    24
 71
     3
 72
     8
 73
     4
 74
     0
 42
0.0000000001
 43
0.0000000001
 40
0.0
 40
0.0
 40
0.0
 40
0.0
 40
1.0
 40
1.0
 40
1.0
 40
1.0
 10
-16.8974
 20
8.6717
 30
0.0
 10
-16.8974
 20
8.6717
 30
0.0
 10
6.2604
 20
8.6717
 30
0.0
 10
6.2604
 20
8.6717
 30
0.0
  0
SPLINE
  5
45
330
1F
100
AcDbEntity
  8
Ilustrace
 62
   250
370
    30
100
AcDbSpline
210
0.0
220
0.0
230
1.0
 70
    24
 71
     3
 72
     8
 73
     4
 74
     0
 42
0.0000000001
 43
0.0000000001
 40
0.0
 40
0.0
 40
0.0
 40
0.0
 40
1.0
 40
1.0
 40
1.0
 40
1.0
 10
5.1832
 20
7.5316
 30
0.0
 10
5.1832
 20
7.5316
 30
0.0
 10
-15.8203
 20
7.5316
 30
0.0
 10
-15.8203
 20
7.5316
 30
0.0
  0
SPLINE
  5
46
330
1F
100
AcDbEntity
  8
Ilustrace
 62
   250
370
    30
100
AcDbSpline
210
0.0
220
0.0
230
1.0
 70
    24
 71
     3
 72
    12
 73
     8
 74
     0
 42
0.0000000001
 43
0.0000000001
 40
0.0
 40
0.0
 40
0.0
 40
0.0
 40
0.3333333333333333
 40
0.3333333333333333
 40
0.3333333333333333
 40
0.3333333333333333
 40
1.0
 40
1.0
 40
1.0
 40
1.0
 10
-13.3968
 20
-3.2751
 30
0.0
 10
-13.3968
 20
-3.2751
 30
0.0
 10
-13.3968
 20
-2.9161
 30
0.0
 10
-13.3968
 20
-2.9161
 30
0.0
 10
-13.3968
 20
-2.9161
 30
0.0
 10
-13.3968
 20
-2.9161
 30
0.0
 10
-13.3968
 20
1.5032
 30
0.0
 10
-13.3968
 20
1.5032
 30
0.0
  0
SPLINE
  5
47
330
1F
100
AcDbEntity
  8
Ilustrace
 62
   250
370
    30
100
AcDbSpline
210
0.0
220
0.0
230
1.0
 70
     8
 71
     3
 72
    12
 73
     8
 74
     0
 42
0.0000000001
 43
0.0000000001
 40
0.0
 40
0.0
 40
0.0
 40
0.0
 40
0.3333333333333333
 40
0.3333333333333333
 40
0.3333333333333333
 40
0.3333333333333333
 40
1.0
 40
1.0
 40
1.0
 40
1.0
 10
-13.3968
 20
1.5032
 30
0.0
 10
-13.3968
 20
1.6931
 30
0.0
 10
-13.3716
 20
1.9118
 30
0.0
 10
-13.4369
 20
2.0992
 30
0.0
 10
-13.4369
 20
2.0992
 30
0.0
 10
-13.5465
 20
2.4127
 30
0.0
 10
-13.826
 20
2.5214
 30
0.0
 10
-14.103
 20
2.6651
 30
0.0
  0
SPLINE
  5
48
330
1F
100
AcDbEntity
  8
Ilustrace
 62
   250
370
    30
100
AcDbSpline
210
0.0
220
0.0
230
1.0
 70
     8
 71
     3
 72
    16
 73
    12
 74
     0
 42
0.0000000001
 43
0.0000000001
 40
0.0
 40
0.0
 40
0.0
 40
0.0
 40
0.25
 40
0.25
 40
0.25
 40
0.25
 40
0.5
 40
0.5
 40
0.5
 40
0.5
 40
1.0
 40
1.0
 40
1.0
 40
1.0
 10
-14.103
 20
2.6651
 30
0.0
 10
-14.103
 20
2.6651
 30
0.0
 10
-14.7264
 20
2.9883
 30
0.0
 10
-14.7264
 20
2.9883
 30
0.0
 10
-14.7264
 20
2.9883
 30
0.0
 10
-14.7264
 20
2.9883
 30
0.0
 10
-15.0452
 20
3.1536
 30
0.0
 10
-15.0452
 20
3.1536
 30
0.0
 10
-15.0452
 20
3.1536
 30
0.0
 10
-15.0452
 20
3.1536
 30
0.0
 10
-15.1499
 20
3.2136
 30
0.0
 10
-15.1499
 20
3.2136
 30
0.0
  0
SPLINE
  5
49
330
1F
100
AcDbEntity
  8
Ilustrace
 62
   250
370
    30
100
AcDbSpline
210
0.0
220
0.0
230
1.0
 70
     8
 71
     3
 72
    12
 73
     8
 74
     0
 42
0.0000000001
 43
0.0000000001
 40
0.0
 40
0.0
 40
0.0
 40
0.0
 40
0.3333333333333333
 40
0.3333333333333333
 40
0.3333333333333333
 40
0.3333333333333333
 40
1.0
 40
1.0
 40
1.0
 40
1.0
 10
-15.1499
 20
3.2136
 30
0.0
 10
-15.3544
 20
3.3425
 30
0.0
 10
-15.5248
 20
3.5231
 30
0.0
 10
-15.6415
 20
3.7347
 30
0.0
 10
-15.6415
 20
3.7347
 30
0.0
 10
-15.7388
 20
3.9109
 30
0.0
 10
-15.7983
 20
4.1074
 30
0.0
 10
-15.8151
 20
4.308
 30
0.0
  0
SPLINE
  5
4A
330
1F
100
AcDbEntity
  8
Ilustrace
 62
   250
370
    30
100
AcDbSpline
210
0.0
220
0.0
230
1.0
 70
     8
 71
     3
 72
    24
 73
    20
 74
     0
 42
0.0000000001
 43
0.0000000001
 40
0.0
 40
0.0
 40
0.0
 40
0.0
 40
0.1666666666666667
 40
0.1666666666666667
 40
0.1666666666666667
 40
0.1666666666666667
 40
0.3333333333333333
 40
0.3333333333333333
 40
0.3333333333333333
 40
0.3333333333333333
 40
0.5
 40
0.5
 40
0.5
 40
0.5
 40
0.6666666666666666
 40
0.6666666666666666
 40
0.6666666666666666
 40
0.6666666666666666
 40
1.0
 40
1.0
 40
1.0
 40
1.0
 10
-15.8151
 20
4.308
 30
0.0
 10
-15.8151
 20
4.308
 30
0.0
 10
-15.8203
 20
4.4286
 30
0.0
 10
-15.8203
 20
4.4286
 30
0.0
 10
-15.8203
 20
4.4286
 30
0.0
 10
-15.8203
 20
4.4286
 30
0.0
 10
-15.8203
 20
4.7876
 30
0.0
 10
-15.8203
 20
4.7876
 30
0.0
 10
-15.8203
 20
4.7876
 30
0.0
 10
-15.8203
 20
4.7876
 30
0.0
 10
-15.8203
 20
7.1726
 30
0.0
 10
-15.8203
 20
7.1726
 30
0.0
 10
-15.8203
 20
7.1726
 30
0.0
 10
-15.8203
 20
7.1726
 30
0.0
 10
-15.8203
 20
7.5316
 30
0.0
 10
-15.8203
 20
7.5316
 30
0.0
 10
-15.8203
 20
7.5316
 30
0.0
 10
-15.8203
 20
7.5316
 30
0.0
 10
-15.8216
 20
7.5629
 30
0.0
 10
-15.8216
 20
7.5629
 30
0.0
  0
SPLINE
  5
4B
330
1F
100
AcDbEntity
  8
Ilustrace
 62
   250
370
    30
100
AcDbSpline
210
0.0
220
0.0
230
1.0
 70
     8
 71
     3
 72
     8
 73
     4
 74
     0
 42
0.0000000001
 43
0.0000000001
 40
0.0
 40
0.0
 40
0.0
 40
0.0
 40
1.0
 40
1.0
 40
1.0
 40
1.0
 10
-15.8216
 20
7.5629
 30
0.0
 10
-15.8317
 20
7.6789
 30
0.0
 10
-15.8993
 20
7.7842
 30
0.0
 10
-15.9998
 20
7.8426
 30
0.0
  0
SPLINE
  5
4C
330
1F
100
AcDbEntity
  8
Ilustrace
 62
   250
370
    30
100
AcDbSpline
210
0.0
220
0.0
230
1.0
 70
    24
 71
     3
 72
     8
 73
     4
 74
     0
 42
0.0000000001
 43
0.0000000001
 40
0.0
 40
0.0
 40
0.0
 40
0.0
 40
1.0
 40
1.0
 40
1.0
 40
1.0
 10
-15.9998
 20
7.8426
 30
0.0
 10
-15.9998
 20
7.8426
 30
0.0
 10
-16.3172
 20
8.0258
 30
0.0
 10
-16.3172
 20
8.0258
 30
0.0
  0
SPLINE
  5
4D
330
1F
100
AcDbEntity
  8
Ilustrace
 62
   250
370
    30
100
AcDbSpline
210
0.0
220
0.0
230
1.0
 70
     8
 71
     3
 72
    12
 73
     8
 74
     0
 42
0.0000000001
 43
0.0000000001
 40
0.0
 40
0.0
 40
0.0
 40
0.0
 40
0.3333333333333333
 40
0.3333333333333333
 40
0.3333333333333333
 40
0.3333333333333333
 40
1.0
 40
1.0
 40
1.0
 40
1.0
 10
-16.3172
 20
8.0258
 30
0.0
 10
-16.4749
 20
8.1169
 30
0.0
 10
-16.6875
 20
8.2022
 30
0.0
 10
-16.7999
 20
8.3628
 30
0.0
 10
-16.7999
 20
8.3628
 30
0.0
 10
-16.937
 20
8.5587
 30
0.0
 10
-16.8974
 20
8.8057
 30
0.0
 10
-16.8974
 20
9.0307
 30
0.0
  0
SPLINE
  5
4E
330
1F
100
AcDbEntity
  8
Ilustrace
 62
   250
370
    30
100
AcDbSpline
210
0.0
220
0.0
230
1.0
 70
    24
 71
     3
 72
    12
 73
     8
 74
     0
 42
0.0000000001
 43
0.0000000001
 40
0.0
 40
0.0
 40
0.0
 40
0.0
 40
0.3333333333333333
 40
0.3333333333333333
 40
0.3333333333333333
 40
0.3333333333333333
 40
1.0
 40
1.0
 40
1.0
 40
1.0
 10
-16.8974
 20
9.0307
 30
0.0
 10
-16.8974
 20
9.0307
 30
0.0
 10
-16.8974
 20
9.6591
 30
0.0
 10
-16.8974
 20
9.6591
 30
0.0
 10
-16.8974
 20
9.6591
 30
0.0
 10
-16.8974
 20
9.6591
 30
0.0
 10
-16.8974
 20
10.018
 30
0.0
 10
-16.8974
 20
10.018
 30
0.0
  0
SPLINE
  5
4F
330
1F
100
AcDbEntity
  8
Ilustrace
 62
   250
370
    30
100
AcDbSpline
210
0.0
220
0.0
230
1.0
 70
    24
 71
     3
 72
    12
 73
     8
 74
     0
 42
0.0000000001
 43
0.0000000001
 40
0.0
 40
0.0
 40
0.0
 40
0.0
 40
0.3333333333333333
 40
0.3333333333333333
 40
0.3333333333333333
 40
0.3333333333333333
 40
1.0
 40
1.0
 40
1.0
 40
1.0
 10
6.2604
 20
10.018
 30
0.0
 10
6.2604
 20
10.018
 30
0.0
 10
6.2604
 20
9.6591
 30
0.0
 10
6.2604
 20
9.6591
 30
0.0
 10
6.2604
 20
9.6591
 30
0.0
 10
6.2604
 20
9.6591
 30
0.0
 10
6.2604
 20
9.0307
 30
0.0
 10
6.2604
 20
9.0307
 30
0.0
  0
SPLINE
  5
50
330
1F
100
AcDbEntity
  8
Ilustrace
 62
   250
370
    30
100
AcDbSpline
210
0.0
220
0.0
230
1.0
 70
     8
 71
     3
 72
    12
 73
     8
 74
     0
 42
0.0000000001
 43
0.0000000001
 40
0.0
 40
0.0
 40
0.0
 40
0.0
 40
0.3333333333333333
 40
0.3333333333333333
 40
0.3333333333333333
 40
0.3333333333333333
 40
1.0
 40
1.0
 40
1.0
 40
1.0
 10
6.2604
 20
9.0307
 30
0.0
 10
6.2604
 20
8.8057
 30
0.0
 10
6.3001
 20
8.5587
 30
0.0
 10
6.163
 20
8.3628
 30
0.0
 10
6.163
 20
8.3628
 30
0.0
 10
6.0505
 20
8.2022
 30
0.0
 10
5.8378
 20
8.1169
 30
0.0
 10
5.6801
 20
8.0258
 30
0.0
  0
SPLINE
  5
51
330
1F
100
AcDbEntity
  8
Ilustrace
 62
   250
370
    30
100
AcDbSpline
210
0.0
220
0.0
230
1.0
 70
    24
 71
     3
 72
     8
 73
     4
 74
     0
 42
0.0000000001
 43
0.0000000001
 40
0.0
 40
0.0
 40
0.0
 40
0.0
 40
1.0
 40
1.0
 40
1.0
 40
1.0
 10
5.6801
 20
8.0258
 30
0.0
 10
5.6801
 20
8.0258
 30
0.0
 10
5.3629
 20
7.8426
 30
0.0
 10
5.3629
 20
7.8426
 30
0.0
  0
SPLINE
  5
52
330
1F
100
AcDbEntity
  8
Ilustrace
 62
   250
370
    30
100
AcDbSpline
210
0.0
220
0.0
230
1.0
 70
     8
 71
     3
 72
     8
 73
     4
 74
     0
 42
0.0000000001
 43
0.0000000001
 40
0.0
 40
0.0
 40
0.0
 40
0.0
 40
1.0
 40
1.0
 40
1.0
 40
1.0
 10
5.3629
 20
7.8426
 30
0.0
 10
5.2623
 20
7.7842
 30
0.0
 10
5.1948
 20
7.6789
 30
0.0
 10
5.1846
 20
7.5629
 30
0.0
  0
SPLINE
  5
53
330
1F
100
AcDbEntity
  8
Ilustrace
 62
   250
370
    30
100
AcDbSpline
210
0.0
220
0.0
230
1.0
 70
     8
 71
     3
 72
    24
 73
    20
 74
     0
 42
0.0000000001
 43
0.0000000001
 40
0.0
 40
0.0
 40
0.0
 40
0.0
 40
0.1666666666666667
 40
0.1666666666666667
 40
0.1666666666666667
 40
0.1666666666666667
 40
0.3333333333333333
 40
0.3333333333333333
 40
0.3333333333333333
 40
0.3333333333333333
 40
0.5
 40
0.5
 40
0.5
 40
0.5
 40
0.6666666666666666
 40
0.6666666666666666
 40
0.6666666666666666
 40
0.6666666666666666
 40
1.0
 40
1.0
 40
1.0
 40
1.0
 10
5.1846
 20
7.5629
 30
0.0
 10
5.1846
 20
7.5629
 30
0.0
 10
5.1832
 20
7.5316
 30
0.0
 10
5.1832
 20
7.5316
 30
0.0
 10
5.1832
 20
7.5316
 30
0.0
 10
5.1832
 20
7.5316
 30
0.0
 10
5.1832
 20
7.1726
 30
0.0
 10
5.1832
 20
7.1726
 30
0.0
 10
5.1832
 20
7.1726
 30
0.0
 10
5.1832
 20
7.1726
 30
0.0
 10
5.1832
 20
4.7876
 30
0.0
 10
5.1832
 20
4.7876
 30
0.0
 10
5.1832
 20
4.7876
 30
0.0
 10
5.1832
 20
4.7876
 30
0.0
 10
5.1832
 20
4.4286
 30
0.0
 10
5.1832
 20
4.4286
 30
0.0
 10
5.1832
 20
4.4286
 30
0.0
 10
5.1832
 20
4.4286
 30
0.0
 10
5.1782
 20
4.308
 30
0.0
 10
5.1782
 20
4.308
 30
0.0
  0
SPLINE
  5
54
330
1F
100
AcDbEntity
  8
Ilustrace
 62
   250
370
    30
100
AcDbSpline
210
0.0
220
0.0
230
1.0
 70
     8
 71
     3
 72
    12
 73
     8
 74
     0
 42
0.0000000001
 43
0.0000000001
 40
0.0
 40
0.0
 40
0.0
 40
0.0
 40
0.3333333333333333
 40
0.3333333333333333
 40
0.3333333333333333
 40
0.3333333333333333
 40
1.0
 40
1.0
 40
1.0
 40
1.0
 10
5.1782
 20
4.308
 30
0.0
 10
5.1613
 20
4.1074
 30
0.0
 10
5.1018
 20
3.911
 30
0.0
 10
5.0045
 20
3.7347
 30
0.0
 10
5.0045
 20
3.7347
 30
0.0
 10
4.8877
 20
3.5231
 30
0.0
 10
4.7174
 20
3.3425
 30
0.0
 10
4.513
 20
3.2136
 30
0.0
  0
SPLINE
  5
55
330
1F
100
AcDbEntity
  8
Ilustrace
 62
   250
370
    30
100
AcDbSpline
210
0.0
220
0.0
230
1.0
 70
     8
 71
     3
 72
    16
 73
    12
 74
     0
 42
0.0000000001
 43
0.0000000001
 40
0.0
 40
0.0
 40
0.0
 40
0.0
 40
0.25
 40
0.25
 40
0.25
 40
0.25
 40
0.5
 40
0.5
 40
0.5
 40
0.5
 40
1.0
 40
1.0
 40
1.0
 40
1.0
 10
4.513
 20
3.2136
 30
0.0
 10
4.513
 20
3.2136
 30
0.0
 10
4.4082
 20
3.1536
 30
0.0
 10
4.4082
 20
3.1536
 30
0.0
 10
4.4082
 20
3.1536
 30
0.0
 10
4.4082
 20
3.1536
 30
0.0
 10
4.0895
 20
2.9883
 30
0.0
 10
4.0895
 20
2.9883
 30
0.0
 10
4.0895
 20
2.9883
 30
0.0
 10
4.0895
 20
2.9883
 30
0.0
 10
3.466
 20
2.6651
 30
0.0
 10
3.466
 20
2.6651
 30
0.0
  0
SPLINE
  5
56
330
1F
100
AcDbEntity
  8
Ilustrace
 62
   250
370
    30
100
AcDbSpline
210
0.0
220
0.0
230
1.0
 70
     8
 71
     3
 72
    12
 73
     8
 74
     0
 42
0.0000000001
 43
0.0000000001
 40
0.0
 40
0.0
 40
0.0
 40
0.0
 40
0.3333333333333333
 40
0.3333333333333333
 40
0.3333333333333333
 40
0.3333333333333333
 40
1.0
 40
1.0
 40
1.0
 40
1.0
 10
3.466
 20
2.6651
 30
0.0
 10
3.189
 20
2.5214
 30
0.0
 10
2.9096
 20
2.4127
 30
0.0
 10
2.8
 20
2.0992
 30
0.0
 10
2.8
 20
2.0992
 30
0.0
 10
2.7345
 20
1.9118
 30
0.0
 10
2.7598
 20
1.6931
 30
0.0
 10
2.7598
 20
1.5032
 30
0.0
  0
SPLINE
  5
57
330
1F
100
AcDbEntity
  8
Ilustrace
 62
   250
370
    30
100
AcDbSpline
210
0.0
220
0.0
230
1.0
 70
    24
 71
     3
 72
    12
 73
     8
 74
     0
 42
0.0000000001
 43
0.0000000001
 40
0.0
 40
0.0
 40
0.0
 40
0.0
 40
0.3333333333333333
 40
0.3333333333333333
 40
0.3333333333333333
 40
0.3333333333333333
 40
1.0
 40
1.0
 40
1.0
 40
1.0
 10
2.7598
 20
1.5032
 30
0.0
 10
2.7598
 20
1.5032
 30
0.0
 10
2.7598
 20
-2.9161
 30
0.0
 10
2.7598
 20
-2.9161
 30
0.0
 10
2.7598
 20
-2.9161
 30
0.0
 10
2.7598
 20
-2.9161
 30
0.0
 10
2.7598
 20
-3.2751
 30
0.0
 10
2.7598
 20
-3.2751
 30
0.0
  0
SPLINE
  5
58
330
1F
100
AcDbEntity
  8
Ilustrace
 62
   250
370
    30
100
AcDbSpline
210
0.0
220
0.0
230
1.0
 70
    24
 71
     3
 72
     8
 73
     4
 74
     0
 42
0.0000000001
 43
0.0000000001
 40
0.0
 40
0.0
 40
0.0
 40
0.0
 40
1.0
 40
1.0
 40
1.0
 40
1.0
 10
-17.6334
 20
12.1723
 30
0.0
 10
-17.6334
 20
12.1723
 30
0.0
 10
6.9964
 20
12.1723
 30
0.0
 10
6.9964
 20
12.1723
 30
0.0
  0
SPLINE
  5
59
330
1F
100
AcDbEntity
  8
Ilustrace
 62
   250
370
    30
100
AcDbSpline
210
0.0
220
0.0
230
1.0
 70
    24
 71
     3
 72
     8
 73
     4
 74
     0
 42
0.0000000001
 43
0.0000000001
 40
0.0
 40
0.0
 40
0.0
 40
0.0
 40
1.0
 40
1.0
 40
1.0
 40
1.0
 10
7.034
 20
10.018
 30
0.0
 10
7.034
 20
10.018
 30
0.0
 10
6.9964
 20
12.1723
 30
0.0
 10
6.9964
 20
12.1723
 30
0.0
  0
SPLINE
  5
5A
330
1F
100
AcDbEntity
  8
Ilustrace
 62
   250
370
    30
100
AcDbSpline
210
0.0
220
0.0
230
1.0
 70
    24
 71
     3
 72
     8
 73
     4
 74
     0
 42
0.0000000001
 43
0.0000000001
 40
0.0
 40
0.0
 40
0.0
 40
0.0
 40
1.0
 40
1.0
 40
1.0
 40
1.0
 10
-17.671
 20
10.018
 30
0.0
 10
-17.671
 20
10.018
 30
0.0
 10
7.034
 20
10.018
 30
0.0
 10
7.034
 20
10.018
 30
0.0
  0
SPLINE
  5
5B
330
1F
100
AcDbEntity
  8
Ilustrace
 62
   250
370
    30
100
AcDbSpline
210
0.0
220
0.0
230
1.0
 70
    24
 71
     3
 72
     8
 73
     4
 74
     0
 42
0.0000000001
 43
0.0000000001
 40
0.0
 40
0.0
 40
0.0
 40
0.0
 40
1.0
 40
1.0
 40
1.0
 40
1.0
 10
-17.6334
 20
12.1723
 30
0.0
 10
-17.6334
 20
12.1723
 30
0.0
 10
-17.671
 20
10.018
 30
0.0
 10
-17.671
 20
10.018
 30
0.0
  0
SPLINE
  5
5C
330
1F
100
AcDbEntity
  8
Ilustrace
 62
   250
370
    30
100
AcDbSpline
210
0.0
220
0.0
230
1.0
 70
    24
 71
     3
 72
     8
 73
     4
 74
     0
 42
0.0000000001
 43
0.0000000001
 40
0.0
 40
0.0
 40
0.0
 40
0.0
 40
1.0
 40
1.0
 40
1.0
 40
1.0
 10
2.94
 20
-10.3579
 30
0.0
 10
2.94
 20
-10.3579
 30
0.0
 10
-13.5771
 20
-10.3579
 30
0.0
 10
-13.5771
 20
-10.3579
 30
0.0
  0
SPLINE
  5
5D
330
1F
100
AcDbEntity
  8
Ilustrace
 62
   250
370
    30
100
AcDbSpline
210
0.0
220
0.0
230
1.0
 70
    24
 71
     3
 72
     8
 73
     4
 74
     0
 42
0.0000000001
 43
0.0000000001
 40
0.0
 40
0.0
 40
0.0
 40
0.0
 40
1.0
 40
1.0
 40
1.0
 40
1.0
 10
-13.7525
 20
-9.9232
 30
0.0
 10
-13.7525
 20
-9.9232
 30
0.0
 10
3.1156
 20
-9.9232
 30
0.0
 10
3.1156
 20
-9.9232
 30
0.0
  0
SPLINE
  5
5E
330
1F
100
AcDbEntity
  8
Ilustrace
 62
   250
370
    30
100
AcDbSpline
210
0.0
220
0.0
230
1.0
 70
    24
 71
     3
 72
     8
 73
     4
 74
     0
 42
0.0000000001
 43
0.0000000001
 40
0.0
 40
0.0
 40
0.0
 40
0.0
 40
1.0
 40
1.0
 40
1.0
 40
1.0
 10
-13.7568
 20
-9.6063
 30
0.0
 10
-13.7568
 20
-9.6063
 30
0.0
 10
3.1198
 20
-9.6063
 30
0.0
 10
3.1198
 20
-9.6063
 30
0.0
  0
SPLINE
  5
5F
330
1F
100
AcDbEntity
  8
Ilustrace
 62
   250
370
    30
100
AcDbSpline
210
0.0
220
0.0
230
1.0
 70
    24
 71
     3
 72
     8
 73
     4
 74
     0
 42
0.0000000001
 43
0.0000000001
 40
0.0
 40
0.0
 40
0.0
 40
0.0
 40
1.0
 40
1.0
 40
1.0
 40
1.0
 10
3.1293
 20
-8.3434
 30
0.0
 10
3.1293
 20
-8.3434
 30
0.0
 10
-13.7662
 20
-8.3434
 30
0.0
 10
-13.7662
 20
-8.3434
 30
0.0
  0
SPLINE
  5
60
330
1F
100
AcDbEntity
  8
Ilustrace
 62
   250
370
    30
100
AcDbSpline
210
0.0
220
0.0
230
1.0
 70
    24
 71
     3
 72
     8
 73
     4
 74
     0
 42
0.0000000001
 43
0.0000000001
 40
0.0
 40
0.0
 40
0.0
 40
0.0
 40
1.0
 40
1.0
 40
1.0
 40
1.0
 10
-13.7705
 20
-8.0266
 30
0.0
 10
-13.7705
 20
-8.0266
 30
0.0
 10
3.1336
 20
-8.0266
 30
0.0
 10
3.1336
 20
-8.0266
 30
0.0
  0
SPLINE
  5
61
330
1F
100
AcDbEntity
  8
Ilustrace
 62
   250
370
    30
100
AcDbSpline
210
0.0
220
0.0
230
1.0
 70
    24
 71
     3
 72
     8
 73
     4
 74
     0
 42
0.0000000001
 43
0.0000000001
 40
0.0
 40
0.0
 40
0.0
 40
0.0
 40
1.0
 40
1.0
 40
1.0
 40
1.0
 10
3.1706
 20
-3.6041
 30
0.0
 10
3.1706
 20
-3.6041
 30
0.0
 10
-13.8075
 20
-3.6041
 30
0.0
 10
-13.8075
 20
-3.6041
 30
0.0
  0
SPLINE
  5
62
330
1F
100
AcDbEntity
  8
Ilustrace
 62
   250
370
    30
100
AcDbSpline
210
0.0
220
0.0
230
1.0
 70
    24
 71
     3
 72
     8
 73
     4
 74
     0
 42
0.0000000001
 43
0.0000000001
 40
0.0
 40
0.0
 40
0.0
 40
0.0
 40
1.0
 40
1.0
 40
1.0
 40
1.0
 10
3.1611
 20
-4.8672
 30
0.0
 10
3.1611
 20
-4.8672
 30
0.0
 10
-13.798
 20
-4.8672
 30
0.0
 10
-13.798
 20
-4.8672
 30
0.0
  0
SPLINE
  5
63
330
1F
100
AcDbEntity
  8
Ilustrace
 62
   250
370
    30
100
AcDbSpline
210
0.0
220
0.0
230
1.0
 70
    24
 71
     3
 72
     8
 73
     4
 74
     0
 42
0.0000000001
 43
0.0000000001
 40
0.0
 40
0.0
 40
0.0
 40
0.0
 40
1.0
 40
1.0
 40
1.0
 40
1.0
 10
3.1567
 20
-5.1838
 30
0.0
 10
3.1567
 20
-5.1838
 30
0.0
 10
-13.7938
 20
-5.1838
 30
0.0
 10
-13.7938
 20
-5.1838
 30
0.0
  0
SPLINE
  5
64
330
1F
100
AcDbEntity
  8
Ilustrace
 62
   250
370
    30
100
AcDbSpline
210
0.0
220
0.0
230
1.0
 70
    24
 71
     3
 72
     8
 73
     4
 74
     0
 42
0.0000000001
 43
0.0000000001
 40
0.0
 40
0.0
 40
0.0
 40
0.0
 40
1.0
 40
1.0
 40
1.0
 40
1.0
 10
3.1473
 20
-6.4468
 30
0.0
 10
3.1473
 20
-6.4468
 30
0.0
 10
-13.7843
 20
-6.4468
 30
0.0
 10
-13.7843
 20
-6.4468
 30
0.0
  0
SPLINE
  5
65
330
1F
100
AcDbEntity
  8
Ilustrace
 62
   250
370
    30
100
AcDbSpline
210
0.0
220
0.0
230
1.0
 70
    24
 71
     3
 72
     8
 73
     4
 74
     0
 42
0.0000000001
 43
0.0000000001
 40
0.0
 40
0.0
 40
0.0
 40
0.0
 40
1.0
 40
1.0
 40
1.0
 40
1.0
 10
3.143
 20
-6.7636
 30
0.0
 10
3.143
 20
-6.7636
 30
0.0
 10
-13.7799
 20
-6.7636
 30
0.0
 10
-13.7799
 20
-6.7636
 30
0.0
  0
SPLINE
  5
66
330
1F
100
AcDbEntity
  8
Ilustrace
 62
   250
370
    30
100
AcDbSpline
210
0.0
220
0.0
230
1.0
 70
    24
 71
     3
 72
     8
 73
     4
 74
     0
 42
0.0000000001
 43
0.0000000001
 40
0.0
 40
0.0
 40
0.0
 40
0.0
 40
1.0
 40
1.0
 40
1.0
 40
1.0
 10
1.9699
 20
-10.3664
 30
0.0
 10
1.9699
 20
-10.3664
 30
0.0
 10
-12.6069
 20
-10.3664
 30
0.0
 10
-12.6069
 20
-10.3664
 30
0.0
  0
SPLINE
  5
67
330
1F
100
AcDbEntity
  8
Ilustrace
 62
   250
370
    30
100
AcDbSpline
210
0.0
220
0.0
230
1.0
 70
     8
 71
     3
 72
     8
 73
     4
 74
     0
 42
0.0000000001
 43
0.0000000001
 40
0.0
 40
0.0
 40
0.0
 40
0.0
 40
1.0
 40
1.0
 40
1.0
 40
1.0
 10
3.0811
 20
-3.7631
 30
0.0
 10
3.0809
 20
-3.7942
 30
0.0
 10
3.0077
 20
-4.8614
 30
0.0
 10
3.1611
 20
-4.8672
 30
0.0
  0
SPLINE
  5
68
330
1F
100
AcDbEntity
  8
Ilustrace
 62
   250
370
    30
100
AcDbSpline
210
0.0
220
0.0
230
1.0
 70
     8
 71
     3
 72
    20
 73
    16
 74
     0
 42
0.0000000001
 43
0.0000000001
 40
0.0
 40
0.0
 40
0.0
 40
0.0
 40
0.2
 40
0.2
 40
0.2
 40
0.2
 40
0.4
 40
0.4
 40
0.4
 40
0.4
 40
0.6
 40
0.6
 40
0.6
 40
0.6
 40
1.0
 40
1.0
 40
1.0
 40
1.0
 10
3.1611
 20
-4.8672
 30
0.0
 10
3.1611
 20
-4.8672
 30
0.0
 10
3.5199
 20
-4.8805
 30
0.0
 10
3.5199
 20
-4.8805
 30
0.0
 10
3.5199
 20
-4.8805
 30
0.0
 10
3.5199
 20
-4.8805
 30
0.0
 10
4.5585
 20
-4.9191
 30
0.0
 10
4.5585
 20
-4.9191
 30
0.0
 10
4.5585
 20
-4.9191
 30
0.0
 10
4.5585
 20
-4.9191
 30
0.0
 10
4.9173
 20
-4.9325
 30
0.0
 10
4.9173
 20
-4.9325
 30
0.0
 10
4.9173
 20
-4.9325
 30
0.0
 10
4.9173
 20
-4.9325
 30
0.0
 10
4.9325
 20
-4.9343
 30
0.0
 10
4.9325
 20
-4.9343
 30
0.0
  0
SPLINE
  5
69
330
1F
100
AcDbEntity
  8
Ilustrace
 62
   250
370
    30
100
AcDbSpline
210
0.0
220
0.0
230
1.0
 70
     8
 71
     3
 72
    12
 73
     8
 74
     0
 42
0.0000000001
 43
0.0000000001
 40
0.0
 40
0.0
 40
0.0
 40
0.0
 40
0.3333333333333333
 40
0.3333333333333333
 40
0.3333333333333333
 40
0.3333333333333333
 40
1.0
 40
1.0
 40
1.0
 40
1.0
 10
4.9325
 20
-4.9343
 30
0.0
 10
4.9708
 20
-4.9424
 30
0.0
 10
5.0001
 20
-4.9756
 30
0.0
 10
5.0035
 20
-5.0145
 30
0.0
 10
5.0035
 20
-5.0145
 30
0.0
 10
5.0079
 20
-5.0672
 30
0.0
 10
4.9724
 20
-5.1164
 30
0.0
 10
4.9173
 20
-5.1184
 30
0.0
  0
SPLINE
  5
6A
330
1F
100
AcDbEntity
  8
Ilustrace
 62
   250
370
    30
100
AcDbSpline
210
0.0
220
0.0
230
1.0
 70
     8
 71
     3
 72
    20
 73
    16
 74
     0
 42
0.0000000001
 43
0.0000000001
 40
0.0
 40
0.0
 40
0.0
 40
0.0
 40
0.2
 40
0.2
 40
0.2
 40
0.2
 40
0.4
 40
0.4
 40
0.4
 40
0.4
 40
0.6
 40
0.6
 40
0.6
 40
0.6
 40
1.0
 40
1.0
 40
1.0
 40
1.0
 10
4.9173
 20
-5.1184
 30
0.0
 10
4.9173
 20
-5.1184
 30
0.0
 10
4.5585
 20
-5.1318
 30
0.0
 10
4.5585
 20
-5.1318
 30
0.0
 10
4.5585
 20
-5.1318
 30
0.0
 10
4.5585
 20
-5.1318
 30
0.0
 10
3.5155
 20
-5.1705
 30
0.0
 10
3.5155
 20
-5.1705
 30
0.0
 10
3.5155
 20
-5.1705
 30
0.0
 10
3.5155
 20
-5.1705
 30
0.0
 10
3.1567
 20
-5.1838
 30
0.0
 10
3.1567
 20
-5.1838
 30
0.0
 10
3.1567
 20
-5.1838
 30
0.0
 10
3.1567
 20
-5.1838
 30
0.0
 10
3.1416
 20
-5.1857
 30
0.0
 10
3.1416
 20
-5.1857
 30
0.0
  0
SPLINE
  5
6B
330
1F
100
AcDbEntity
  8
Ilustrace
 62
   250
370
    30
100
AcDbSpline
210
0.0
220
0.0
230
1.0
 70
     8
 71
     3
 72
     8
 73
     4
 74
     0
 42
0.0000000001
 43
0.0000000001
 40
0.0
 40
0.0
 40
0.0
 40
0.0
 40
1.0
 40
1.0
 40
1.0
 40
1.0
 10
3.1416
 20
-5.1857
 30
0.0
 10
3.1008
 20
-5.1942
 30
0.0
 10
3.0707
 20
-5.2311
 30
0.0
 10
3.0704
 20
-5.2727
 30
0.0
  0
SPLINE
  5
6C
330
1F
100
AcDbEntity
  8
Ilustrace
 62
   250
370
    30
100
AcDbSpline
210
0.0
220
0.0
230
1.0
 70
     8
 71
     3
 72
    16
 73
    12
 74
     0
 42
0.0000000001
 43
0.0000000001
 40
0.0
 40
0.0
 40
0.0
 40
0.0
 40
0.25
 40
0.25
 40
0.25
 40
0.25
 40
0.5
 40
0.5
 40
0.5
 40
0.5
 40
1.0
 40
1.0
 40
1.0
 40
1.0
 10
3.0704
 20
-5.2727
 30
0.0
 10
3.0704
 20
-5.2727
 30
0.0
 10
3.0672
 20
-5.6318
 30
0.0
 10
3.0672
 20
-5.6318
 30
0.0
 10
3.0672
 20
-5.6318
 30
0.0
 10
3.0672
 20
-5.6318
 30
0.0
 10
3.064
 20
-5.9974
 30
0.0
 10
3.064
 20
-5.9974
 30
0.0
 10
3.064
 20
-5.9974
 30
0.0
 10
3.064
 20
-5.9974
 30
0.0
 10
3.0608
 20
-6.3564
 30
0.0
 10
3.0608
 20
-6.3564
 30
0.0
  0
SPLINE
  5
6D
330
1F
100
AcDbEntity
  8
Ilustrace
 62
   250
370
    30
100
AcDbSpline
210
0.0
220
0.0
230
1.0
 70
     8
 71
     3
 72
    12
 73
     8
 74
     0
 42
0.0000000001
 43
0.0000000001
 40
0.0
 40
0.0
 40
0.0
 40
0.0
 40
0.3333333333333333
 40
0.3333333333333333
 40
0.3333333333333333
 40
0.3333333333333333
 40
1.0
 40
1.0
 40
1.0
 40
1.0
 10
3.0608
 20
-6.3564
 30
0.0
 10
3.0608
 20
-6.3692
 30
0.0
 10
3.0634
 20
-6.3821
 30
0.0
 10
3.0687
 20
-6.3938
 30
0.0
 10
3.0687
 20
-6.3938
 30
0.0
 10
3.0813
 20
-6.4223
 30
0.0
 10
3.1088
 20
-6.4424
 30
0.0
 10
3.1396
 20
-6.4463
 30
0.0
  0
SPLINE
  5
6E
330
1F
100
AcDbEntity
  8
Ilustrace
 62
   250
370
    30
100
AcDbSpline
210
0.0
220
0.0
230
1.0
 70
     8
 71
     3
 72
    20
 73
    16
 74
     0
 42
0.0000000001
 43
0.0000000001
 40
0.0
 40
0.0
 40
0.0
 40
0.0
 40
0.2
 40
0.2
 40
0.2
 40
0.2
 40
0.4
 40
0.4
 40
0.4
 40
0.4
 40
0.6
 40
0.6
 40
0.6
 40
0.6
 40
1.0
 40
1.0
 40
1.0
 40
1.0
 10
3.1396
 20
-6.4463
 30
0.0
 10
3.1396
 20
-6.4463
 30
0.0
 10
3.5061
 20
-6.4602
 30
0.0
 10
3.5061
 20
-6.4602
 30
0.0
 10
3.5061
 20
-6.4602
 30
0.0
 10
3.5061
 20
-6.4602
 30
0.0
 10
4.5585
 20
-6.499
 30
0.0
 10
4.5585
 20
-6.499
 30
0.0
 10
4.5585
 20
-6.499
 30
0.0
 10
4.5585
 20
-6.499
 30
0.0
 10
4.9173
 20
-6.5122
 30
0.0
 10
4.9173
 20
-6.5122
 30
0.0
 10
4.9173
 20
-6.5122
 30
0.0
 10
4.9173
 20
-6.5122
 30
0.0
 10
4.9325
 20
-6.5141
 30
0.0
 10
4.9325
 20
-6.5141
 30
0.0
  0
SPLINE
  5
6F
330
1F
100
AcDbEntity
  8
Ilustrace
 62
   250
370
    30
100
AcDbSpline
210
0.0
220
0.0
230
1.0
 70
     8
 71
     3
 72
    12
 73
     8
 74
     0
 42
0.0000000001
 43
0.0000000001
 40
0.0
 40
0.0
 40
0.0
 40
0.0
 40
0.3333333333333333
 40
0.3333333333333333
 40
0.3333333333333333
 40
0.3333333333333333
 40
1.0
 40
1.0
 40
1.0
 40
1.0
 10
4.9325
 20
-6.5141
 30
0.0
 10
4.9742
 20
-6.5229
 30
0.0
 10
5.0028
 20
-6.5599
 30
0.0
 10
5.0038
 20
-6.6019
 30
0.0
 10
5.0038
 20
-6.6019
 30
0.0
 10
5.0048
 20
-6.6464
 30
0.0
 10
4.9772
 20
-6.6868
 30
0.0
 10
4.9325
 20
-6.6963
 30
0.0
  0
SPLINE
  5
70
330
1F
100
AcDbEntity
  8
Ilustrace
 62
   250
370
    30
100
AcDbSpline
210
0.0
220
0.0
230
1.0
 70
     8
 71
     3
 72
    20
 73
    16
 74
     0
 42
0.0000000001
 43
0.0000000001
 40
0.0
 40
0.0
 40
0.0
 40
0.0
 40
0.2
 40
0.2
 40
0.2
 40
0.2
 40
0.4
 40
0.4
 40
0.4
 40
0.4
 40
0.6
 40
0.6
 40
0.6
 40
0.6
 40
1.0
 40
1.0
 40
1.0
 40
1.0
 10
4.9325
 20
-6.6963
 30
0.0
 10
4.9325
 20
-6.6963
 30
0.0
 10
4.9173
 20
-6.6981
 30
0.0
 10
4.9173
 20
-6.6981
 30
0.0
 10
4.9173
 20
-6.6981
 30
0.0
 10
4.9173
 20
-6.6981
 30
0.0
 10
4.5585
 20
-6.7114
 30
0.0
 10
4.5585
 20
-6.7114
 30
0.0
 10
4.5585
 20
-6.7114
 30
0.0
 10
4.5585
 20
-6.7114
 30
0.0
 10
3.5018
 20
-6.7504
 30
0.0
 10
3.5018
 20
-6.7504
 30
0.0
 10
3.5018
 20
-6.7504
 30
0.0
 10
3.5018
 20
-6.7504
 30
0.0
 10
3.1354
 20
-6.7642
 30
0.0
 10
3.1354
 20
-6.7642
 30
0.0
  0
SPLINE
  5
71
330
1F
100
AcDbEntity
  8
Ilustrace
 62
   250
370
    30
100
AcDbSpline
210
0.0
220
0.0
230
1.0
 70
     8
 71
     3
 72
     8
 73
     4
 74
     0
 42
0.0000000001
 43
0.0000000001
 40
0.0
 40
0.0
 40
0.0
 40
0.0
 40
1.0
 40
1.0
 40
1.0
 40
1.0
 10
3.1354
 20
-6.7642
 30
0.0
 10
3.0994
 20
-6.7686
 30
0.0
 10
3.069
 20
-6.7951
 30
0.0
 10
3.0596
 20
-6.83
 30
0.0
  0
SPLINE
  5
72
330
1F
100
AcDbEntity
  8
Ilustrace
 62
   250
370
    30
100
AcDbSpline
210
0.0
220
0.0
230
1.0
 70
     8
 71
     3
 72
    20
 73
    16
 74
     0
 42
0.0000000001
 43
0.0000000001
 40
0.0
 40
0.0
 40
0.0
 40
0.0
 40
0.2
 40
0.2
 40
0.2
 40
0.2
 40
0.4
 40
0.4
 40
0.4
 40
0.4
 40
0.6
 40
0.6
 40
0.6
 40
0.6
 40
1.0
 40
1.0
 40
1.0
 40
1.0
 10
3.0596
 20
-6.83
 30
0.0
 10
3.0596
 20
-6.83
 30
0.0
 10
3.0565
 20
-6.8525
 30
0.0
 10
3.0565
 20
-6.8525
 30
0.0
 10
3.0565
 20
-6.8525
 30
0.0
 10
3.0565
 20
-6.8525
 30
0.0
 10
3.0535
 20
-7.2116
 30
0.0
 10
3.0535
 20
-7.2116
 30
0.0
 10
3.0535
 20
-7.2116
 30
0.0
 10
3.0535
 20
-7.2116
 30
0.0
 10
3.0502
 20
-7.5771
 30
0.0
 10
3.0502
 20
-7.5771
 30
0.0
 10
3.0502
 20
-7.5771
 30
0.0
 10
3.0502
 20
-7.5771
 30
0.0
 10
3.0471
 20
-7.9361
 30
0.0
 10
3.0471
 20
-7.9361
 30
0.0
  0
SPLINE
  5
73
330
1F
100
AcDbEntity
  8
Ilustrace
 62
   250
370
    30
100
AcDbSpline
210
0.0
220
0.0
230
1.0
 70
     8
 71
     3
 72
     8
 73
     4
 74
     0
 42
0.0000000001
 43
0.0000000001
 40
0.0
 40
0.0
 40
0.0
 40
0.0
 40
1.0
 40
1.0
 40
1.0
 40
1.0
 10
3.0471
 20
-7.9361
 30
0.0
 10
3.0467
 20
-7.9784
 30
0.0
 10
3.077
 20
-8.016
 30
0.0
 10
3.1183
 20
-8.0247
 30
0.0
  0
SPLINE
  5
74
330
1F
100
AcDbEntity
  8
Ilustrace
 62
   250
370
    30
100
AcDbSpline
210
0.0
220
0.0
230
1.0
 70
     8
 71
     3
 72
    24
 73
    20
 74
     0
 42
0.0000000001
 43
0.0000000001
 40
0.0
 40
0.0
 40
0.0
 40
0.0
 40
0.1666666666666667
 40
0.1666666666666667
 40
0.1666666666666667
 40
0.1666666666666667
 40
0.3333333333333333
 40
0.3333333333333333
 40
0.3333333333333333
 40
0.3333333333333333
 40
0.5
 40
0.5
 40
0.5
 40
0.5
 40
0.6666666666666666
 40
0.6666666666666666
 40
0.6666666666666666
 40
0.6666666666666666
 40
1.0
 40
1.0
 40
1.0
 40
1.0
 10
3.1183
 20
-8.0247
 30
0.0
 10
3.1183
 20
-8.0247
 30
0.0
 10
3.1336
 20
-8.0266
 30
0.0
 10
3.1336
 20
-8.0266
 30
0.0
 10
3.1336
 20
-8.0266
 30
0.0
 10
3.1336
 20
-8.0266
 30
0.0
 10
3.4923
 20
-8.0398
 30
0.0
 10
3.4923
 20
-8.0398
 30
0.0
 10
3.4923
 20
-8.0398
 30
0.0
 10
3.4923
 20
-8.0398
 30
0.0
 10
4.1097
 20
-8.0624
 30
0.0
 10
4.1097
 20
-8.0624
 30
0.0
 10
4.1097
 20
-8.0624
 30
0.0
 10
4.1097
 20
-8.0624
 30
0.0
 10
4.4685
 20
-8.0755
 30
0.0
 10
4.4685
 20
-8.0755
 30
0.0
 10
4.4685
 20
-8.0755
 30
0.0
 10
4.4685
 20
-8.0755
 30
0.0
 10
4.4837
 20
-8.0775
 30
0.0
 10
4.4837
 20
-8.0775
 30
0.0
  0
SPLINE
  5
75
330
1F
100
AcDbEntity
  8
Ilustrace
 62
   250
370
    30
100
AcDbSpline
210
0.0
220
0.0
230
1.0
 70
     8
 71
     3
 72
    12
 73
     8
 74
     0
 42
0.0000000001
 43
0.0000000001
 40
0.0
 40
0.0
 40
0.0
 40
0.0
 40
0.3333333333333333
 40
0.3333333333333333
 40
0.3333333333333333
 40
0.3333333333333333
 40
1.0
 40
1.0
 40
1.0
 40
1.0
 10
4.4837
 20
-8.0775
 30
0.0
 10
4.5194
 20
-8.085
 30
0.0
 10
4.5475
 20
-8.1142
 30
0.0
 10
4.5536
 20
-8.15
 30
0.0
 10
4.5536
 20
-8.15
 30
0.0
 10
4.5942
 20
-8.3852
 30
0.0
 10
4.2205
 20
-8.3035
 30
0.0
 10
4.1097
 20
-8.3075
 30
0.0
  0
SPLINE
  5
76
330
1F
100
AcDbEntity
  8
Ilustrace
 62
   250
370
    30
100
AcDbSpline
210
0.0
220
0.0
230
1.0
 70
     8
 71
     3
 72
    12
 73
     8
 74
     0
 42
0.0000000001
 43
0.0000000001
 40
0.0
 40
0.0
 40
0.0
 40
0.0
 40
0.3333333333333333
 40
0.3333333333333333
 40
0.3333333333333333
 40
0.3333333333333333
 40
1.0
 40
1.0
 40
1.0
 40
1.0
 10
4.1097
 20
-8.3075
 30
0.0
 10
4.1097
 20
-8.3075
 30
0.0
 10
3.488
 20
-8.3303
 30
0.0
 10
3.488
 20
-8.3303
 30
0.0
 10
3.488
 20
-8.3303
 30
0.0
 10
3.488
 20
-8.3303
 30
0.0
 10
3.1217
 20
-8.3441
 30
0.0
 10
3.1217
 20
-8.3441
 30
0.0
  0
SPLINE
  5
77
330
1F
100
AcDbEntity
  8
Ilustrace
 62
   250
370
    30
100
AcDbSpline
210
0.0
220
0.0
230
1.0
 70
     8
 71
     3
 72
    12
 73
     8
 74
     0
 42
0.0000000001
 43
0.0000000001
 40
0.0
 40
0.0
 40
0.0
 40
0.0
 40
0.3333333333333333
 40
0.3333333333333333
 40
0.3333333333333333
 40
0.3333333333333333
 40
1.0
 40
1.0
 40
1.0
 40
1.0
 10
3.1217
 20
-8.3441
 30
0.0
 10
3.0911
 20
-8.3477
 30
0.0
 10
3.064
 20
-8.3675
 30
0.0
 10
3.0511
 20
-8.3956
 30
0.0
 10
3.0511
 20
-8.3956
 30
0.0
 10
3.0457
 20
-8.4071
 30
0.0
 10
3.0428
 20
-8.4196
 30
0.0
 10
3.0427
 20
-8.4323
 30
0.0
  0
SPLINE
  5
78
330
1F
100
AcDbEntity
  8
Ilustrace
 62
   250
370
    30
100
AcDbSpline
210
0.0
220
0.0
230
1.0
 70
     8
 71
     3
 72
    16
 73
    12
 74
     0
 42
0.0000000001
 43
0.0000000001
 40
0.0
 40
0.0
 40
0.0
 40
0.0
 40
0.25
 40
0.25
 40
0.25
 40
0.25
 40
0.5
 40
0.5
 40
0.5
 40
0.5
 40
1.0
 40
1.0
 40
1.0
 40
1.0
 10
3.0427
 20
-8.4323
 30
0.0
 10
3.0427
 20
-8.4323
 30
0.0
 10
3.0397
 20
-8.7914
 30
0.0
 10
3.0397
 20
-8.7914
 30
0.0
 10
3.0397
 20
-8.7914
 30
0.0
 10
3.0397
 20
-8.7914
 30
0.0
 10
3.0364
 20
-9.1569
 30
0.0
 10
3.0364
 20
-9.1569
 30
0.0
 10
3.0364
 20
-9.1569
 30
0.0
 10
3.0364
 20
-9.1569
 30
0.0
 10
3.0333
 20
-9.5158
 30
0.0
 10
3.0333
 20
-9.5158
 30
0.0
  0
SPLINE
  5
79
330
1F
100
AcDbEntity
  8
Ilustrace
 62
   250
370
    30
100
AcDbSpline
210
0.0
220
0.0
230
1.0
 70
     8
 71
     3
 72
    12
 73
     8
 74
     0
 42
0.0000000001
 43
0.0000000001
 40
0.0
 40
0.0
 40
0.0
 40
0.0
 40
0.3333333333333333
 40
0.3333333333333333
 40
0.3333333333333333
 40
0.3333333333333333
 40
1.0
 40
1.0
 40
1.0
 40
1.0
 10
3.0333
 20
-9.5158
 30
0.0
 10
3.0331
 20
-9.5444
 30
0.0
 10
3.0468
 20
-9.5718
 30
0.0
 10
3.0697
 20
-9.5888
 30
0.0
 10
3.0697
 20
-9.5888
 30
0.0
 10
3.0842
 20
-9.5996
 30
0.0
 10
3.1017
 20
-9.6056
 30
0.0
 10
3.1198
 20
-9.6063
 30
0.0
  0
SPLINE
  5
7A
330
1F
100
AcDbEntity
  8
Ilustrace
 62
   250
370
    30
100
AcDbSpline
210
0.0
220
0.0
230
1.0
 70
     8
 71
     3
 72
    16
 73
    12
 74
     0
 42
0.0000000001
 43
0.0000000001
 40
0.0
 40
0.0
 40
0.0
 40
0.0
 40
0.25
 40
0.25
 40
0.25
 40
0.25
 40
0.5
 40
0.5
 40
0.5
 40
0.5
 40
1.0
 40
1.0
 40
1.0
 40
1.0
 10
3.1198
 20
-9.6063
 30
0.0
 10
3.1198
 20
-9.6063
 30
0.0
 10
3.4785
 20
-9.6194
 30
0.0
 10
3.4785
 20
-9.6194
 30
0.0
 10
3.4785
 20
-9.6194
 30
0.0
 10
3.4785
 20
-9.6194
 30
0.0
 10
3.6609
 20
-9.626
 30
0.0
 10
3.6609
 20
-9.626
 30
0.0
 10
3.6609
 20
-9.626
 30
0.0
 10
3.6609
 20
-9.626
 30
0.0
 10
4.0197
 20
-9.6392
 30
0.0
 10
4.0197
 20
-9.6392
 30
0.0
  0
SPLINE
  5
7B
330
1F
100
AcDbEntity
  8
Ilustrace
 62
   250
370
    30
100
AcDbSpline
210
0.0
220
0.0
230
1.0
 70
     8
 71
     3
 72
    16
 73
    12
 74
     0
 42
0.0000000001
 43
0.0000000001
 40
0.0
 40
0.0
 40
0.0
 40
0.0
 40
0.25
 40
0.25
 40
0.25
 40
0.25
 40
0.5
 40
0.5
 40
0.5
 40
0.5
 40
1.0
 40
1.0
 40
1.0
 40
1.0
 10
4.0197
 20
-9.6392
 30
0.0
 10
4.0453
 20
-9.64
 30
0.0
 10
4.0698
 20
-9.6523
 30
0.0
 10
4.0861
 20
-9.6722
 30
0.0
 10
4.0861
 20
-9.6722
 30
0.0
 10
4.1297
 20
-9.7259
 30
0.0
 10
4.124
 20
-9.8473
 30
0.0
 10
4.0564
 20
-9.8809
 30
0.0
 10
4.0564
 20
-9.8809
 30
0.0
 10
4.045
 20
-9.8865
 30
0.0
 10
4.0325
 20
-9.8897
 30
0.0
 10
4.0197
 20
-9.8902
 30
0.0
  0
SPLINE
  5
7C
330
1F
100
AcDbEntity
  8
Ilustrace
 62
   250
370
    30
100
AcDbSpline
210
0.0
220
0.0
230
1.0
 70
     8
 71
     3
 72
    20
 73
    16
 74
     0
 42
0.0000000001
 43
0.0000000001
 40
0.0
 40
0.0
 40
0.0
 40
0.0
 40
0.2
 40
0.2
 40
0.2
 40
0.2
 40
0.4
 40
0.4
 40
0.4
 40
0.4
 40
0.6
 40
0.6
 40
0.6
 40
0.6
 40
1.0
 40
1.0
 40
1.0
 40
1.0
 10
4.0197
 20
-9.8902
 30
0.0
 10
4.0197
 20
-9.8902
 30
0.0
 10
3.6609
 20
-9.9033
 30
0.0
 10
3.6609
 20
-9.9033
 30
0.0
 10
3.6609
 20
-9.9033
 30
0.0
 10
3.6609
 20
-9.9033
 30
0.0
 10
3.4744
 20
-9.9101
 30
0.0
 10
3.4744
 20
-9.9101
 30
0.0
 10
3.4744
 20
-9.9101
 30
0.0
 10
3.4744
 20
-9.9101
 30
0.0
 10
3.1156
 20
-9.9232
 30
0.0
 10
3.1156
 20
-9.9232
 30
0.0
 10
3.1156
 20
-9.9232
 30
0.0
 10
3.1156
 20
-9.9232
 30
0.0
 10
3.093
 20
-9.9269
 30
0.0
 10
3.093
 20
-9.9269
 30
0.0
  0
SPLINE
  5
7D
330
1F
100
AcDbEntity
  8
Ilustrace
 62
   250
370
    30
100
AcDbSpline
210
0.0
220
0.0
230
1.0
 70
     8
 71
     3
 72
    12
 73
     8
 74
     0
 42
0.0000000001
 43
0.0000000001
 40
0.0
 40
0.0
 40
0.0
 40
0.0
 40
0.3333333333333333
 40
0.3333333333333333
 40
0.3333333333333333
 40
0.3333333333333333
 40
1.0
 40
1.0
 40
1.0
 40
1.0
 10
3.093
 20
-9.9269
 30
0.0
 10
2.9714
 20
-9.9634
 30
0.0
 10
3.0291
 20
-10.2318
 30
0.0
 10
3.0291
 20
-10.2682
 30
0.0
 10
3.0291
 20
-10.2682
 30
0.0
 10
3.029
 20
-10.3184
 30
0.0
 10
2.9886
 20
-10.3554
 30
0.0
 10
2.94
 20
-10.3579
 30
0.0
  0
SPLINE
  5
7E
330
1F
100
AcDbEntity
  8
Ilustrace
 62
   250
370
    30
100
AcDbSpline
210
0.0
220
0.0
230
1.0
 70
     8
 71
     3
 72
     8
 73
     4
 74
     0
 42
0.0000000001
 43
0.0000000001
 40
0.0
 40
0.0
 40
0.0
 40
0.0
 40
1.0
 40
1.0
 40
1.0
 40
1.0
 10
3.0833
 20
-3.7893
 30
0.0
 10
3.0839
 20
-3.7212
 30
0.0
 10
3.0709
 20
-3.6079
 30
0.0
 10
3.1706
 20
-3.6041
 30
0.0
  0
SPLINE
  5
7F
330
1F
100
AcDbEntity
  8
Ilustrace
 62
   250
370
    30
100
AcDbSpline
210
0.0
220
0.0
230
1.0
 70
     8
 71
     3
 72
    16
 73
    12
 74
     0
 42
0.0000000001
 43
0.0000000001
 40
0.0
 40
0.0
 40
0.0
 40
0.0
 40
0.25
 40
0.25
 40
0.25
 40
0.25
 40
0.5
 40
0.5
 40
0.5
 40
0.5
 40
1.0
 40
1.0
 40
1.0
 40
1.0
 10
3.1706
 20
-3.6041
 30
0.0
 10
3.1706
 20
-3.6041
 30
0.0
 10
3.5293
 20
-3.5907
 30
0.0
 10
3.5293
 20
-3.5907
 30
0.0
 10
3.5293
 20
-3.5907
 30
0.0
 10
3.5293
 20
-3.5907
 30
0.0
 10
4.5585
 20
-3.5525
 30
0.0
 10
4.5585
 20
-3.5525
 30
0.0
 10
4.5585
 20
-3.5525
 30
0.0
 10
4.5585
 20
-3.5525
 30
0.0
 10
4.9173
 20
-3.5392
 30
0.0
 10
4.9173
 20
-3.5392
 30
0.0
  0
SPLINE
  5
80
330
1F
100
AcDbEntity
  8
Ilustrace
 62
   250
370
    30
100
AcDbSpline
210
0.0
220
0.0
230
1.0
 70
     8
 71
     3
 72
    12
 73
     8
 74
     0
 42
0.0000000001
 43
0.0000000001
 40
0.0
 40
0.0
 40
0.0
 40
0.0
 40
0.3333333333333333
 40
0.3333333333333333
 40
0.3333333333333333
 40
0.3333333333333333
 40
1.0
 40
1.0
 40
1.0
 40
1.0
 10
4.9173
 20
-3.5392
 30
0.0
 10
5.0062
 20
-3.5359
 30
0.0
 10
5.0356
 20
-3.412
 30
0.0
 10
4.9608
 20
-3.3663
 30
0.0
 10
4.9608
 20
-3.3663
 30
0.0
 10
4.9477
 20
-3.3584
 30
0.0
 10
4.9327
 20
-3.3538
 30
0.0
 10
4.9173
 20
-3.3532
 30
0.0
  0
SPLINE
  5
81
330
1F
100
AcDbEntity
  8
Ilustrace
 62
   250
370
    30
100
AcDbSpline
210
0.0
220
0.0
230
1.0
 70
     8
 71
     3
 72
    36
 73
    32
 74
     0
 42
0.0000000001
 43
0.0000000001
 40
0.0
 40
0.0
 40
0.0
 40
0.0
 40
0.1111111111111111
 40
0.1111111111111111
 40
0.1111111111111111
 40
0.1111111111111111
 40
0.2222222222222222
 40
0.2222222222222222
 40
0.2222222222222222
 40
0.2222222222222222
 40
0.3333333333333333
 40
0.3333333333333333
 40
0.3333333333333333
 40
0.3333333333333333
 40
0.4444444444444444
 40
0.4444444444444444
 40
0.4444444444444444
 40
0.4444444444444444
 40
0.5555555555555556
 40
0.5555555555555556
 40
0.5555555555555556
 40
0.5555555555555556
 40
0.6666666666666666
 40
0.6666666666666666
 40
0.6666666666666666
 40
0.6666666666666666
 40
0.7777777777777778
 40
0.7777777777777778
 40
0.7777777777777778
 40
0.7777777777777778
 40
1.0
 40
1.0
 40
1.0
 40
1.0
 10
4.9173
 20
-3.3532
 30
0.0
 10
4.9173
 20
-3.3532
 30
0.0
 10
4.5585
 20
-3.3399
 30
0.0
 10
4.5585
 20
-3.3399
 30
0.0
 10
4.5585
 20
-3.3399
 30
0.0
 10
4.5585
 20
-3.3399
 30
0.0
 10
3.1773
 20
-3.2885
 30
0.0
 10
3.1773
 20
-3.2885
 30
0.0
 10
3.1773
 20
-3.2885
 30
0.0
 10
3.1773
 20
-3.2885
 30
0.0
 10
2.4594
 20
-3.2751
 30
0.0
 10
2.4594
 20
-3.2751
 30
0.0
 10
2.4594
 20
-3.2751
 30
0.0
 10
2.4594
 20
-3.2751
 30
0.0
 10
-13.0964
 20
-3.2751
 30
0.0
 10
-13.0964
 20
-3.2751
 30
0.0
 10
-13.0964
 20
-3.2751
 30
0.0
 10
-13.0964
 20
-3.2751
 30
0.0
 10
-13.4554
 20
-3.2751
 30
0.0
 10
-13.4554
 20
-3.2751
 30
0.0
 10
-13.4554
 20
-3.2751
 30
0.0
 10
-13.4554
 20
-3.2751
 30
0.0
 10
-13.8142
 20
-3.2885
 30
0.0
 10
-13.8142
 20
-3.2885
 30
0.0
 10
-13.8142
 20
-3.2885
 30
0.0
 10
-13.8142
 20
-3.2885
 30
0.0
 10
-15.1955
 20
-3.3399
 30
0.0
 10
-15.1955
 20
-3.3399
 30
0.0
 10
-15.1955
 20
-3.3399
 30
0.0
 10
-15.1955
 20
-3.3399
 30
0.0
 10
-15.5543
 20
-3.3532
 30
0.0
 10
-15.5543
 20
-3.3532
 30
0.0
  0
SPLINE
  5
82
330
1F
100
AcDbEntity
  8
Ilustrace
 62
   250
370
    30
100
AcDbSpline
210
0.0
220
0.0
230
1.0
 70
     8
 71
     3
 72
    12
 73
     8
 74
     0
 42
0.0000000001
 43
0.0000000001
 40
0.0
 40
0.0
 40
0.0
 40
0.0
 40
0.3333333333333333
 40
0.3333333333333333
 40
0.3333333333333333
 40
0.3333333333333333
 40
1.0
 40
1.0
 40
1.0
 40
1.0
 10
-15.5543
 20
-3.3532
 30
0.0
 10
-15.5853
 20
-3.3544
 30
0.0
 10
-15.6141
 20
-3.372
 30
0.0
 10
-15.6293
 20
-3.399
 30
0.0
 10
-15.6293
 20
-3.399
 30
0.0
 10
-15.6561
 20
-3.4469
 30
0.0
 10
-15.6358
 20
-3.5124
 30
0.0
 10
-15.5841
 20
-3.5329
 30
0.0
  0
SPLINE
  5
83
330
1F
100
AcDbEntity
  8
Ilustrace
 62
   250
370
    30
100
AcDbSpline
210
0.0
220
0.0
230
1.0
 70
     8
 71
     3
 72
    20
 73
    16
 74
     0
 42
0.0000000001
 43
0.0000000001
 40
0.0
 40
0.0
 40
0.0
 40
0.0
 40
0.2
 40
0.2
 40
0.2
 40
0.2
 40
0.4
 40
0.4
 40
0.4
 40
0.4
 40
0.6
 40
0.6
 40
0.6
 40
0.6
 40
1.0
 40
1.0
 40
1.0
 40
1.0
 10
-15.5841
 20
-3.5329
 30
0.0
 10
-15.5841
 20
-3.5329
 30
0.0
 10
-15.5543
 20
-3.5392
 30
0.0
 10
-15.5543
 20
-3.5392
 30
0.0
 10
-15.5543
 20
-3.5392
 30
0.0
 10
-15.5543
 20
-3.5392
 30
0.0
 10
-15.1955
 20
-3.5525
 30
0.0
 10
-15.1955
 20
-3.5525
 30
0.0
 10
-15.1955
 20
-3.5525
 30
0.0
 10
-15.1955
 20
-3.5525
 30
0.0
 10
-14.1663
 20
-3.5907
 30
0.0
 10
-14.1663
 20
-3.5907
 30
0.0
 10
-14.1663
 20
-3.5907
 30
0.0
 10
-14.1663
 20
-3.5907
 30
0.0
 10
-13.8075
 20
-3.6041
 30
0.0
 10
-13.8075
 20
-3.6041
 30
0.0
  0
SPLINE
  5
84
330
1F
100
AcDbEntity
  8
Ilustrace
 62
   250
370
    30
100
AcDbSpline
210
0.0
220
0.0
230
1.0
 70
     8
 71
     3
 72
    12
 73
     8
 74
     0
 42
0.0000000001
 43
0.0000000001
 40
0.0
 40
0.0
 40
0.0
 40
0.0
 40
0.3333333333333333
 40
0.3333333333333333
 40
0.3333333333333333
 40
0.3333333333333333
 40
1.0
 40
1.0
 40
1.0
 40
1.0
 10
-13.8075
 20
-3.6041
 30
0.0
 10
-13.7897
 20
-3.6048
 30
0.0
 10
-13.7724
 20
-3.6108
 30
0.0
 10
-13.758
 20
-3.6213
 30
0.0
 10
-13.758
 20
-3.6213
 30
0.0
 10
-13.7352
 20
-3.6379
 30
0.0
 10
-13.7214
 20
-3.6648
 30
0.0
 10
-13.7211
 20
-3.693
 30
0.0
  0
SPLINE
  5
85
330
1F
100
AcDbEntity
  8
Ilustrace
 62
   250
370
    30
100
AcDbSpline
210
0.0
220
0.0
230
1.0
 70
    24
 71
     3
 72
     8
 73
     4
 74
     0
 42
0.0000000001
 43
0.0000000001
 40
0.0
 40
0.0
 40
0.0
 40
0.0
 40
1.0
 40
1.0
 40
1.0
 40
1.0
 10
-13.7211
 20
-3.693
 30
0.0
 10
-13.7211
 20
-3.693
 30
0.0
 10
-13.718
 20
-4.052
 30
0.0
 10
-13.718
 20
-4.052
 30
0.0
  0
SPLINE
  5
86
330
1F
100
AcDbEntity
  8
Ilustrace
 62
   250
370
    30
100
AcDbSpline
210
0.0
220
0.0
230
1.0
 70
     8
 71
     3
 72
    12
 73
     8
 74
     0
 42
0.0000000001
 43
0.0000000001
 40
0.0
 40
0.0
 40
0.0
 40
0.0
 40
0.3333333333333333
 40
0.3333333333333333
 40
0.3333333333333333
 40
0.3333333333333333
 40
1.0
 40
1.0
 40
1.0
 40
1.0
 10
-13.718
 20
-4.052
 30
0.0
 10
-13.717
 20
-4.1706
 30
0.0
 10
-13.7028
 20
-4.6661
 30
0.0
 10
-13.712
 20
-4.7844
 30
0.0
 10
-13.712
 20
-4.7844
 30
0.0
 10
-13.7149
 20
-4.8236
 30
0.0
 10
-13.7443
 20
-4.8571
 30
0.0
 10
-13.7828
 20
-4.8652
 30
0.0
  0
SPLINE
  5
87
330
1F
100
AcDbEntity
  8
Ilustrace
 62
   250
370
    30
100
AcDbSpline
210
0.0
220
0.0
230
1.0
 70
     8
 71
     3
 72
    24
 73
    20
 74
     0
 42
0.0000000001
 43
0.0000000001
 40
0.0
 40
0.0
 40
0.0
 40
0.0
 40
0.1666666666666667
 40
0.1666666666666667
 40
0.1666666666666667
 40
0.1666666666666667
 40
0.3333333333333333
 40
0.3333333333333333
 40
0.3333333333333333
 40
0.3333333333333333
 40
0.5
 40
0.5
 40
0.5
 40
0.5
 40
0.6666666666666666
 40
0.6666666666666666
 40
0.6666666666666666
 40
0.6666666666666666
 40
1.0
 40
1.0
 40
1.0
 40
1.0
 10
-13.7828
 20
-4.8652
 30
0.0
 10
-13.7828
 20
-4.8652
 30
0.0
 10
-13.798
 20
-4.8672
 30
0.0
 10
-13.798
 20
-4.8672
 30
0.0
 10
-13.798
 20
-4.8672
 30
0.0
 10
-13.798
 20
-4.8672
 30
0.0
 10
-14.1568
 20
-4.8805
 30
0.0
 10
-14.1568
 20
-4.8805
 30
0.0
 10
-14.1568
 20
-4.8805
 30
0.0
 10
-14.1568
 20
-4.8805
 30
0.0
 10
-15.1955
 20
-4.9191
 30
0.0
 10
-15.1955
 20
-4.9191
 30
0.0
 10
-15.1955
 20
-4.9191
 30
0.0
 10
-15.1955
 20
-4.9191
 30
0.0
 10
-15.5543
 20
-4.9325
 30
0.0
 10
-15.5543
 20
-4.9325
 30
0.0
 10
-15.5543
 20
-4.9325
 30
0.0
 10
-15.5543
 20
-4.9325
 30
0.0
 10
-15.5769
 20
-4.9363
 30
0.0
 10
-15.5769
 20
-4.9363
 30
0.0
  0
SPLINE
  5
88
330
1F
100
AcDbEntity
  8
Ilustrace
 62
   250
370
    30
100
AcDbSpline
210
0.0
220
0.0
230
1.0
 70
     8
 71
     3
 72
    12
 73
     8
 74
     0
 42
0.0000000001
 43
0.0000000001
 40
0.0
 40
0.0
 40
0.0
 40
0.0
 40
0.3333333333333333
 40
0.3333333333333333
 40
0.3333333333333333
 40
0.3333333333333333
 40
1.0
 40
1.0
 40
1.0
 40
1.0
 10
-15.5769
 20
-4.9363
 30
0.0
 10
-15.6281
 20
-4.9517
 30
0.0
 10
-15.653
 20
-5.0095
 30
0.0
 10
-15.6356
 20
-5.0587
 30
0.0
 10
-15.6356
 20
-5.0587
 30
0.0
 10
-15.6244
 20
-5.0905
 30
0.0
 10
-15.5954
 20
-5.1137
 30
0.0
 10
-15.5619
 20
-5.1178
 30
0.0
  0
SPLINE
  5
89
330
1F
100
AcDbEntity
  8
Ilustrace
 62
   250
370
    30
100
AcDbSpline
210
0.0
220
0.0
230
1.0
 70
     8
 71
     3
 72
    20
 73
    16
 74
     0
 42
0.0000000001
 43
0.0000000001
 40
0.0
 40
0.0
 40
0.0
 40
0.0
 40
0.2
 40
0.2
 40
0.2
 40
0.2
 40
0.4
 40
0.4
 40
0.4
 40
0.4
 40
0.6
 40
0.6
 40
0.6
 40
0.6
 40
1.0
 40
1.0
 40
1.0
 40
1.0
 10
-15.5619
 20
-5.1178
 30
0.0
 10
-15.5619
 20
-5.1178
 30
0.0
 10
-15.1955
 20
-5.1318
 30
0.0
 10
-15.1955
 20
-5.1318
 30
0.0
 10
-15.1955
 20
-5.1318
 30
0.0
 10
-15.1955
 20
-5.1318
 30
0.0
 10
-14.1525
 20
-5.1705
 30
0.0
 10
-14.1525
 20
-5.1705
 30
0.0
 10
-14.1525
 20
-5.1705
 30
0.0
 10
-14.1525
 20
-5.1705
 30
0.0
 10
-13.7938
 20
-5.1838
 30
0.0
 10
-13.7938
 20
-5.1838
 30
0.0
 10
-13.7938
 20
-5.1838
 30
0.0
 10
-13.7938
 20
-5.1838
 30
0.0
 10
-13.7787
 20
-5.1857
 30
0.0
 10
-13.7787
 20
-5.1857
 30
0.0
  0
SPLINE
  5
8A
330
1F
100
AcDbEntity
  8
Ilustrace
 62
   250
370
    30
100
AcDbSpline
210
0.0
220
0.0
230
1.0
 70
     8
 71
     3
 72
    12
 73
     8
 74
     0
 42
0.0000000001
 43
0.0000000001
 40
0.0
 40
0.0
 40
0.0
 40
0.0
 40
0.3333333333333333
 40
0.3333333333333333
 40
0.3333333333333333
 40
0.3333333333333333
 40
1.0
 40
1.0
 40
1.0
 40
1.0
 10
-13.7787
 20
-5.1857
 30
0.0
 10
-13.7433
 20
-5.1932
 30
0.0
 10
-13.7151
 20
-5.222
 30
0.0
 10
-13.7087
 20
-5.2577
 30
0.0
 10
-13.7087
 20
-5.2577
 30
0.0
 10
-13.6852
 20
-5.3884
 30
0.0
 10
-13.7022
 20
-5.8637
 30
0.0
 10
-13.701
 20
-5.9974
 30
0.0
  0
SPLINE
  5
8B
330
1F
100
AcDbEntity
  8
Ilustrace
 62
   250
370
    30
100
AcDbSpline
210
0.0
220
0.0
230
1.0
 70
    24
 71
     3
 72
     8
 73
     4
 74
     0
 42
0.0000000001
 43
0.0000000001
 40
0.0
 40
0.0
 40
0.0
 40
0.0
 40
1.0
 40
1.0
 40
1.0
 40
1.0
 10
-13.701
 20
-5.9974
 30
0.0
 10
-13.701
 20
-5.9974
 30
0.0
 10
-13.6978
 20
-6.3564
 30
0.0
 10
-13.6978
 20
-6.3564
 30
0.0
  0
SPLINE
  5
8C
330
1F
100
AcDbEntity
  8
Ilustrace
 62
   250
370
    30
100
AcDbSpline
210
0.0
220
0.0
230
1.0
 70
     8
 71
     3
 72
    12
 73
     8
 74
     0
 42
0.0000000001
 43
0.0000000001
 40
0.0
 40
0.0
 40
0.0
 40
0.0
 40
0.3333333333333333
 40
0.3333333333333333
 40
0.3333333333333333
 40
0.3333333333333333
 40
1.0
 40
1.0
 40
1.0
 40
1.0
 10
-13.6978
 20
-6.3564
 30
0.0
 10
-13.6977
 20
-6.385
 30
0.0
 10
-13.7113
 20
-6.4124
 30
0.0
 10
-13.7343
 20
-6.4294
 30
0.0
 10
-13.7343
 20
-6.4294
 30
0.0
 10
-13.7487
 20
-6.4401
 30
0.0
 10
-13.7664
 20
-6.4462
 30
0.0
 10
-13.7843
 20
-6.4468
 30
0.0
  0
SPLINE
  5
8D
330
1F
100
AcDbEntity
  8
Ilustrace
 62
   250
370
    30
100
AcDbSpline
210
0.0
220
0.0
230
1.0
 70
     8
 71
     3
 72
    20
 73
    16
 74
     0
 42
0.0000000001
 43
0.0000000001
 40
0.0
 40
0.0
 40
0.0
 40
0.0
 40
0.2
 40
0.2
 40
0.2
 40
0.2
 40
0.4
 40
0.4
 40
0.4
 40
0.4
 40
0.6
 40
0.6
 40
0.6
 40
0.6
 40
1.0
 40
1.0
 40
1.0
 40
1.0
 10
-13.7843
 20
-6.4468
 30
0.0
 10
-13.7843
 20
-6.4468
 30
0.0
 10
-14.143
 20
-6.4602
 30
0.0
 10
-14.143
 20
-6.4602
 30
0.0
 10
-14.143
 20
-6.4602
 30
0.0
 10
-14.143
 20
-6.4602
 30
0.0
 10
-15.1955
 20
-6.499
 30
0.0
 10
-15.1955
 20
-6.499
 30
0.0
 10
-15.1955
 20
-6.499
 30
0.0
 10
-15.1955
 20
-6.499
 30
0.0
 10
-15.5543
 20
-6.5122
 30
0.0
 10
-15.5543
 20
-6.5122
 30
0.0
 10
-15.5543
 20
-6.5122
 30
0.0
 10
-15.5543
 20
-6.5122
 30
0.0
 10
-15.5769
 20
-6.516
 30
0.0
 10
-15.5769
 20
-6.516
 30
0.0
  0
SPLINE
  5
8E
330
1F
100
AcDbEntity
  8
Ilustrace
 62
   250
370
    30
100
AcDbSpline
210
0.0
220
0.0
230
1.0
 70
     8
 71
     3
 72
    12
 73
     8
 74
     0
 42
0.0000000001
 43
0.0000000001
 40
0.0
 40
0.0
 40
0.0
 40
0.0
 40
0.3333333333333333
 40
0.3333333333333333
 40
0.3333333333333333
 40
0.3333333333333333
 40
1.0
 40
1.0
 40
1.0
 40
1.0
 10
-15.5769
 20
-6.516
 30
0.0
 10
-15.6255
 20
-6.5307
 30
0.0
 10
-15.6504
 20
-6.5832
 30
0.0
 10
-15.6379
 20
-6.6311
 30
0.0
 10
-15.6379
 20
-6.6311
 30
0.0
 10
-15.6286
 20
-6.6665
 30
0.0
 10
-15.5981
 20
-6.6931
 30
0.0
 10
-15.5619
 20
-6.6975
 30
0.0
  0
SPLINE
  5
8F
330
1F
100
AcDbEntity
  8
Ilustrace
 62
   250
370
    30
100
AcDbSpline
210
0.0
220
0.0
230
1.0
 70
     8
 71
     3
 72
    16
 73
    12
 74
     0
 42
0.0000000001
 43
0.0000000001
 40
0.0
 40
0.0
 40
0.0
 40
0.0
 40
0.25
 40
0.25
 40
0.25
 40
0.25
 40
0.5
 40
0.5
 40
0.5
 40
0.5
 40
1.0
 40
1.0
 40
1.0
 40
1.0
 10
-15.5619
 20
-6.6975
 30
0.0
 10
-15.5619
 20
-6.6975
 30
0.0
 10
-15.1955
 20
-6.7114
 30
0.0
 10
-15.1955
 20
-6.7114
 30
0.0
 10
-15.1955
 20
-6.7114
 30
0.0
 10
-15.1955
 20
-6.7114
 30
0.0
 10
-14.1388
 20
-6.7504
 30
0.0
 10
-14.1388
 20
-6.7504
 30
0.0
 10
-14.1388
 20
-6.7504
 30
0.0
 10
-14.1388
 20
-6.7504
 30
0.0
 10
-13.7799
 20
-6.7636
 30
0.0
 10
-13.7799
 20
-6.7636
 30
0.0
  0
SPLINE
  5
90
330
1F
100
AcDbEntity
  8
Ilustrace
 62
   250
370
    30
100
AcDbSpline
210
0.0
220
0.0
230
1.0
 70
     8
 71
     3
 72
    12
 73
     8
 74
     0
 42
0.0000000001
 43
0.0000000001
 40
0.0
 40
0.0
 40
0.0
 40
0.0
 40
0.3333333333333333
 40
0.3333333333333333
 40
0.3333333333333333
 40
0.3333333333333333
 40
1.0
 40
1.0
 40
1.0
 40
1.0
 10
-13.7799
 20
-6.7636
 30
0.0
 10
-13.7544
 20
-6.7646
 30
0.0
 10
-13.7301
 20
-6.7766
 30
0.0
 10
-13.7139
 20
-6.7965
 30
0.0
 10
-13.7139
 20
-6.7965
 30
0.0
 10
-13.701
 20
-6.8122
 30
0.0
 10
-13.6937
 20
-6.8321
 30
0.0
 10
-13.6935
 20
-6.8525
 30
0.0
  0
SPLINE
  5
91
330
1F
100
AcDbEntity
  8
Ilustrace
 62
   250
370
    30
100
AcDbSpline
210
0.0
220
0.0
230
1.0
 70
     8
 71
     3
 72
    16
 73
    12
 74
     0
 42
0.0000000001
 43
0.0000000001
 40
0.0
 40
0.0
 40
0.0
 40
0.0
 40
0.25
 40
0.25
 40
0.25
 40
0.25
 40
0.5
 40
0.5
 40
0.5
 40
0.5
 40
1.0
 40
1.0
 40
1.0
 40
1.0
 10
-13.6935
 20
-6.8525
 30
0.0
 10
-13.6935
 20
-6.8525
 30
0.0
 10
-13.6904
 20
-7.2116
 30
0.0
 10
-13.6904
 20
-7.2116
 30
0.0
 10
-13.6904
 20
-7.2116
 30
0.0
 10
-13.6904
 20
-7.2116
 30
0.0
 10
-13.6872
 20
-7.5771
 30
0.0
 10
-13.6872
 20
-7.5771
 30
0.0
 10
-13.6872
 20
-7.5771
 30
0.0
 10
-13.6872
 20
-7.5771
 30
0.0
 10
-13.6841
 20
-7.9361
 30
0.0
 10
-13.6841
 20
-7.9361
 30
0.0
  0
SPLINE
  5
92
330
1F
100
AcDbEntity
  8
Ilustrace
 62
   250
370
    30
100
AcDbSpline
210
0.0
220
0.0
230
1.0
 70
     8
 71
     3
 72
    12
 73
     8
 74
     0
 42
0.0000000001
 43
0.0000000001
 40
0.0
 40
0.0
 40
0.0
 40
0.0
 40
0.3333333333333333
 40
0.3333333333333333
 40
0.3333333333333333
 40
0.3333333333333333
 40
1.0
 40
1.0
 40
1.0
 40
1.0
 10
-13.6841
 20
-7.9361
 30
0.0
 10
-13.6838
 20
-7.9673
 30
0.0
 10
-13.7002
 20
-7.997
 30
0.0
 10
-13.7268
 20
-8.0134
 30
0.0
 10
-13.7268
 20
-8.0134
 30
0.0
 10
-13.74
 20
-8.0215
 30
0.0
 10
-13.7551
 20
-8.0261
 30
0.0
 10
-13.7705
 20
-8.0266
 30
0.0
  0
SPLINE
  5
93
330
1F
100
AcDbEntity
  8
Ilustrace
 62
   250
370
    30
100
AcDbSpline
210
0.0
220
0.0
230
1.0
 70
     8
 71
     3
 72
    20
 73
    16
 74
     0
 42
0.0000000001
 43
0.0000000001
 40
0.0
 40
0.0
 40
0.0
 40
0.0
 40
0.2
 40
0.2
 40
0.2
 40
0.2
 40
0.4
 40
0.4
 40
0.4
 40
0.4
 40
0.6
 40
0.6
 40
0.6
 40
0.6
 40
1.0
 40
1.0
 40
1.0
 40
1.0
 10
-13.7705
 20
-8.0266
 30
0.0
 10
-13.7705
 20
-8.0266
 30
0.0
 10
-14.1294
 20
-8.0398
 30
0.0
 10
-14.1294
 20
-8.0398
 30
0.0
 10
-14.1294
 20
-8.0398
 30
0.0
 10
-14.1294
 20
-8.0398
 30
0.0
 10
-14.7467
 20
-8.0624
 30
0.0
 10
-14.7467
 20
-8.0624
 30
0.0
 10
-14.7467
 20
-8.0624
 30
0.0
 10
-14.7467
 20
-8.0624
 30
0.0
 10
-15.1055
 20
-8.0755
 30
0.0
 10
-15.1055
 20
-8.0755
 30
0.0
 10
-15.1055
 20
-8.0755
 30
0.0
 10
-15.1055
 20
-8.0755
 30
0.0
 10
-15.1207
 20
-8.0775
 30
0.0
 10
-15.1207
 20
-8.0775
 30
0.0
  0
SPLINE
  5
94
330
1F
100
AcDbEntity
  8
Ilustrace
 62
   250
370
    30
100
AcDbSpline
210
0.0
220
0.0
230
1.0
 70
     8
 71
     3
 72
    12
 73
     8
 74
     0
 42
0.0000000001
 43
0.0000000001
 40
0.0
 40
0.0
 40
0.0
 40
0.0
 40
0.3333333333333333
 40
0.3333333333333333
 40
0.3333333333333333
 40
0.3333333333333333
 40
1.0
 40
1.0
 40
1.0
 40
1.0
 10
-15.1207
 20
-8.0775
 30
0.0
 10
-15.1589
 20
-8.0855
 30
0.0
 10
-15.1882
 20
-8.1186
 30
0.0
 10
-15.1917
 20
-8.1576
 30
0.0
 10
-15.1917
 20
-8.1576
 30
0.0
 10
-15.2112
 20
-8.3859
 30
0.0
 10
-14.8829
 20
-8.3025
 30
0.0
 10
-14.7467
 20
-8.3075
 30
0.0
  0
SPLINE
  5
95
330
1F
100
AcDbEntity
  8
Ilustrace
 62
   250
370
    30
100
AcDbSpline
210
0.0
220
0.0
230
1.0
 70
     8
 71
     3
 72
    12
 73
     8
 74
     0
 42
0.0000000001
 43
0.0000000001
 40
0.0
 40
0.0
 40
0.0
 40
0.0
 40
0.3333333333333333
 40
0.3333333333333333
 40
0.3333333333333333
 40
0.3333333333333333
 40
1.0
 40
1.0
 40
1.0
 40
1.0
 10
-14.7467
 20
-8.3075
 30
0.0
 10
-14.7467
 20
-8.3075
 30
0.0
 10
-14.1251
 20
-8.3303
 30
0.0
 10
-14.1251
 20
-8.3303
 30
0.0
 10
-14.1251
 20
-8.3303
 30
0.0
 10
-14.1251
 20
-8.3303
 30
0.0
 10
-13.7586
 20
-8.3441
 30
0.0
 10
-13.7586
 20
-8.3441
 30
0.0
  0
SPLINE
  5
96
330
1F
100
AcDbEntity
  8
Ilustrace
 62
   250
370
    30
100
AcDbSpline
210
0.0
220
0.0
230
1.0
 70
     8
 71
     3
 72
    12
 73
     8
 74
     0
 42
0.0000000001
 43
0.0000000001
 40
0.0
 40
0.0
 40
0.0
 40
0.0
 40
0.3333333333333333
 40
0.3333333333333333
 40
0.3333333333333333
 40
0.3333333333333333
 40
1.0
 40
1.0
 40
1.0
 40
1.0
 10
-13.7586
 20
-8.3441
 30
0.0
 10
-13.728
 20
-8.3477
 30
0.0
 10
-13.7009
 20
-8.3675
 30
0.0
 10
-13.688
 20
-8.3956
 30
0.0
 10
-13.688
 20
-8.3956
 30
0.0
 10
-13.6826
 20
-8.4071
 30
0.0
 10
-13.6799
 20
-8.4196
 30
0.0
 10
-13.6797
 20
-8.4323
 30
0.0
  0
SPLINE
  5
97
330
1F
100
AcDbEntity
  8
Ilustrace
 62
   250
370
    30
100
AcDbSpline
210
0.0
220
0.0
230
1.0
 70
     8
 71
     3
 72
    16
 73
    12
 74
     0
 42
0.0000000001
 43
0.0000000001
 40
0.0
 40
0.0
 40
0.0
 40
0.0
 40
0.25
 40
0.25
 40
0.25
 40
0.25
 40
0.5
 40
0.5
 40
0.5
 40
0.5
 40
1.0
 40
1.0
 40
1.0
 40
1.0
 10
-13.6797
 20
-8.4323
 30
0.0
 10
-13.6797
 20
-8.4323
 30
0.0
 10
-13.6766
 20
-8.7914
 30
0.0
 10
-13.6766
 20
-8.7914
 30
0.0
 10
-13.6766
 20
-8.7914
 30
0.0
 10
-13.6766
 20
-8.7914
 30
0.0
 10
-13.6735
 20
-9.1568
 30
0.0
 10
-13.6735
 20
-9.1568
 30
0.0
 10
-13.6735
 20
-9.1568
 30
0.0
 10
-13.6735
 20
-9.1568
 30
0.0
 10
-13.6702
 20
-9.5158
 30
0.0
 10
-13.6702
 20
-9.5158
 30
0.0
  0
SPLINE
  5
98
330
1F
100
AcDbEntity
  8
Ilustrace
 62
   250
370
    30
100
AcDbSpline
210
0.0
220
0.0
230
1.0
 70
     8
 71
     3
 72
    12
 73
     8
 74
     0
 42
0.0000000001
 43
0.0000000001
 40
0.0
 40
0.0
 40
0.0
 40
0.0
 40
0.3333333333333333
 40
0.3333333333333333
 40
0.3333333333333333
 40
0.3333333333333333
 40
1.0
 40
1.0
 40
1.0
 40
1.0
 10
-13.6702
 20
-9.5158
 30
0.0
 10
-13.6701
 20
-9.5444
 30
0.0
 10
-13.6838
 20
-9.5718
 30
0.0
 10
-13.7067
 20
-9.5888
 30
0.0
 10
-13.7067
 20
-9.5888
 30
0.0
 10
-13.7211
 20
-9.5996
 30
0.0
 10
-13.7388
 20
-9.6056
 30
0.0
 10
-13.7568
 20
-9.6063
 30
0.0
  0
SPLINE
  5
99
330
1F
100
AcDbEntity
  8
Ilustrace
 62
   250
370
    30
100
AcDbSpline
210
0.0
220
0.0
230
1.0
 70
     8
 71
     3
 72
    16
 73
    12
 74
     0
 42
0.0000000001
 43
0.0000000001
 40
0.0
 40
0.0
 40
0.0
 40
0.0
 40
0.25
 40
0.25
 40
0.25
 40
0.25
 40
0.5
 40
0.5
 40
0.5
 40
0.5
 40
1.0
 40
1.0
 40
1.0
 40
1.0
 10
-13.7568
 20
-9.6063
 30
0.0
 10
-13.7568
 20
-9.6063
 30
0.0
 10
-14.1156
 20
-9.6194
 30
0.0
 10
-14.1156
 20
-9.6194
 30
0.0
 10
-14.1156
 20
-9.6194
 30
0.0
 10
-14.1156
 20
-9.6194
 30
0.0
 10
-14.2979
 20
-9.626
 30
0.0
 10
-14.2979
 20
-9.626
 30
0.0
 10
-14.2979
 20
-9.626
 30
0.0
 10
-14.2979
 20
-9.626
 30
0.0
 10
-14.6567
 20
-9.6392
 30
0.0
 10
-14.6567
 20
-9.6392
 30
0.0
  0
SPLINE
  5
9A
330
1F
100
AcDbEntity
  8
Ilustrace
 62
   250
370
    30
100
AcDbSpline
210
0.0
220
0.0
230
1.0
 70
     8
 71
     3
 72
    16
 73
    12
 74
     0
 42
0.0000000001
 43
0.0000000001
 40
0.0
 40
0.0
 40
0.0
 40
0.0
 40
0.25
 40
0.25
 40
0.25
 40
0.25
 40
0.5
 40
0.5
 40
0.5
 40
0.5
 40
1.0
 40
1.0
 40
1.0
 40
1.0
 10
-14.6567
 20
-9.6392
 30
0.0
 10
-14.6824
 20
-9.64
 30
0.0
 10
-14.7069
 20
-9.6523
 30
0.0
 10
-14.7231
 20
-9.6722
 30
0.0
 10
-14.7231
 20
-9.6722
 30
0.0
 10
-14.7667
 20
-9.7259
 30
0.0
 10
-14.761
 20
-9.8473
 30
0.0
 10
-14.6934
 20
-9.8809
 30
0.0
 10
-14.6934
 20
-9.8809
 30
0.0
 10
-14.682
 20
-9.8865
 30
0.0
 10
-14.6694
 20
-9.8897
 30
0.0
 10
-14.6567
 20
-9.8902
 30
0.0
  0
SPLINE
  5
9B
330
1F
100
AcDbEntity
  8
Ilustrace
 62
   250
370
    30
100
AcDbSpline
210
0.0
220
0.0
230
1.0
 70
     8
 71
     3
 72
    20
 73
    16
 74
     0
 42
0.0000000001
 43
0.0000000001
 40
0.0
 40
0.0
 40
0.0
 40
0.0
 40
0.2
 40
0.2
 40
0.2
 40
0.2
 40
0.4
 40
0.4
 40
0.4
 40
0.4
 40
0.6
 40
0.6
 40
0.6
 40
0.6
 40
1.0
 40
1.0
 40
1.0
 40
1.0
 10
-14.6567
 20
-9.8902
 30
0.0
 10
-14.6567
 20
-9.8902
 30
0.0
 10
-14.2979
 20
-9.9033
 30
0.0
 10
-14.2979
 20
-9.9033
 30
0.0
 10
-14.2979
 20
-9.9033
 30
0.0
 10
-14.2979
 20
-9.9033
 30
0.0
 10
-14.1113
 20
-9.9101
 30
0.0
 10
-14.1113
 20
-9.9101
 30
0.0
 10
-14.1113
 20
-9.9101
 30
0.0
 10
-14.1113
 20
-9.9101
 30
0.0
 10
-13.7525
 20
-9.9232
 30
0.0
 10
-13.7525
 20
-9.9232
 30
0.0
 10
-13.7525
 20
-9.9232
 30
0.0
 10
-13.7525
 20
-9.9232
 30
0.0
 10
-13.73
 20
-9.9269
 30
0.0
 10
-13.73
 20
-9.9269
 30
0.0
  0
SPLINE
  5
9C
330
1F
100
AcDbEntity
  8
Ilustrace
 62
   250
370
    30
100
AcDbSpline
210
0.0
220
0.0
230
1.0
 70
     8
 71
     3
 72
    12
 73
     8
 74
     0
 42
0.0000000001
 43
0.0000000001
 40
0.0
 40
0.0
 40
0.0
 40
0.0
 40
0.3333333333333333
 40
0.3333333333333333
 40
0.3333333333333333
 40
0.3333333333333333
 40
1.0
 40
1.0
 40
1.0
 40
1.0
 10
-13.73
 20
-9.9269
 30
0.0
 10
-13.6084
 20
-9.9634
 30
0.0
 10
-13.666
 20
-10.2318
 30
0.0
 10
-13.666
 20
-10.2682
 30
0.0
 10
-13.666
 20
-10.2682
 30
0.0
 10
-13.666
 20
-10.3184
 30
0.0
 10
-13.6257
 20
-10.3554
 30
0.0
 10
-13.5771
 20
-10.3579
 30
0.0
  0
SPLINE
  5
9D
330
1F
100
AcDbEntity
  8
Ilustrace
 62
   250
370
    15
100
AcDbSpline
210
0.0
220
0.0
230
1.0
 70
    24
 71
     3
 72
     8
 73
     4
 74
     0
 42
0.0000000001
 43
0.0000000001
 40
0.0
 40
0.0
 40
0.0
 40
0.0
 40
1.0
 40
1.0
 40
1.0
 40
1.0
 10
4.7644
 20
12.3218
 30
0.0
 10
4.7644
 20
12.3218
 30
0.0
 10
4.7644
 20
16.4431
 30
0.0
 10
4.7644
 20
16.4431
 30
0.0
  0
SPLINE
  5
9E
330
1F
100
AcDbEntity
  8
Ilustrace
 62
   250
370
    15
100
AcDbSpline
210
0.0
220
0.0
230
1.0
 70
    24
 71
     3
 72
     8
 73
     4
 74
     0
 42
0.0000000001
 43
0.0000000001
 40
0.0
 40
0.0
 40
0.0
 40
0.0
 40
1.0
 40
1.0
 40
1.0
 40
1.0
 10
4.2414
 20
-19.4717
 30
0.0
 10
4.2414
 20
-19.4717
 30
0.0
 10
4.2414
 20
-10.1084
 30
0.0
 10
4.2414
 20
-10.1084
 30
0.0
  0
SPLINE
  5
9F
330
1F
100
AcDbEntity
  8
Ilustrace
 62
   250
370
    15
100
AcDbSpline
210
0.0
220
0.0
230
1.0
 70
    24
 71
     3
 72
     8
 73
     4
 74
     0
 42
0.0000000001
 43
0.0000000001
 40
0.0
 40
0.0
 40
0.0
 40
0.0
 40
1.0
 40
1.0
 40
1.0
 40
1.0
 10
5.2396
 20
-23.3324
 30
0.0
 10
5.2396
 20
-23.3324
 30
0.0
 10
5.2396
 20
-5.4392
 30
0.0
 10
5.2396
 20
-5.4392
 30
0.0
  0
SPLINE
  5
A0
330
1F
100
AcDbEntity
  8
Ilustrace
 62
   250
370
    15
100
AcDbSpline
210
0.0
220
0.0
230
1.0
 70
    24
 71
     3
 72
     8
 73
     4
 74
     0
 42
0.0000000001
 43
0.0000000001
 40
0.0
 40
0.0
 40
0.0
 40
0.0
 40
1.0
 40
1.0
 40
1.0
 40
1.0
 10
3.0897
 20
-15.2962
 30
0.0
 10
3.0897
 20
-15.2962
 30
0.0
 10
3.0897
 20
-10.5985
 30
0.0
 10
3.0897
 20
-10.5985
 30
0.0
  0
SPLINE
  5
A1
330
1F
100
AcDbEntity
  8
Ilustrace
 62
   250
370
    15
100
AcDbSpline
210
0.0
220
0.0
230
1.0
 70
    24
 71
     3
 72
     8
 73
     4
 74
     0
 42
0.0000000001
 43
0.0000000001
 40
0.0
 40
0.0
 40
0.0
 40
0.0
 40
1.0
 40
1.0
 40
1.0
 40
1.0
 10
-15.1153
 20
12.6171
 30
0.0
 10
-15.1153
 20
12.6171
 30
0.0
 10
-15.1153
 20
16.4887
 30
0.0
 10
-15.1153
 20
16.4887
 30
0.0
  0
SPLINE
  5
A2
330
1F
100
AcDbEntity
  8
Ilustrace
 62
   250
370
    15
100
AcDbSpline
210
0.0
220
0.0
230
1.0
 70
    24
 71
     3
 72
     8
 73
     4
 74
     0
 42
0.0000000001
 43
0.0000000001
 40
0.0
 40
0.0
 40
0.0
 40
0.0
 40
1.0
 40
1.0
 40
1.0
 40
1.0
 10
-14.7456
 20
-19.2402
 30
0.0
 10
-14.7456
 20
-19.2402
 30
0.0
 10
-14.7456
 20
-10.3274
 30
0.0
 10
-14.7456
 20
-10.3274
 30
0.0
  0
SPLINE
  5
A3
330
1F
100
AcDbEntity
  8
Ilustrace
 62
   250
370
    15
100
AcDbSpline
210
0.0
220
0.0
230
1.0
 70
    24
 71
     3
 72
     8
 73
     4
 74
     0
 42
0.0000000001
 43
0.0000000001
 40
0.0
 40
0.0
 40
0.0
 40
0.0
 40
1.0
 40
1.0
 40
1.0
 40
1.0
 10
-15.8641
 20
-23.2005
 30
0.0
 10
-15.8641
 20
-23.2005
 30
0.0
 10
-15.8641
 20
-5.1619
 30
0.0
 10
-15.8641
 20
-5.1619
 30
0.0
  0
SPLINE
  5
A4
330
1F
100
AcDbEntity
  8
Ilustrace
 62
   250
370
    15
100
AcDbSpline
210
0.0
220
0.0
230
1.0
 70
    24
 71
     3
 72
     8
 73
     4
 74
     0
 42
0.0000000001
 43
0.0000000001
 40
0.0
 40
0.0
 40
0.0
 40
0.0
 40
1.0
 40
1.0
 40
1.0
 40
1.0
 10
-13.7145
 20
-15.2881
 30
0.0
 10
-13.7145
 20
-15.2881
 30
0.0
 10
-13.7145
 20
-10.619
 30
0.0
 10
-13.7145
 20
-10.619
 30
0.0
  0
SPLINE
  5
A5
330
1F
100
AcDbEntity
  8
Ilustrace
 62
   250
370
    15
100
AcDbSpline
210
0.0
220
0.0
230
1.0
 70
    24
 71
     3
 72
     8
 73
     4
 74
     0
 42
0.0000000001
 43
0.0000000001
 40
0.0
 40
0.0
 40
0.0
 40
0.0
 40
1.0
 40
1.0
 40
1.0
 40
1.0
 10
-14.4821
 20
16.1435
 30
0.0
 10
-14.4821
 20
16.1435
 30
0.0
 10
4.2374
 20
16.1435
 30
0.0
 10
4.2374
 20
16.1435
 30
0.0
  0
SPLINE
  5
A6
330
1F
100
AcDbEntity
  8
Ilustrace
 62
   250
370
    15
100
AcDbSpline
210
0.0
220
0.0
230
1.0
 70
    24
 71
     3
 72
     8
 73
     4
 74
     0
 42
0.0000000001
 43
0.0000000001
 40
0.0
 40
0.0
 40
0.0
 40
0.0
 40
1.0
 40
1.0
 40
1.0
 40
1.0
 10
-13.2315
 20
-14.939
 30
0.0
 10
-13.2315
 20
-14.939
 30
0.0
 10
2.3043
 20
-14.939
 30
0.0
 10
2.3043
 20
-14.939
 30
0.0
  0
SPLINE
  5
A7
330
1F
100
AcDbEntity
  8
Ilustrace
 62
   250
370
    15
100
AcDbSpline
210
0.0
220
0.0
230
1.0
 70
    24
 71
     3
 72
     8
 73
     4
 74
     0
 42
0.0000000001
 43
0.0000000001
 40
0.0
 40
0.0
 40
0.0
 40
0.0
 40
1.0
 40
1.0
 40
1.0
 40
1.0
 10
7.297
 20
12.2175
 30
0.0
 10
7.297
 20
12.2175
 30
0.0
 10
17.6711
 20
12.183
 30
0.0
 10
17.6711
 20
12.183
 30
0.0
  0
SPLINE
  5
A8
330
1F
100
AcDbEntity
  8
Ilustrace
 62
   250
370
    15
100
AcDbSpline
210
0.0
220
0.0
230
1.0
 70
    24
 71
     3
 72
     8
 73
     4
 74
     0
 42
0.0000000001
 43
0.0000000001
 40
0.0
 40
0.0
 40
0.0
 40
0.0
 40
1.0
 40
1.0
 40
1.0
 40
1.0
 10
5.0375
 20
-3.1885
 30
0.0
 10
5.0375
 20
-3.1885
 30
0.0
 10
12.8017
 20
-3.223
 30
0.0
 10
12.8017
 20
-3.223
 30
0.0
  0
SPLINE
  5
A9
330
1F
100
AcDbEntity
  8
Ilustrace
 62
   250
370
    15
100
AcDbSpline
210
0.0
220
0.0
230
1.0
 70
    24
 71
     3
 72
     8
 73
     4
 74
     0
 42
0.0000000001
 43
0.0000000001
 40
0.0
 40
0.0
 40
0.0
 40
0.0
 40
1.0
 40
1.0
 40
1.0
 40
1.0
 10
3.3602
 20
-10.3739
 30
0.0
 10
3.3602
 20
-10.3739
 30
0.0
 10
17.6712
 20
-10.3739
 30
0.0
 10
17.6712
 20
-10.3739
 30
0.0
  0
SPLINE
  5
AA
330
1F
100
AcDbEntity
  8
Ilustrace
 62
   250
370
    15
100
AcDbSpline
210
0.0
220
0.0
230
1.0
 70
    24
 71
     3
 72
     8
 73
     4
 74
     0
 42
0.0000000001
 43
0.0000000001
 40
0.0
 40
0.0
 40
0.0
 40
0.0
 40
1.0
 40
1.0
 40
1.0
 40
1.0
 10
17.1729
 20
-9.7141
 30
0.0
 10
17.1729
 20
-9.7141
 30
0.0
 10
17.1729
 20
11.7561
 30
0.0
 10
17.1729
 20
11.7561
 30
0.0
  0
SPLINE
  5
AB
330
1F
100
AcDbEntity
  8
Ilustrace
 62
   250
100
AcDbSpline
210
0.0
220
0.0
230
1.0
 70
    11
 71
     3
 72
   104
 73
   100
 74
     0
 42
0.0000000001
 43
0.0000000001
 40
0.0
 40
0.0
 40
0.0
 40
0.0
 40
0.0384615384615385
 40
0.0384615384615385
 40
0.0384615384615385
 40
0.0384615384615385
 40
0.0769230769230769
 40
0.0769230769230769
 40
0.0769230769230769
 40
0.0769230769230769
 40
0.1153846153846154
 40
0.1153846153846154
 40
0.1153846153846154
 40
0.1153846153846154
 40
0.1538461538461539
 40
0.1538461538461539
 40
0.1538461538461539
 40
0.1538461538461539
 40
0.1923076923076923
 40
0.1923076923076923
 40
0.1923076923076923
 40
0.1923076923076923
 40
0.2307692307692308
 40
0.2307692307692308
 40
0.2307692307692308
 40
0.2307692307692308
 40
0.2692307692307692
 40
0.2692307692307692
 40
0.2692307692307692
 40
0.2692307692307692
 40
0.3076923076923077
 40
0.3076923076923077
 40
0.3076923076923077
 40
0.3076923076923077
 40
0.3461538461538461
 40
0.3461538461538461
 40
0.3461538461538461
 40
0.3461538461538461
 40
0.3846153846153846
 40
0.3846153846153846
 40
0.3846153846153846
 40
0.3846153846153846
 40
0.4230769230769231
 40
0.4230769230769231
 40
0.4230769230769231
 40
0.4230769230769231
 40
0.4615384615384616
 40
0.4615384615384616
 40
0.4615384615384616
 40
0.4615384615384616
 40
0.5
 40
0.5
 40
0.5
 40
0.5
 40
0.5384615384615384
 40
0.5384615384615384
 40
0.5384615384615384
 40
0.5384615384615384
 40
0.5769230769230769
 40
0.5769230769230769
 40
0.5769230769230769
 40
0.5769230769230769
 40
0.6153846153846154
 40
0.6153846153846154
 40
0.6153846153846154
 40
0.6153846153846154
 40
0.6538461538461539
 40
0.6538461538461539
 40
0.6538461538461539
 40
0.6538461538461539
 40
0.6923076923076923
 40
0.6923076923076923
 40
0.6923076923076923
 40
0.6923076923076923
 40
0.7307692307692307
 40
0.7307692307692307
 40
0.7307692307692307
 40
0.7307692307692307
 40
0.7692307692307693
 40
0.7692307692307693
 40
0.7692307692307693
 40
0.7692307692307693
 40
0.8076923076923077
 40
0.8076923076923077
 40
0.8076923076923077
 40
0.8076923076923077
 40
0.8461538461538461
 40
0.8461538461538461
 40
0.8461538461538461
 40
0.8461538461538461
 40
0.8846153846153846
 40
0.8846153846153846
 40
0.8846153846153846
 40
0.8846153846153846
 40
0.9230769230769231
 40
0.9230769230769231
 40
0.9230769230769231
 40
0.9230769230769231
 40
1.0
 40
1.0
 40
1.0
 40
1.0
 10
-11.819
 20
16.4056
 30
0.0
 10
-11.819
 20
16.4056
 30
0.0
 10
-11.5745
 20
16.7394
 30
0.0
 10
-11.5745
 20
16.7394
 30
0.0
 10
-11.5745
 20
16.7394
 30
0.0
 10
-11.4807
 20
16.6715
 30
0.0
 10
-11.3779
 20
16.6191
 30
0.0
 10
-11.2666
 20
16.5835
 30
0.0
 10
-11.2666
 20
16.5835
 30
0.0
 10
-11.1547
 20
16.5479
 30
0.0
 10
-11.0377
 20
16.5298
 30
0.0
 10
-10.9148
 20
16.5298
 30
0.0
 10
-10.9148
 20
16.5298
 30
0.0
 10
-10.7887
 20
16.5298
 30
0.0
 10
-10.6664
 20
16.5486
 30
0.0
 10
-10.5494
 20
16.5854
 30
0.0
 10
-10.5494
 20
16.5854
 30
0.0
 10
-10.4323
 20
16.6223
 30
0.0
 10
-10.3236
 20
16.6773
 30
0.0
 10
-10.224
 20
16.751
 30
0.0
 10
-10.224
 20
16.751
 30
0.0
 10
-10.1238
 20
16.8241
 30
0.0
 10
-10.0365
 20
16.9159
 30
0.0
 10
-9.9615
 20
17.0259
 30
0.0
 10
-9.9615
 20
17.0259
 30
0.0
 10
-9.8871
 20
17.1358
 30
0.0
 10
-9.8289
 20
17.2639
 30
0.0
 10
-9.7868
 20
17.4107
 30
0.0
 10
-9.7868
 20
17.4107
 30
0.0
 10
-9.7454
 20
17.5569
 30
0.0
 10
-9.7241
 20
17.7212
 30
0.0
 10
-9.7234
 20
17.9035
 30
0.0
 10
-9.7234
 20
17.9035
 30
0.0
 10
-9.7234
 20
18.0323
 30
0.0
 10
-9.7364
 20
18.1545
 30
0.0
 10
-9.7629
 20
18.2709
 30
0.0
 10
-9.7629
 20
18.2709
 30
0.0
 10
-9.7888
 20
18.388
 30
0.0
 10
-9.8269
 20
18.4966
 30
0.0
 10
-9.8767
 20
18.5969
 30
0.0
 10
-9.8767
 20
18.5969
 30
0.0
 10
-9.9272
 20
18.6971
 30
0.0
 10
-9.9886
 20
18.7864
 30
0.0
 10
-10.0611
 20
18.8659
 30
0.0
 10
-10.0611
 20
18.8659
 30
0.0
 10
-10.0611
 20
18.8659
 30
0.0
 10
-9.8205
 20
19.1997
 30
0.0
 10
-9.8205
 20
19.1997
 30
0.0
 10
-9.8205
 20
19.1997
 30
0.0
 10
-9.8205
 20
19.1997
 30
0.0
 10
-10.0261
 20
19.3394
 30
0.0
 10
-10.0261
 20
19.3394
 30
0.0
 10
-10.0261
 20
19.3394
 30
0.0
 10
-10.0261
 20
19.3394
 30
0.0
 10
-10.2551
 20
19.025
 30
0.0
 10
-10.2551
 20
19.025
 30
0.0
 10
-10.2551
 20
19.025
 30
0.0
 10
-10.3489
 20
19.0949
 30
0.0
 10
-10.4504
 20
19.1473
 30
0.0
 10
-10.5604
 20
19.1822
 30
0.0
 10
-10.5604
 20
19.1822
 30
0.0
 10
-10.671
 20
19.2171
 30
0.0
 10
-10.7861
 20
19.2346
 30
0.0
 10
-10.907
 20
19.2346
 30
0.0
 10
-10.907
 20
19.2346
 30
0.0
 10
-11.0797
 20
19.2339
 30
0.0
 10
-11.2388
 20
19.2016
 30
0.0
 10
-11.3856
 20
19.1376
 30
0.0
 10
-11.3856
 20
19.1376
 30
0.0
 10
-11.5318
 20
19.0735
 30
0.0
 10
-11.6592
 20
18.9811
 30
0.0
 10
-11.7679
 20
18.8614
 30
0.0
 10
-11.7679
 20
18.8614
 30
0.0
 10
-11.8772
 20
18.7418
 30
0.0
 10
-11.9613
 20
18.5982
 30
0.0
 10
-12.0221
 20
18.4307
 30
0.0
 10
-12.0221
 20
18.4307
 30
0.0
 10
-12.0822
 20
18.2631
 30
0.0
 10
-12.1133
 20
18.0762
 30
0.0
 10
-12.1139
 20
17.8686
 30
0.0
 10
-12.1139
 20
17.8686
 30
0.0
 10
-12.1139
 20
17.738
 30
0.0
 10
-12.0997
 20
17.6131
 30
0.0
 10
-12.0725
 20
17.4954
 30
0.0
 10
-12.0725
 20
17.4954
 30
0.0
 10
-12.0453
 20
17.3777
 30
0.0
 10
-12.0059
 20
17.2684
 30
0.0
 10
-11.9548
 20
17.1682
 30
0.0
 10
-11.9548
 20
17.1682
 30
0.0
 10
-11.9031
 20
17.0679
 30
0.0
 10
-11.841
 20
16.978
 30
0.0
 10
-11.7685
 20
16.8985
 30
0.0
 10
-11.7685
 20
16.8985
 30
0.0
 10
-11.7685
 20
16.8985
 30
0.0
 10
-12.0091
 20
16.5609
 30
0.0
 10
-12.0091
 20
16.5609
 30
0.0
 10
-12.0091
 20
16.5609
 30
0.0
 10
-12.0091
 20
16.5609
 30
0.0
 10
-11.819
 20
16.4056
 30
0.0
 10
-11.819
 20
16.4056
 30
0.0
  0
SPLINE
  5
AC
330
1F
100
AcDbEntity
  8
Ilustrace
 62
   250
100
AcDbSpline
210
0.0
220
0.0
230
1.0
 70
    11
 71
     3
 72
    52
 73
    48
 74
     0
 42
0.0000000001
 43
0.0000000001
 40
0.0
 40
0.0
 40
0.0
 40
0.0
 40
0.0769230769230769
 40
0.0769230769230769
 40
0.0769230769230769
 40
0.0769230769230769
 40
0.1538461538461539
 40
0.1538461538461539
 40
0.1538461538461539
 40
0.1538461538461539
 40
0.2307692307692308
 40
0.2307692307692308
 40
0.2307692307692308
 40
0.2307692307692308
 40
0.3076923076923077
 40
0.3076923076923077
 40
0.3076923076923077
 40
0.3076923076923077
 40
0.3846153846153846
 40
0.3846153846153846
 40
0.3846153846153846
 40
0.3846153846153846
 40
0.4615384615384616
 40
0.4615384615384616
 40
0.4615384615384616
 40
0.4615384615384616
 40
0.5384615384615384
 40
0.5384615384615384
 40
0.5384615384615384
 40
0.5384615384615384
 40
0.6153846153846154
 40
0.6153846153846154
 40
0.6153846153846154
 40
0.6153846153846154
 40
0.6923076923076923
 40
0.6923076923076923
 40
0.6923076923076923
 40
0.6923076923076923
 40
0.7692307692307693
 40
0.7692307692307693
 40
0.7692307692307693
 40
0.7692307692307693
 40
0.8461538461538461
 40
0.8461538461538461
 40
0.8461538461538461
 40
0.8461538461538461
 40
1.0
 40
1.0
 40
1.0
 40
1.0
 10
-11.5706
 20
17.1856
 30
0.0
 10
-11.5706
 20
17.1856
 30
0.0
 10
-11.5784
 20
17.1818
 30
0.0
 10
-11.5784
 20
17.1818
 30
0.0
 10
-11.5784
 20
17.1818
 30
0.0
 10
-11.6172
 20
17.2484
 30
0.0
 10
-11.6508
 20
17.3176
 30
0.0
 10
-11.6793
 20
17.3887
 30
0.0
 10
-11.6793
 20
17.3887
 30
0.0
 10
-11.7077
 20
17.4605
 30
0.0
 10
-11.7297
 20
17.5362
 30
0.0
 10
-11.7452
 20
17.6177
 30
0.0
 10
-11.7452
 20
17.6177
 30
0.0
 10
-11.7608
 20
17.6985
 30
0.0
 10
-11.7685
 20
17.7878
 30
0.0
 10
-11.7685
 20
17.8841
 30
0.0
 10
-11.7685
 20
17.8841
 30
0.0
 10
-11.7685
 20
17.9954
 30
0.0
 10
-11.7569
 20
18.1027
 30
0.0
 10
-11.7342
 20
18.2082
 30
0.0
 10
-11.7342
 20
18.2082
 30
0.0
 10
-11.711
 20
18.3129
 30
0.0
 10
-11.6767
 20
18.4113
 30
0.0
 10
-11.6314
 20
18.5018
 30
0.0
 10
-11.6314
 20
18.5018
 30
0.0
 10
-11.5855
 20
18.593
 30
0.0
 10
-11.5286
 20
18.6732
 30
0.0
 10
-11.46
 20
18.7418
 30
0.0
 10
-11.46
 20
18.7418
 30
0.0
 10
-11.3915
 20
18.811
 30
0.0
 10
-11.3119
 20
18.8646
 30
0.0
 10
-11.2214
 20
18.9034
 30
0.0
 10
-11.2214
 20
18.9034
 30
0.0
 10
-11.1302
 20
18.9429
 30
0.0
 10
-11.028
 20
18.9623
 30
0.0
 10
-10.9148
 20
18.9629
 30
0.0
 10
-10.9148
 20
18.9629
 30
0.0
 10
-10.8158
 20
18.9623
 30
0.0
 10
-10.7253
 20
18.9461
 30
0.0
 10
-10.6438
 20
18.9138
 30
0.0
 10
-10.6438
 20
18.9138
 30
0.0
 10
-10.5617
 20
18.8821
 30
0.0
 10
-10.4879
 20
18.8375
 30
0.0
 10
-10.422
 20
18.7806
 30
0.0
 10
-10.422
 20
18.7806
 30
0.0
 10
-10.422
 20
18.7806
 30
0.0
 10
-11.5706
 20
17.1856
 30
0.0
 10
-11.5706
 20
17.1856
 30
0.0
  0
SPLINE
  5
AD
330
1F
100
AcDbEntity
  8
Ilustrace
 62
   250
100
AcDbSpline
210
0.0
220
0.0
230
1.0
 70
    11
 71
     3
 72
    48
 73
    44
 74
     0
 42
0.0000000001
 43
0.0000000001
 40
0.0
 40
0.0
 40
0.0
 40
0.0
 40
0.0833333333333333
 40
0.0833333333333333
 40
0.0833333333333333
 40
0.0833333333333333
 40
0.1666666666666667
 40
0.1666666666666667
 40
0.1666666666666667
 40
0.1666666666666667
 40
0.25
 40
0.25
 40
0.25
 40
0.25
 40
0.3333333333333333
 40
0.3333333333333333
 40
0.3333333333333333
 40
0.3333333333333333
 40
0.4166666666666667
 40
0.4166666666666667
 40
0.4166666666666667
 40
0.4166666666666667
 40
0.5
 40
0.5
 40
0.5
 40
0.5
 40
0.5833333333333334
 40
0.5833333333333334
 40
0.5833333333333334
 40
0.5833333333333334
 40
0.6666666666666666
 40
0.6666666666666666
 40
0.6666666666666666
 40
0.6666666666666666
 40
0.75
 40
0.75
 40
0.75
 40
0.75
 40
0.8333333333333334
 40
0.8333333333333334
 40
0.8333333333333334
 40
0.8333333333333334
 40
1.0
 40
1.0
 40
1.0
 40
1.0
 10
-10.2629
 20
18.5749
 30
0.0
 10
-10.2629
 20
18.5749
 30
0.0
 10
-10.2512
 20
18.5749
 30
0.0
 10
-10.2512
 20
18.5749
 30
0.0
 10
-10.2512
 20
18.5749
 30
0.0
 10
-10.1839
 20
18.4624
 30
0.0
 10
-10.1367
 20
18.3485
 30
0.0
 10
-10.1089
 20
18.2334
 30
0.0
 10
-10.1089
 20
18.2334
 30
0.0
 10
-10.0811
 20
18.1189
 30
0.0
 10
-10.0675
 20
18.0051
 30
0.0
 10
-10.0688
 20
17.8919
 30
0.0
 10
-10.0688
 20
17.8919
 30
0.0
 10
-10.0688
 20
17.7742
 30
0.0
 10
-10.0811
 20
17.6617
 30
0.0
 10
-10.105
 20
17.5536
 30
0.0
 10
-10.105
 20
17.5536
 30
0.0
 10
-10.129
 20
17.4456
 30
0.0
 10
-10.1645
 20
17.346
 30
0.0
 10
-10.2111
 20
17.2548
 30
0.0
 10
-10.2111
 20
17.2548
 30
0.0
 10
-10.2583
 20
17.1636
 30
0.0
 10
-10.3159
 20
17.0841
 30
0.0
 10
-10.3844
 20
17.0168
 30
0.0
 10
-10.3844
 20
17.0168
 30
0.0
 10
-10.4536
 20
16.9489
 30
0.0
 10
-10.5326
 20
16.8959
 30
0.0
 10
-10.6218
 20
16.8584
 30
0.0
 10
-10.6218
 20
16.8584
 30
0.0
 10
-10.7111
 20
16.8209
 30
0.0
 10
-10.81
 20
16.8021
 30
0.0
 10
-10.9187
 20
16.8015
 30
0.0
 10
-10.9187
 20
16.8015
 30
0.0
 10
-11.0241
 20
16.8015
 30
0.0
 10
-11.1166
 20
16.8176
 30
0.0
 10
-11.1948
 20
16.8493
 30
0.0
 10
-11.1948
 20
16.8493
 30
0.0
 10
-11.2737
 20
16.881
 30
0.0
 10
-11.3442
 20
16.9276
 30
0.0
 10
-11.4076
 20
16.9877
 30
0.0
 10
-11.4076
 20
16.9877
 30
0.0
 10
-11.4076
 20
16.9877
 30
0.0
 10
-10.2629
 20
18.5749
 30
0.0
 10
-10.2629
 20
18.5749
 30
0.0
  0
SPLINE
  5
AE
330
1F
100
AcDbEntity
  8
Ilustrace
 62
   250
100
AcDbSpline
210
0.0
220
0.0
230
1.0
 70
    11
 71
     3
 72
   124
 73
   120
 74
     0
 42
0.0000000001
 43
0.0000000001
 40
0.0
 40
0.0
 40
0.0
 40
0.0
 40
0.032258064516129
 40
0.032258064516129
 40
0.032258064516129
 40
0.032258064516129
 40
0.0645161290322581
 40
0.0645161290322581
 40
0.0645161290322581
 40
0.0645161290322581
 40
0.0967741935483871
 40
0.0967741935483871
 40
0.0967741935483871
 40
0.0967741935483871
 40
0.1290322580645161
 40
0.1290322580645161
 40
0.1290322580645161
 40
0.1290322580645161
 40
0.1612903225806452
 40
0.1612903225806452
 40
0.1612903225806452
 40
0.1612903225806452
 40
0.1935483870967742
 40
0.1935483870967742
 40
0.1935483870967742
 40
0.1935483870967742
 40
0.2258064516129032
 40
0.2258064516129032
 40
0.2258064516129032
 40
0.2258064516129032
 40
0.2580645161290323
 40
0.2580645161290323
 40
0.2580645161290323
 40
0.2580645161290323
 40
0.2903225806451613
 40
0.2903225806451613
 40
0.2903225806451613
 40
0.2903225806451613
 40
0.3225806451612903
 40
0.3225806451612903
 40
0.3225806451612903
 40
0.3225806451612903
 40
0.3548387096774194
 40
0.3548387096774194
 40
0.3548387096774194
 40
0.3548387096774194
 40
0.3870967741935484
 40
0.3870967741935484
 40
0.3870967741935484
 40
0.3870967741935484
 40
0.4193548387096774
 40
0.4193548387096774
 40
0.4193548387096774
 40
0.4193548387096774
 40
0.4516129032258064
 40
0.4516129032258064
 40
0.4516129032258064
 40
0.4516129032258064
 40
0.4838709677419355
 40
0.4838709677419355
 40
0.4838709677419355
 40
0.4838709677419355
 40
0.5161290322580645
 40
0.5161290322580645
 40
0.5161290322580645
 40
0.5161290322580645
 40
0.5483870967741935
 40
0.5483870967741935
 40
0.5483870967741935
 40
0.5483870967741935
 40
0.5806451612903226
 40
0.5806451612903226
 40
0.5806451612903226
 40
0.5806451612903226
 40
0.6129032258064516
 40
0.6129032258064516
 40
0.6129032258064516
 40
0.6129032258064516
 40
0.6451612903225806
 40
0.6451612903225806
 40
0.6451612903225806
 40
0.6451612903225806
 40
0.6774193548387096
 40
0.6774193548387096
 40
0.6774193548387096
 40
0.6774193548387096
 40
0.7096774193548387
 40
0.7096774193548387
 40
0.7096774193548387
 40
0.7096774193548387
 40
0.7419354838709677
 40
0.7419354838709677
 40
0.7419354838709677
 40
0.7419354838709677
 40
0.7741935483870968
 40
0.7741935483870968
 40
0.7741935483870968
 40
0.7741935483870968
 40
0.8064516129032258
 40
0.8064516129032258
 40
0.8064516129032258
 40
0.8064516129032258
 40
0.8387096774193549
 40
0.8387096774193549
 40
0.8387096774193549
 40
0.8387096774193549
 40
0.8709677419354839
 40
0.8709677419354839
 40
0.8709677419354839
 40
0.8709677419354839
 40
0.9032258064516129
 40
0.9032258064516129
 40
0.9032258064516129
 40
0.9032258064516129
 40
0.9354838709677419
 40
0.9354838709677419
 40
0.9354838709677419
 40
0.9354838709677419
 40
1.0
 40
1.0
 40
1.0
 40
1.0
 10
-8.9357
 20
17.888
 30
0.0
 10
-9.0398
 20
17.844
 30
0.0
 10
-9.1291
 20
17.7891
 30
0.0
 10
-9.2035
 20
17.7244
 30
0.0
 10
-9.2035
 20
17.7244
 30
0.0
 10
-9.2779
 20
17.6591
 30
0.0
 10
-9.3354
 20
17.5834
 30
0.0
 10
-9.3755
 20
17.4974
 30
0.0
 10
-9.3755
 20
17.4974
 30
0.0
 10
-9.4156
 20
17.4114
 30
0.0
 10
-9.4357
 20
17.315
 30
0.0
 10
-9.4363
 20
17.2089
 30
0.0
 10
-9.4363
 20
17.2089
 30
0.0
 10
-9.4357
 20
17.1158
 30
0.0
 10
-9.4169
 20
17.0291
 30
0.0
 10
-9.3781
 20
16.947
 30
0.0
 10
-9.3781
 20
16.947
 30
0.0
 10
-9.3399
 20
16.8655
 30
0.0
 10
-9.2843
 20
16.7937
 30
0.0
 10
-9.2112
 20
16.731
 30
0.0
 10
-9.2112
 20
16.731
 30
0.0
 10
-9.1382
 20
16.6689
 30
0.0
 10
-9.0496
 20
16.6197
 30
0.0
 10
-8.9454
 20
16.5841
 30
0.0
 10
-8.9454
 20
16.5841
 30
0.0
 10
-8.8406
 20
16.5486
 30
0.0
 10
-8.7223
 20
16.5305
 30
0.0
 10
-8.5903
 20
16.5298
 30
0.0
 10
-8.5903
 20
16.5298
 30
0.0
 10
-8.4694
 20
16.5305
 30
0.0
 10
-8.3569
 20
16.5479
 30
0.0
 10
-8.2534
 20
16.5822
 30
0.0
 10
-8.2534
 20
16.5822
 30
0.0
 10
-8.1499
 20
16.6165
 30
0.0
 10
-8.0587
 20
16.6663
 30
0.0
 10
-7.9811
 20
16.731
 30
0.0
 10
-7.9811
 20
16.731
 30
0.0
 10
-7.9035
 20
16.795
 30
0.0
 10
-7.8427
 20
16.872
 30
0.0
 10
-7.7994
 20
16.9619
 30
0.0
 10
-7.7994
 20
16.9619
 30
0.0
 10
-7.7554
 20
17.0518
 30
0.0
 10
-7.7334
 20
17.152
 30
0.0
 10
-7.7327
 20
17.2632
 30
0.0
 10
-7.7327
 20
17.2632
 30
0.0
 10
-7.7334
 20
17.3641
 30
0.0
 10
-7.7541
 20
17.456
 30
0.0
 10
-7.7948
 20
17.5394
 30
0.0
 10
-7.7948
 20
17.5394
 30
0.0
 10
-7.8356
 20
17.6222
 30
0.0
 10
-7.8938
 20
17.6953
 30
0.0
 10
-7.9695
 20
17.758
 30
0.0
 10
-7.9695
 20
17.758
 30
0.0
 10
-8.0451
 20
17.8214
 30
0.0
 10
-8.1357
 20
17.8738
 30
0.0
 10
-8.2411
 20
17.9152
 30
0.0
 10
-8.2411
 20
17.9152
 30
0.0
 10
-8.2411
 20
17.9152
 30
0.0
 10
-8.2411
 20
17.9268
 30
0.0
 10
-8.2411
 20
17.9268
 30
0.0
 10
-8.2411
 20
17.9268
 30
0.0
 10
-8.1383
 20
17.9753
 30
0.0
 10
-8.0561
 20
18.0316
 30
0.0
 10
-7.9947
 20
18.0963
 30
0.0
 10
-7.9947
 20
18.0963
 30
0.0
 10
-7.9332
 20
18.1603
 30
0.0
 10
-7.8886
 20
18.2289
 30
0.0
 10
-7.8614
 20
18.3007
 30
0.0
 10
-7.8614
 20
18.3007
 30
0.0
 10
-7.8349
 20
18.3731
 30
0.0
 10
-7.8213
 20
18.4449
 30
0.0
 10
-7.822
 20
18.5167
 30
0.0
 10
-7.822
 20
18.5167
 30
0.0
 10
-7.822
 20
18.5969
 30
0.0
 10
-7.8375
 20
18.6745
 30
0.0
 10
-7.8686
 20
18.7482
 30
0.0
 10
-7.8686
 20
18.7482
 30
0.0
 10
-7.8996
 20
18.822
 30
0.0
 10
-7.9455
 20
18.8879
 30
0.0
 10
-8.007
 20
18.9468
 30
0.0
 10
-8.007
 20
18.9468
 30
0.0
 10
-8.0691
 20
19.005
 30
0.0
 10
-8.146
 20
19.0516
 30
0.0
 10
-8.2379
 20
19.0852
 30
0.0
 10
-8.2379
 20
19.0852
 30
0.0
 10
-8.3297
 20
19.1195
 30
0.0
 10
-8.4371
 20
19.1369
 30
0.0
 10
-8.5593
 20
19.1376
 30
0.0
 10
-8.5593
 20
19.1376
 30
0.0
 10
-8.6712
 20
19.1369
 30
0.0
 10
-8.7753
 20
19.1208
 30
0.0
 10
-8.8698
 20
19.0891
 30
0.0
 10
-8.8698
 20
19.0891
 30
0.0
 10
-8.9648
 20
19.0567
 30
0.0
 10
-9.0476
 20
19.0115
 30
0.0
 10
-9.1188
 20
18.952
 30
0.0
 10
-9.1188
 20
18.952
 30
0.0
 10
-9.1893
 20
18.8925
 30
0.0
 10
-9.2442
 20
18.822
 30
0.0
 10
-9.2837
 20
18.7398
 30
0.0
 10
-9.2837
 20
18.7398
 30
0.0
 10
-9.3225
 20
18.6577
 30
0.0
 10
-9.3425
 20
18.5665
 30
0.0
 10
-9.3432
 20
18.4662
 30
0.0
 10
-9.3432
 20
18.4662
 30
0.0
 10
-9.3432
 20
18.3931
 30
0.0
 10
-9.3296
 20
18.322
 30
0.0
 10
-9.3011
 20
18.2522
 30
0.0
 10
-9.3011
 20
18.2522
 30
0.0
 10
-9.2733
 20
18.1823
 30
0.0
 10
-9.2294
 20
18.117
 30
0.0
 10
-9.1698
 20
18.0568
 30
0.0
 10
-9.1698
 20
18.0568
 30
0.0
 10
-9.1103
 20
17.9967
 30
0.0
 10
-9.034
 20
17.9443
 30
0.0
 10
-8.9396
 20
17.8997
 30
0.0
 10
-8.9396
 20
17.8997
 30
0.0
 10
-8.9396
 20
17.8997
 30
0.0
 10
-8.9357
 20
17.888
 30
0.0
 10
-8.9357
 20
17.888
 30
0.0
  0
SPLINE
  5
AF
330
1F
100
AcDbEntity
  8
Ilustrace
 62
   250
100
AcDbSpline
210
0.0
220
0.0
230
1.0
 70
    11
 71
     3
 72
    56
 73
    52
 74
     0
 42
0.0000000001
 43
0.0000000001
 40
0.0
 40
0.0
 40
0.0
 40
0.0
 40
0.0714285714285714
 40
0.0714285714285714
 40
0.0714285714285714
 40
0.0714285714285714
 40
0.1428571428571428
 40
0.1428571428571428
 40
0.1428571428571428
 40
0.1428571428571428
 40
0.2142857142857143
 40
0.2142857142857143
 40
0.2142857142857143
 40
0.2142857142857143
 40
0.2857142857142857
 40
0.2857142857142857
 40
0.2857142857142857
 40
0.2857142857142857
 40
0.3571428571428572
 40
0.3571428571428572
 40
0.3571428571428572
 40
0.3571428571428572
 40
0.4285714285714285
 40
0.4285714285714285
 40
0.4285714285714285
 40
0.4285714285714285
 40
0.5
 40
0.5
 40
0.5
 40
0.5
 40
0.5714285714285714
 40
0.5714285714285714
 40
0.5714285714285714
 40
0.5714285714285714
 40
0.6428571428571429
 40
0.6428571428571429
 40
0.6428571428571429
 40
0.6428571428571429
 40
0.7142857142857143
 40
0.7142857142857143
 40
0.7142857142857143
 40
0.7142857142857143
 40
0.7857142857142857
 40
0.7857142857142857
 40
0.7857142857142857
 40
0.7857142857142857
 40
0.8571428571428571
 40
0.8571428571428571
 40
0.8571428571428571
 40
0.8571428571428571
 40
1.0
 40
1.0
 40
1.0
 40
1.0
 10
-8.5826
 20
16.7782
 30
0.0
 10
-8.6634
 20
16.7788
 30
0.0
 10
-8.7352
 20
16.7918
 30
0.0
 10
-8.7986
 20
16.817
 30
0.0
 10
-8.7986
 20
16.817
 30
0.0
 10
-8.8626
 20
16.8428
 30
0.0
 10
-8.9163
 20
16.8778
 30
0.0
 10
-8.9603
 20
16.9224
 30
0.0
 10
-8.9603
 20
16.9224
 30
0.0
 10
-9.0036
 20
16.9664
 30
0.0
 10
-9.0366
 20
17.0175
 30
0.0
 10
-9.0586
 20
17.0744
 30
0.0
 10
-9.0586
 20
17.0744
 30
0.0
 10
-9.0799
 20
17.1313
 30
0.0
 10
-9.0897
 20
17.1921
 30
0.0
 10
-9.0871
 20
17.2555
 30
0.0
 10
-9.0871
 20
17.2555
 30
0.0
 10
-9.0871
 20
17.3363
 30
0.0
 10
-9.0696
 20
17.4107
 30
0.0
 10
-9.0347
 20
17.4793
 30
0.0
 10
-9.0347
 20
17.4793
 30
0.0
 10
-9.0004
 20
17.5478
 30
0.0
 10
-8.9493
 20
17.608
 30
0.0
 10
-8.882
 20
17.6591
 30
0.0
 10
-8.882
 20
17.6591
 30
0.0
 10
-8.8141
 20
17.7102
 30
0.0
 10
-8.7313
 20
17.7503
 30
0.0
 10
-8.633
 20
17.7794
 30
0.0
 10
-8.633
 20
17.7794
 30
0.0
 10
-8.5186
 20
17.7477
 30
0.0
 10
-8.4202
 20
17.7082
 30
0.0
 10
-8.3375
 20
17.6604
 30
0.0
 10
-8.3375
 20
17.6604
 30
0.0
 10
-8.2547
 20
17.6131
 30
0.0
 10
-8.1906
 20
17.5543
 30
0.0
 10
-8.146
 20
17.4844
 30
0.0
 10
-8.146
 20
17.4844
 30
0.0
 10
-8.1014
 20
17.4139
 30
0.0
 10
-8.0788
 20
17.3286
 30
0.0
 10
-8.0781
 20
17.2283
 30
0.0
 10
-8.0781
 20
17.2283
 30
0.0
 10
-8.0788
 20
17.141
 30
0.0
 10
-8.0995
 20
17.0634
 30
0.0
 10
-8.1408
 20
16.9961
 30
0.0
 10
-8.1408
 20
16.9961
 30
0.0
 10
-8.1822
 20
16.9289
 30
0.0
 10
-8.2404
 20
16.8758
 30
0.0
 10
-8.3155
 20
16.837
 30
0.0
 10
-8.3155
 20
16.837
 30
0.0
 10
-8.3905
 20
16.7982
 30
0.0
 10
-8.4797
 20
16.7788
 30
0.0
 10
-8.5826
 20
16.7782
 30
0.0
  0
SPLINE
  5
B0
330
1F
100
AcDbEntity
  8
Ilustrace
 62
   250
100
AcDbSpline
210
0.0
220
0.0
230
1.0
 70
    11
 71
     3
 72
    56
 73
    52
 74
     0
 42
0.0000000001
 43
0.0000000001
 40
0.0
 40
0.0
 40
0.0
 40
0.0
 40
0.0714285714285714
 40
0.0714285714285714
 40
0.0714285714285714
 40
0.0714285714285714
 40
0.1428571428571428
 40
0.1428571428571428
 40
0.1428571428571428
 40
0.1428571428571428
 40
0.2142857142857143
 40
0.2142857142857143
 40
0.2142857142857143
 40
0.2142857142857143
 40
0.2857142857142857
 40
0.2857142857142857
 40
0.2857142857142857
 40
0.2857142857142857
 40
0.3571428571428572
 40
0.3571428571428572
 40
0.3571428571428572
 40
0.3571428571428572
 40
0.4285714285714285
 40
0.4285714285714285
 40
0.4285714285714285
 40
0.4285714285714285
 40
0.5
 40
0.5
 40
0.5
 40
0.5
 40
0.5714285714285714
 40
0.5714285714285714
 40
0.5714285714285714
 40
0.5714285714285714
 40
0.6428571428571429
 40
0.6428571428571429
 40
0.6428571428571429
 40
0.6428571428571429
 40
0.7142857142857143
 40
0.7142857142857143
 40
0.7142857142857143
 40
0.7142857142857143
 40
0.7857142857142857
 40
0.7857142857142857
 40
0.7857142857142857
 40
0.7857142857142857
 40
0.8571428571428571
 40
0.8571428571428571
 40
0.8571428571428571
 40
0.8571428571428571
 40
1.0
 40
1.0
 40
1.0
 40
1.0
 10
-8.5787
 20
18.8931
 30
0.0
 10
-8.5024
 20
18.8925
 30
0.0
 10
-8.4371
 20
18.8808
 30
0.0
 10
-8.3827
 20
18.8575
 30
0.0
 10
-8.3827
 20
18.8575
 30
0.0
 10
-8.3284
 20
18.8342
 30
0.0
 10
-8.2844
 20
18.8026
 30
0.0
 10
-8.2501
 20
18.7631
 30
0.0
 10
-8.2501
 20
18.7631
 30
0.0
 10
-8.2165
 20
18.7236
 30
0.0
 10
-8.1913
 20
18.6797
 30
0.0
 10
-8.1751
 20
18.6312
 30
0.0
 10
-8.1751
 20
18.6312
 30
0.0
 10
-8.1596
 20
18.5827
 30
0.0
 10
-8.1518
 20
18.5328
 30
0.0
 10
-8.1518
 20
18.4818
 30
0.0
 10
-8.1518
 20
18.4818
 30
0.0
 10
-8.1525
 20
18.4054
 30
0.0
 10
-8.1693
 20
18.3375
 30
0.0
 10
-8.2029
 20
18.278
 30
0.0
 10
-8.2029
 20
18.278
 30
0.0
 10
-8.2366
 20
18.2179
 30
0.0
 10
-8.2818
 20
18.1668
 30
0.0
 10
-8.34
 20
18.1247
 30
0.0
 10
-8.34
 20
18.1247
 30
0.0
 10
-8.3976
 20
18.0821
 30
0.0
 10
-8.4629
 20
18.0484
 30
0.0
 10
-8.536
 20
18.0238
 30
0.0
 10
-8.536
 20
18.0238
 30
0.0
 10
-8.6337
 20
18.0497
 30
0.0
 10
-8.7184
 20
18.0827
 30
0.0
 10
-8.7908
 20
18.1228
 30
0.0
 10
-8.7908
 20
18.1228
 30
0.0
 10
-8.8633
 20
18.1635
 30
0.0
 10
-8.9196
 20
18.214
 30
0.0
 10
-8.959
 20
18.2741
 30
0.0
 10
-8.959
 20
18.2741
 30
0.0
 10
-8.9985
 20
18.3343
 30
0.0
 10
-9.0179
 20
18.4061
 30
0.0
 10
-9.0172
 20
18.4895
 30
0.0
 10
-9.0172
 20
18.4895
 30
0.0
 10
-9.0172
 20
18.5632
 30
0.0
 10
-9.0004
 20
18.6299
 30
0.0
 10
-8.9668
 20
18.6907
 30
0.0
 10
-8.9668
 20
18.6907
 30
0.0
 10
-8.9331
 20
18.7515
 30
0.0
 10
-8.8833
 20
18.8
 30
0.0
 10
-8.818
 20
18.8368
 30
0.0
 10
-8.818
 20
18.8368
 30
0.0
 10
-8.7533
 20
18.8737
 30
0.0
 10
-8.6731
 20
18.8925
 30
0.0
 10
-8.5787
 20
18.8931
 30
0.0
  0
SPLINE
  5
B1
330
1F
100
AcDbEntity
  8
Ilustrace
 62
   250
100
AcDbSpline
210
0.0
220
0.0
230
1.0
 70
    11
 71
     3
 72
    56
 73
    52
 74
     0
 42
0.0000000001
 43
0.0000000001
 40
0.0
 40
0.0
 40
0.0
 40
0.0
 40
0.0714285714285714
 40
0.0714285714285714
 40
0.0714285714285714
 40
0.0714285714285714
 40
0.1428571428571428
 40
0.1428571428571428
 40
0.1428571428571428
 40
0.1428571428571428
 40
0.2142857142857143
 40
0.2142857142857143
 40
0.2142857142857143
 40
0.2142857142857143
 40
0.2857142857142857
 40
0.2857142857142857
 40
0.2857142857142857
 40
0.2857142857142857
 40
0.3571428571428572
 40
0.3571428571428572
 40
0.3571428571428572
 40
0.3571428571428572
 40
0.4285714285714285
 40
0.4285714285714285
 40
0.4285714285714285
 40
0.4285714285714285
 40
0.5
 40
0.5
 40
0.5
 40
0.5
 40
0.5714285714285714
 40
0.5714285714285714
 40
0.5714285714285714
 40
0.5714285714285714
 40
0.6428571428571429
 40
0.6428571428571429
 40
0.6428571428571429
 40
0.6428571428571429
 40
0.7142857142857143
 40
0.7142857142857143
 40
0.7142857142857143
 40
0.7142857142857143
 40
0.7857142857142857
 40
0.7857142857142857
 40
0.7857142857142857
 40
0.7857142857142857
 40
0.8571428571428571
 40
0.8571428571428571
 40
0.8571428571428571
 40
0.8571428571428571
 40
1.0
 40
1.0
 40
1.0
 40
1.0
 10
-6.5686
 20
19.1376
 30
0.0
 10
-6.6973
 20
19.1376
 30
0.0
 10
-6.815
 20
19.1091
 30
0.0
 10
-6.9224
 20
19.0522
 30
0.0
 10
-6.9224
 20
19.0522
 30
0.0
 10
-7.0297
 20
18.9953
 30
0.0
 10
-7.1222
 20
18.9119
 30
0.0
 10
-7.2011
 20
18.8006
 30
0.0
 10
-7.2011
 20
18.8006
 30
0.0
 10
-7.28
 20
18.6894
 30
0.0
 10
-7.3408
 20
18.5523
 30
0.0
 10
-7.3842
 20
18.3893
 30
0.0
 10
-7.3842
 20
18.3893
 30
0.0
 10
-7.4269
 20
18.2263
 30
0.0
 10
-7.4489
 20
18.0387
 30
0.0
 10
-7.4495
 20
17.8259
 30
0.0
 10
-7.4495
 20
17.8259
 30
0.0
 10
-7.4456
 20
17.5472
 30
0.0
 10
-7.4088
 20
17.3118
 30
0.0
 10
-7.3383
 20
17.119
 30
0.0
 10
-7.3383
 20
17.119
 30
0.0
 10
-7.2678
 20
16.9263
 30
0.0
 10
-7.1701
 20
16.7801
 30
0.0
 10
-7.0459
 20
16.6805
 30
0.0
 10
-7.0459
 20
16.6805
 30
0.0
 10
-6.9217
 20
16.5809
 30
0.0
 10
-6.7769
 20
16.5305
 30
0.0
 10
-6.6113
 20
16.5298
 30
0.0
 10
-6.6113
 20
16.5298
 30
0.0
 10
-6.4257
 20
16.5305
 30
0.0
 10
-6.2679
 20
16.5822
 30
0.0
 10
-6.1372
 20
16.6844
 30
0.0
 10
-6.1372
 20
16.6844
 30
0.0
 10
-6.0066
 20
16.7866
 30
0.0
 10
-5.907
 20
16.9366
 30
0.0
 10
-5.8384
 20
17.1345
 30
0.0
 10
-5.8384
 20
17.1345
 30
0.0
 10
-5.7692
 20
17.3325
 30
0.0
 10
-5.7349
 20
17.5743
 30
0.0
 10
-5.7343
 20
17.8609
 30
0.0
 10
-5.7343
 20
17.8609
 30
0.0
 10
-5.7349
 20
18.1293
 30
0.0
 10
-5.7679
 20
18.3589
 30
0.0
 10
-5.8332
 20
18.549
 30
0.0
 10
-5.8332
 20
18.549
 30
0.0
 10
-5.8986
 20
18.7392
 30
0.0
 10
-5.9936
 20
18.8847
 30
0.0
 10
-6.1178
 20
18.9849
 30
0.0
 10
-6.1178
 20
18.9849
 30
0.0
 10
-6.242
 20
19.0858
 30
0.0
 10
-6.392
 20
19.1369
 30
0.0
 10
-6.5686
 20
19.1376
 30
0.0
  0
SPLINE
  5
B2
330
1F
100
AcDbEntity
  8
Ilustrace
 62
   250
100
AcDbSpline
210
0.0
220
0.0
230
1.0
 70
    11
 71
     3
 72
    56
 73
    52
 74
     0
 42
0.0000000001
 43
0.0000000001
 40
0.0
 40
0.0
 40
0.0
 40
0.0
 40
0.0714285714285714
 40
0.0714285714285714
 40
0.0714285714285714
 40
0.0714285714285714
 40
0.1428571428571428
 40
0.1428571428571428
 40
0.1428571428571428
 40
0.1428571428571428
 40
0.2142857142857143
 40
0.2142857142857143
 40
0.2142857142857143
 40
0.2142857142857143
 40
0.2857142857142857
 40
0.2857142857142857
 40
0.2857142857142857
 40
0.2857142857142857
 40
0.3571428571428572
 40
0.3571428571428572
 40
0.3571428571428572
 40
0.3571428571428572
 40
0.4285714285714285
 40
0.4285714285714285
 40
0.4285714285714285
 40
0.4285714285714285
 40
0.5
 40
0.5
 40
0.5
 40
0.5
 40
0.5714285714285714
 40
0.5714285714285714
 40
0.5714285714285714
 40
0.5714285714285714
 40
0.6428571428571429
 40
0.6428571428571429
 40
0.6428571428571429
 40
0.6428571428571429
 40
0.7142857142857143
 40
0.7142857142857143
 40
0.7142857142857143
 40
0.7142857142857143
 40
0.7857142857142857
 40
0.7857142857142857
 40
0.7857142857142857
 40
0.7857142857142857
 40
0.8571428571428571
 40
0.8571428571428571
 40
0.8571428571428571
 40
0.8571428571428571
 40
1.0
 40
1.0
 40
1.0
 40
1.0
 10
-6.5919
 20
18.8737
 30
0.0
 10
-6.5026
 20
18.873
 30
0.0
 10
-6.4257
 20
18.8491
 30
0.0
 10
-6.361
 20
18.8006
 30
0.0
 10
-6.361
 20
18.8006
 30
0.0
 10
-6.2963
 20
18.7521
 30
0.0
 10
-6.2433
 20
18.6829
 30
0.0
 10
-6.2019
 20
18.5924
 30
0.0
 10
-6.2019
 20
18.5924
 30
0.0
 10
-6.1605
 20
18.5025
 30
0.0
 10
-6.1294
 20
18.3938
 30
0.0
 10
-6.1094
 20
18.2683
 30
0.0
 10
-6.1094
 20
18.2683
 30
0.0
 10
-6.0893
 20
18.1422
 30
0.0
 10
-6.0796
 20
18.0012
 30
0.0
 10
-6.0796
 20
17.8453
 30
0.0
 10
-6.0796
 20
17.8453
 30
0.0
 10
-6.0796
 20
17.6293
 30
0.0
 10
-6.0984
 20
17.443
 30
0.0
 10
-6.1359
 20
17.2865
 30
0.0
 10
-6.1359
 20
17.2865
 30
0.0
 10
-6.1728
 20
17.1294
 30
0.0
 10
-6.2297
 20
17.0084
 30
0.0
 10
-6.3054
 20
16.923
 30
0.0
 10
-6.3054
 20
16.923
 30
0.0
 10
-6.381
 20
16.8377
 30
0.0
 10
-6.4768
 20
16.795
 30
0.0
 10
-6.5919
 20
16.7937
 30
0.0
 10
-6.5919
 20
16.7937
 30
0.0
 10
-6.696
 20
16.7943
 30
0.0
 10
-6.7859
 20
16.8344
 30
0.0
 10
-6.8629
 20
16.9146
 30
0.0
 10
-6.8629
 20
16.9146
 30
0.0
 10
-6.9392
 20
16.9948
 30
0.0
 10
-6.9981
 20
17.1113
 30
0.0
 10
-7.0401
 20
17.2639
 30
0.0
 10
-7.0401
 20
17.2639
 30
0.0
 10
-7.0821
 20
17.4172
 30
0.0
 10
-7.1035
 20
17.6028
 30
0.0
 10
-7.1041
 20
17.8221
 30
0.0
 10
-7.1041
 20
17.8221
 30
0.0
 10
-7.1035
 20
18.0517
 30
0.0
 10
-7.0808
 20
18.2437
 30
0.0
 10
-7.0369
 20
18.4003
 30
0.0
 10
-7.0369
 20
18.4003
 30
0.0
 10
-6.9929
 20
18.5561
 30
0.0
 10
-6.9327
 20
18.6738
 30
0.0
 10
-6.8558
 20
18.754
 30
0.0
 10
-6.8558
 20
18.754
 30
0.0
 10
-6.7788
 20
18.8336
 30
0.0
 10
-6.6908
 20
18.8737
 30
0.0
 10
-6.5919
 20
18.8737
 30
0.0
  0
SPLINE
  5
B3
330
1F
100
AcDbEntity
  8
Ilustrace
 62
   250
100
AcDbSpline
210
0.0
220
0.0
230
1.0
 70
    11
 71
     3
 72
    36
 73
    32
 74
     0
 42
0.0000000001
 43
0.0000000001
 40
0.0
 40
0.0
 40
0.0
 40
0.0
 40
0.1111111111111111
 40
0.1111111111111111
 40
0.1111111111111111
 40
0.1111111111111111
 40
0.2222222222222222
 40
0.2222222222222222
 40
0.2222222222222222
 40
0.2222222222222222
 40
0.3333333333333333
 40
0.3333333333333333
 40
0.3333333333333333
 40
0.3333333333333333
 40
0.4444444444444444
 40
0.4444444444444444
 40
0.4444444444444444
 40
0.4444444444444444
 40
0.5555555555555556
 40
0.5555555555555556
 40
0.5555555555555556
 40
0.5555555555555556
 40
0.6666666666666666
 40
0.6666666666666666
 40
0.6666666666666666
 40
0.6666666666666666
 40
0.7777777777777778
 40
0.7777777777777778
 40
0.7777777777777778
 40
0.7777777777777778
 40
1.0
 40
1.0
 40
1.0
 40
1.0
 10
-2.7424
 20
16.5725
 30
0.0
 10
-2.7424
 20
16.5725
 30
0.0
 10
-2.4125
 20
16.5725
 30
0.0
 10
-2.4125
 20
16.5725
 30
0.0
 10
-2.4125
 20
16.5725
 30
0.0
 10
-2.4125
 20
16.5725
 30
0.0
 10
-2.4125
 20
19.0949
 30
0.0
 10
-2.4125
 20
19.0949
 30
0.0
 10
-2.4125
 20
19.0949
 30
0.0
 10
-2.4125
 20
19.0949
 30
0.0
 10
-2.7036
 20
19.0949
 30
0.0
 10
-2.7036
 20
19.0949
 30
0.0
 10
-2.7036
 20
19.0949
 30
0.0
 10
-2.7036
 20
19.0949
 30
0.0
 10
-3.2546
 20
18.8
 30
0.0
 10
-3.2546
 20
18.8
 30
0.0
 10
-3.2546
 20
18.8
 30
0.0
 10
-3.2546
 20
18.8
 30
0.0
 10
-3.1886
 20
18.54
 30
0.0
 10
-3.1886
 20
18.54
 30
0.0
 10
-3.1886
 20
18.54
 30
0.0
 10
-3.1886
 20
18.54
 30
0.0
 10
-2.7501
 20
18.7767
 30
0.0
 10
-2.7501
 20
18.7767
 30
0.0
 10
-2.7501
 20
18.7767
 30
0.0
 10
-2.7501
 20
18.7767
 30
0.0
 10
-2.7424
 20
18.7767
 30
0.0
 10
-2.7424
 20
18.7767
 30
0.0
 10
-2.7424
 20
18.7767
 30
0.0
 10
-2.7424
 20
18.7767
 30
0.0
 10
-2.7424
 20
16.5725
 30
0.0
 10
-2.7424
 20
16.5725
 30
0.0
  0
SPLINE
  5
B4
330
1F
100
AcDbEntity
  8
Ilustrace
 62
   250
100
AcDbSpline
210
0.0
220
0.0
230
1.0
 70
    11
 71
     3
 72
    36
 73
    32
 74
     0
 42
0.0000000001
 43
0.0000000001
 40
0.0
 40
0.0
 40
0.0
 40
0.0
 40
0.1111111111111111
 40
0.1111111111111111
 40
0.1111111111111111
 40
0.1111111111111111
 40
0.2222222222222222
 40
0.2222222222222222
 40
0.2222222222222222
 40
0.2222222222222222
 40
0.3333333333333333
 40
0.3333333333333333
 40
0.3333333333333333
 40
0.3333333333333333
 40
0.4444444444444444
 40
0.4444444444444444
 40
0.4444444444444444
 40
0.4444444444444444
 40
0.5555555555555556
 40
0.5555555555555556
 40
0.5555555555555556
 40
0.5555555555555556
 40
0.6666666666666666
 40
0.6666666666666666
 40
0.6666666666666666
 40
0.6666666666666666
 40
0.7777777777777778
 40
0.7777777777777778
 40
0.7777777777777778
 40
0.7777777777777778
 40
1.0
 40
1.0
 40
1.0
 40
1.0
 10
-0.7517
 20
16.5725
 30
0.0
 10
-0.7517
 20
16.5725
 30
0.0
 10
-0.4218
 20
16.5725
 30
0.0
 10
-0.4218
 20
16.5725
 30
0.0
 10
-0.4218
 20
16.5725
 30
0.0
 10
-0.4218
 20
16.5725
 30
0.0
 10
-0.4218
 20
19.0949
 30
0.0
 10
-0.4218
 20
19.0949
 30
0.0
 10
-0.4218
 20
19.0949
 30
0.0
 10
-0.4218
 20
19.0949
 30
0.0
 10
-0.7129
 20
19.0949
 30
0.0
 10
-0.7129
 20
19.0949
 30
0.0
 10
-0.7129
 20
19.0949
 30
0.0
 10
-0.7129
 20
19.0949
 30
0.0
 10
-1.2639
 20
18.8
 30
0.0
 10
-1.2639
 20
18.8
 30
0.0
 10
-1.2639
 20
18.8
 30
0.0
 10
-1.2639
 20
18.8
 30
0.0
 10
-1.1979
 20
18.54
 30
0.0
 10
-1.1979
 20
18.54
 30
0.0
 10
-1.1979
 20
18.54
 30
0.0
 10
-1.1979
 20
18.54
 30
0.0
 10
-0.7594
 20
18.7767
 30
0.0
 10
-0.7594
 20
18.7767
 30
0.0
 10
-0.7594
 20
18.7767
 30
0.0
 10
-0.7594
 20
18.7767
 30
0.0
 10
-0.7517
 20
18.7767
 30
0.0
 10
-0.7517
 20
18.7767
 30
0.0
 10
-0.7517
 20
18.7767
 30
0.0
 10
-0.7517
 20
18.7767
 30
0.0
 10
-0.7517
 20
16.5725
 30
0.0
 10
-0.7517
 20
16.5725
 30
0.0
  0
SPLINE
  5
B5
330
1F
100
AcDbEntity
  8
Ilustrace
 62
   250
100
AcDbSpline
210
0.0
220
0.0
230
1.0
 70
    11
 71
     3
 72
    56
 73
    52
 74
     0
 42
0.0000000001
 43
0.0000000001
 40
0.0
 40
0.0
 40
0.0
 40
0.0
 40
0.0714285714285714
 40
0.0714285714285714
 40
0.0714285714285714
 40
0.0714285714285714
 40
0.1428571428571428
 40
0.1428571428571428
 40
0.1428571428571428
 40
0.1428571428571428
 40
0.2142857142857143
 40
0.2142857142857143
 40
0.2142857142857143
 40
0.2142857142857143
 40
0.2857142857142857
 40
0.2857142857142857
 40
0.2857142857142857
 40
0.2857142857142857
 40
0.3571428571428572
 40
0.3571428571428572
 40
0.3571428571428572
 40
0.3571428571428572
 40
0.4285714285714285
 40
0.4285714285714285
 40
0.4285714285714285
 40
0.4285714285714285
 40
0.5
 40
0.5
 40
0.5
 40
0.5
 40
0.5714285714285714
 40
0.5714285714285714
 40
0.5714285714285714
 40
0.5714285714285714
 40
0.6428571428571429
 40
0.6428571428571429
 40
0.6428571428571429
 40
0.6428571428571429
 40
0.7142857142857143
 40
0.7142857142857143
 40
0.7142857142857143
 40
0.7142857142857143
 40
0.7857142857142857
 40
0.7857142857142857
 40
0.7857142857142857
 40
0.7857142857142857
 40
0.8571428571428571
 40
0.8571428571428571
 40
0.8571428571428571
 40
0.8571428571428571
 40
1.0
 40
1.0
 40
1.0
 40
1.0
 10
1.3438
 20
19.1376
 30
0.0
 10
1.2151
 20
19.1376
 30
0.0
 10
1.0974
 20
19.1091
 30
0.0
 10
0.99
 20
19.0522
 30
0.0
 10
0.99
 20
19.0522
 30
0.0
 10
0.8827
 20
18.9953
 30
0.0
 10
0.7902
 20
18.9119
 30
0.0
 10
0.7113
 20
18.8006
 30
0.0
 10
0.7113
 20
18.8006
 30
0.0
 10
0.6324
 20
18.6894
 30
0.0
 10
0.5716
 20
18.5523
 30
0.0
 10
0.5282
 20
18.3893
 30
0.0
 10
0.5282
 20
18.3893
 30
0.0
 10
0.4855
 20
18.2263
 30
0.0
 10
0.4635
 20
18.0387
 30
0.0
 10
0.4629
 20
17.8259
 30
0.0
 10
0.4629
 20
17.8259
 30
0.0
 10
0.4668
 20
17.5472
 30
0.0
 10
0.5036
 20
17.3118
 30
0.0
 10
0.5741
 20
17.119
 30
0.0
 10
0.5741
 20
17.119
 30
0.0
 10
0.6446
 20
16.9263
 30
0.0
 10
0.7423
 20
16.7801
 30
0.0
 10
0.8665
 20
16.6805
 30
0.0
 10
0.8665
 20
16.6805
 30
0.0
 10
0.9907
 20
16.5809
 30
0.0
 10
1.1355
 20
16.5305
 30
0.0
 10
1.3011
 20
16.5298
 30
0.0
 10
1.3011
 20
16.5298
 30
0.0
 10
1.4867
 20
16.5305
 30
0.0
 10
1.6445
 20
16.5822
 30
0.0
 10
1.7752
 20
16.6844
 30
0.0
 10
1.7752
 20
16.6844
 30
0.0
 10
1.9058
 20
16.7866
 30
0.0
 10
2.0054
 20
16.9366
 30
0.0
 10
2.074
 20
17.1345
 30
0.0
 10
2.074
 20
17.1345
 30
0.0
 10
2.1432
 20
17.3325
 30
0.0
 10
2.1775
 20
17.5743
 30
0.0
 10
2.1781
 20
17.8609
 30
0.0
 10
2.1781
 20
17.8609
 30
0.0
 10
2.1775
 20
18.1293
 30
0.0
 10
2.1445
 20
18.3589
 30
0.0
 10
2.0792
 20
18.549
 30
0.0
 10
2.0792
 20
18.549
 30
0.0
 10
2.0138
 20
18.7392
 30
0.0
 10
1.9188
 20
18.8847
 30
0.0
 10
1.7946
 20
18.9849
 30
0.0
 10
1.7946
 20
18.9849
 30
0.0
 10
1.6704
 20
19.0858
 30
0.0
 10
1.5204
 20
19.1369
 30
0.0
 10
1.3438
 20
19.1376
 30
0.0
  0
SPLINE
  5
B6
330
1F
100
AcDbEntity
  8
Ilustrace
 62
   250
100
AcDbSpline
210
0.0
220
0.0
230
1.0
 70
    11
 71
     3
 72
    56
 73
    52
 74
     0
 42
0.0000000001
 43
0.0000000001
 40
0.0
 40
0.0
 40
0.0
 40
0.0
 40
0.0714285714285714
 40
0.0714285714285714
 40
0.0714285714285714
 40
0.0714285714285714
 40
0.1428571428571428
 40
0.1428571428571428
 40
0.1428571428571428
 40
0.1428571428571428
 40
0.2142857142857143
 40
0.2142857142857143
 40
0.2142857142857143
 40
0.2142857142857143
 40
0.2857142857142857
 40
0.2857142857142857
 40
0.2857142857142857
 40
0.2857142857142857
 40
0.3571428571428572
 40
0.3571428571428572
 40
0.3571428571428572
 40
0.3571428571428572
 40
0.4285714285714285
 40
0.4285714285714285
 40
0.4285714285714285
 40
0.4285714285714285
 40
0.5
 40
0.5
 40
0.5
 40
0.5
 40
0.5714285714285714
 40
0.5714285714285714
 40
0.5714285714285714
 40
0.5714285714285714
 40
0.6428571428571429
 40
0.6428571428571429
 40
0.6428571428571429
 40
0.6428571428571429
 40
0.7142857142857143
 40
0.7142857142857143
 40
0.7142857142857143
 40
0.7142857142857143
 40
0.7857142857142857
 40
0.7857142857142857
 40
0.7857142857142857
 40
0.7857142857142857
 40
0.8571428571428571
 40
0.8571428571428571
 40
0.8571428571428571
 40
0.8571428571428571
 40
1.0
 40
1.0
 40
1.0
 40
1.0
 10
1.3205
 20
18.8737
 30
0.0
 10
1.4098
 20
18.873
 30
0.0
 10
1.4867
 20
18.8491
 30
0.0
 10
1.5514
 20
18.8006
 30
0.0
 10
1.5514
 20
18.8006
 30
0.0
 10
1.6161
 20
18.7521
 30
0.0
 10
1.6691
 20
18.6829
 30
0.0
 10
1.7105
 20
18.5924
 30
0.0
 10
1.7105
 20
18.5924
 30
0.0
 10
1.7519
 20
18.5025
 30
0.0
 10
1.783
 20
18.3938
 30
0.0
 10
1.803
 20
18.2683
 30
0.0
 10
1.803
 20
18.2683
 30
0.0
 10
1.8231
 20
18.1422
 30
0.0
 10
1.8328
 20
18.0012
 30
0.0
 10
1.8328
 20
17.8453
 30
0.0
 10
1.8328
 20
17.8453
 30
0.0
 10
1.8328
 20
17.6293
 30
0.0
 10
1.814
 20
17.443
 30
0.0
 10
1.7765
 20
17.2865
 30
0.0
 10
1.7765
 20
17.2865
 30
0.0
 10
1.7396
 20
17.1294
 30
0.0
 10
1.6827
 20
17.0084
 30
0.0
 10
1.607
 20
16.923
 30
0.0
 10
1.607
 20
16.923
 30
0.0
 10
1.5314
 20
16.8377
 30
0.0
 10
1.4356
 20
16.795
 30
0.0
 10
1.3205
 20
16.7937
 30
0.0
 10
1.3205
 20
16.7937
 30
0.0
 10
1.2164
 20
16.7943
 30
0.0
 10
1.1265
 20
16.8344
 30
0.0
 10
1.0495
 20
16.9146
 30
0.0
 10
1.0495
 20
16.9146
 30
0.0
 10
0.9732
 20
16.9948
 30
0.0
 10
0.9143
 20
17.1113
 30
0.0
 10
0.8723
 20
17.2639
 30
0.0
 10
0.8723
 20
17.2639
 30
0.0
 10
0.8303
 20
17.4172
 30
0.0
 10
0.8089
 20
17.6028
 30
0.0
 10
0.8083
 20
17.8221
 30
0.0
 10
0.8083
 20
17.8221
 30
0.0
 10
0.8089
 20
18.0517
 30
0.0
 10
0.8316
 20
18.2437
 30
0.0
 10
0.8755
 20
18.4003
 30
0.0
 10
0.8755
 20
18.4003
 30
0.0
 10
0.9195
 20
18.5561
 30
0.0
 10
0.9797
 20
18.6738
 30
0.0
 10
1.0566
 20
18.754
 30
0.0
 10
1.0566
 20
18.754
 30
0.0
 10
1.1336
 20
18.8336
 30
0.0
 10
1.2216
 20
18.8737
 30
0.0
 10
1.3205
 20
18.8737
 30
0.0
  0
SPLINE
  5
B7
330
1F
100
AcDbEntity
  8
Ilustrace
 62
   250
100
AcDbSpline
210
0.0
220
0.0
230
1.0
 70
    11
 71
     3
 72
    20
 73
    16
 74
     0
 42
0.0000000001
 43
0.0000000001
 40
0.0
 40
0.0
 40
0.0
 40
0.0
 40
0.2
 40
0.2
 40
0.2
 40
0.2
 40
0.4
 40
0.4
 40
0.4
 40
0.4
 40
0.6
 40
0.6
 40
0.6
 40
0.6
 40
1.0
 40
1.0
 40
1.0
 40
1.0
 10
-5.4821
 20
17.6746
 30
0.0
 10
-5.4821
 20
17.6746
 30
0.0
 10
-5.4821
 20
17.4418
 30
0.0
 10
-5.4821
 20
17.4418
 30
0.0
 10
-5.4821
 20
17.4418
 30
0.0
 10
-5.4821
 20
17.4418
 30
0.0
 10
-3.7746
 20
17.4418
 30
0.0
 10
-3.7746
 20
17.4418
 30
0.0
 10
-3.7746
 20
17.4418
 30
0.0
 10
-3.7746
 20
17.4418
 30
0.0
 10
-3.7746
 20
17.6746
 30
0.0
 10
-3.7746
 20
17.6746
 30
0.0
 10
-3.7746
 20
17.6746
 30
0.0
 10
-3.7746
 20
17.6746
 30
0.0
 10
-5.4821
 20
17.6746
 30
0.0
 10
-5.4821
 20
17.6746
 30
0.0
  0
SPLINE
  5
B8
330
1F
100
AcDbEntity
  8
Ilustrace
 62
   250
100
AcDbSpline
210
0.0
220
0.0
230
1.0
 70
    11
 71
     3
 72
   124
 73
   120
 74
     0
 42
0.0000000001
 43
0.0000000001
 40
0.0
 40
0.0
 40
0.0
 40
0.0
 40
0.032258064516129
 40
0.032258064516129
 40
0.032258064516129
 40
0.032258064516129
 40
0.0645161290322581
 40
0.0645161290322581
 40
0.0645161290322581
 40
0.0645161290322581
 40
0.0967741935483871
 40
0.0967741935483871
 40
0.0967741935483871
 40
0.0967741935483871
 40
0.1290322580645161
 40
0.1290322580645161
 40
0.1290322580645161
 40
0.1290322580645161
 40
0.1612903225806452
 40
0.1612903225806452
 40
0.1612903225806452
 40
0.1612903225806452
 40
0.1935483870967742
 40
0.1935483870967742
 40
0.1935483870967742
 40
0.1935483870967742
 40
0.2258064516129032
 40
0.2258064516129032
 40
0.2258064516129032
 40
0.2258064516129032
 40
0.2580645161290323
 40
0.2580645161290323
 40
0.2580645161290323
 40
0.2580645161290323
 40
0.2903225806451613
 40
0.2903225806451613
 40
0.2903225806451613
 40
0.2903225806451613
 40
0.3225806451612903
 40
0.3225806451612903
 40
0.3225806451612903
 40
0.3225806451612903
 40
0.3548387096774194
 40
0.3548387096774194
 40
0.3548387096774194
 40
0.3548387096774194
 40
0.3870967741935484
 40
0.3870967741935484
 40
0.3870967741935484
 40
0.3870967741935484
 40
0.4193548387096774
 40
0.4193548387096774
 40
0.4193548387096774
 40
0.4193548387096774
 40
0.4516129032258064
 40
0.4516129032258064
 40
0.4516129032258064
 40
0.4516129032258064
 40
0.4838709677419355
 40
0.4838709677419355
 40
0.4838709677419355
 40
0.4838709677419355
 40
0.5161290322580645
 40
0.5161290322580645
 40
0.5161290322580645
 40
0.5161290322580645
 40
0.5483870967741935
 40
0.5483870967741935
 40
0.5483870967741935
 40
0.5483870967741935
 40
0.5806451612903226
 40
0.5806451612903226
 40
0.5806451612903226
 40
0.5806451612903226
 40
0.6129032258064516
 40
0.6129032258064516
 40
0.6129032258064516
 40
0.6129032258064516
 40
0.6451612903225806
 40
0.6451612903225806
 40
0.6451612903225806
 40
0.6451612903225806
 40
0.6774193548387096
 40
0.6774193548387096
 40
0.6774193548387096
 40
0.6774193548387096
 40
0.7096774193548387
 40
0.7096774193548387
 40
0.7096774193548387
 40
0.7096774193548387
 40
0.7419354838709677
 40
0.7419354838709677
 40
0.7419354838709677
 40
0.7419354838709677
 40
0.7741935483870968
 40
0.7741935483870968
 40
0.7741935483870968
 40
0.7741935483870968
 40
0.8064516129032258
 40
0.8064516129032258
 40
0.8064516129032258
 40
0.8064516129032258
 40
0.8387096774193549
 40
0.8387096774193549
 40
0.8387096774193549
 40
0.8387096774193549
 40
0.8709677419354839
 40
0.8709677419354839
 40
0.8709677419354839
 40
0.8709677419354839
 40
0.9032258064516129
 40
0.9032258064516129
 40
0.9032258064516129
 40
0.9032258064516129
 40
0.9354838709677419
 40
0.9354838709677419
 40
0.9354838709677419
 40
0.9354838709677419
 40
1.0
 40
1.0
 40
1.0
 40
1.0
 10
16.8409
 20
-4.1302
 30
0.0
 10
16.8428
 20
-4.0894
 30
0.0
 10
16.8428
 20
-4.0422
 30
0.0
 10
16.8396
 20
-3.9892
 30
0.0
 10
16.8396
 20
-3.9892
 30
0.0
 10
16.837
 20
-3.9361
 30
0.0
 10
16.8312
 20
-3.8779
 30
0.0
 10
16.8215
 20
-3.8158
 30
0.0
 10
16.8215
 20
-3.8158
 30
0.0
 10
16.8112
 20
-3.7246
 30
0.0
 10
16.7911
 20
-3.6354
 30
0.0
 10
16.7626
 20
-3.5481
 30
0.0
 10
16.7626
 20
-3.5481
 30
0.0
 10
16.7335
 20
-3.4608
 30
0.0
 10
16.6954
 20
-3.3773
 30
0.0
 10
16.6488
 20
-3.2984
 30
0.0
 10
16.6488
 20
-3.2984
 30
0.0
 10
16.6022
 20
-3.2195
 30
0.0
 10
16.5473
 20
-3.1477
 30
0.0
 10
16.4839
 20
-3.0824
 30
0.0
 10
16.4839
 20
-3.0824
 30
0.0
 10
16.4037
 20
-2.999
 30
0.0
 10
16.3073
 20
-2.9246
 30
0.0
 10
16.1935
 20
-2.8593
 30
0.0
 10
16.1935
 20
-2.8593
 30
0.0
 10
16.0803
 20
-2.7939
 30
0.0
 10
15.9497
 20
-2.7428
 30
0.0
 10
15.8016
 20
-2.7053
 30
0.0
 10
15.8016
 20
-2.7053
 30
0.0
 10
15.6534
 20
-2.6678
 30
0.0
 10
15.4879
 20
-2.6484
 30
0.0
 10
15.3042
 20
-2.6478
 30
0.0
 10
15.3042
 20
-2.6478
 30
0.0
 10
15.1406
 20
-2.6478
 30
0.0
 10
14.9937
 20
-2.6672
 30
0.0
 10
14.8624
 20
-2.7053
 30
0.0
 10
14.8624
 20
-2.7053
 30
0.0
 10
14.7312
 20
-2.7435
 30
0.0
 10
14.6193
 20
-2.7991
 30
0.0
 10
14.5261
 20
-2.8716
 30
0.0
 10
14.5261
 20
-2.8716
 30
0.0
 10
14.433
 20
-2.944
 30
0.0
 10
14.3618
 20
-3.0313
 30
0.0
 10
14.312
 20
-3.1341
 30
0.0
 10
14.312
 20
-3.1341
 30
0.0
 10
14.2622
 20
-3.237
 30
0.0
 10
14.2377
 20
-3.3527
 30
0.0
 10
14.237
 20
-3.4821
 30
0.0
 10
14.237
 20
-3.4821
 30
0.0
 10
14.2377
 20
-3.6115
 30
0.0
 10
14.2622
 20
-3.7292
 30
0.0
 10
14.3101
 20
-3.8346
 30
0.0
 10
14.3101
 20
-3.8346
 30
0.0
 10
14.3573
 20
-3.94
 30
0.0
 10
14.4233
 20
-4.0306
 30
0.0
 10
14.5061
 20
-4.1062
 30
0.0
 10
14.5061
 20
-4.1062
 30
0.0
 10
14.5895
 20
-4.1826
 30
0.0
 10
14.6846
 20
-4.2408
 30
0.0
 10
14.7919
 20
-4.2815
 30
0.0
 10
14.7919
 20
-4.2815
 30
0.0
 10
14.8993
 20
-4.3223
 30
0.0
 10
15.0131
 20
-4.3429
 30
0.0
 10
15.1334
 20
-4.3436
 30
0.0
 10
15.1334
 20
-4.3436
 30
0.0
 10
15.2415
 20
-4.3429
 30
0.0
 10
15.3423
 20
-4.3255
 30
0.0
 10
15.4355
 20
-4.2912
 30
0.0
 10
15.4355
 20
-4.2912
 30
0.0
 10
15.5293
 20
-4.2563
 30
0.0
 10
15.6108
 20
-4.2065
 30
0.0
 10
15.6813
 20
-4.1418
 30
0.0
 10
15.6813
 20
-4.1418
 30
0.0
 10
15.7511
 20
-4.0771
 30
0.0
 10
15.8061
 20
-3.9989
 30
0.0
 10
15.8455
 20
-3.9083
 30
0.0
 10
15.8455
 20
-3.9083
 30
0.0
 10
15.885
 20
-3.8171
 30
0.0
 10
15.905
 20
-3.7156
 30
0.0
 10
15.9057
 20
-3.6024
 30
0.0
 10
15.9057
 20
-3.6024
 30
0.0
 10
15.905
 20
-3.4743
 30
0.0
 10
15.8818
 20
-3.3599
 30
0.0
 10
15.8358
 20
-3.2596
 30
0.0
 10
15.8358
 20
-3.2596
 30
0.0
 10
15.7899
 20
-3.16
 30
0.0
 10
15.7239
 20
-3.0746
 30
0.0
 10
15.6379
 20
-3.0048
 30
0.0
 10
15.6379
 20
-3.0048
 30
0.0
 10
15.6379
 20
-3.0048
 30
0.0
 10
15.6379
 20
-2.9931
 30
0.0
 10
15.6379
 20
-2.9931
 30
0.0
 10
15.6379
 20
-2.9931
 30
0.0
 10
15.7854
 20
-3.0171
 30
0.0
 10
15.9147
 20
-3.0578
 30
0.0
 10
16.0253
 20
-3.1147
 30
0.0
 10
16.0253
 20
-3.1147
 30
0.0
 10
16.1366
 20
-3.1723
 30
0.0
 10
16.2297
 20
-3.2428
 30
0.0
 10
16.3054
 20
-3.3269
 30
0.0
 10
16.3054
 20
-3.3269
 30
0.0
 10
16.3752
 20
-3.3993
 30
0.0
 10
16.4296
 20
-3.4802
 30
0.0
 10
16.4697
 20
-3.5701
 30
0.0
 10
16.4697
 20
-3.5701
 30
0.0
 10
16.5098
 20
-3.66
 30
0.0
 10
16.5363
 20
-3.755
 30
0.0
 10
16.5499
 20
-3.8546
 30
0.0
 10
16.5499
 20
-3.8546
 30
0.0
 10
16.5557
 20
-3.9122
 30
0.0
 10
16.5602
 20
-3.9639
 30
0.0
 10
16.5628
 20
-4.0086
 30
0.0
 10
16.5628
 20
-4.0086
 30
0.0
 10
16.5654
 20
-4.0532
 30
0.0
 10
16.5654
 20
-4.0939
 30
0.0
 10
16.5615
 20
-4.1302
 30
0.0
 10
16.5615
 20
-4.1302
 30
0.0
 10
16.5615
 20
-4.1302
 30
0.0
 10
16.8409
 20
-4.1302
 30
0.0
 10
16.8409
 20
-4.1302
 30
0.0
  0
SPLINE
  5
B9
330
1F
100
AcDbEntity
  8
Ilustrace
 62
   250
100
AcDbSpline
210
0.0
220
0.0
230
1.0
 70
    11
 71
     3
 72
    64
 73
    60
 74
     0
 42
0.0000000001
 43
0.0000000001
 40
0.0
 40
0.0
 40
0.0
 40
0.0
 40
0.0625
 40
0.0625
 40
0.0625
 40
0.0625
 40
0.125
 40
0.125
 40
0.125
 40
0.125
 40
0.1875
 40
0.1875
 40
0.1875
 40
0.1875
 40
0.25
 40
0.25
 40
0.25
 40
0.25
 40
0.3125
 40
0.3125
 40
0.3125
 40
0.3125
 40
0.375
 40
0.375
 40
0.375
 40
0.375
 40
0.4375
 40
0.4375
 40
0.4375
 40
0.4375
 40
0.5
 40
0.5
 40
0.5
 40
0.5
 40
0.5625
 40
0.5625
 40
0.5625
 40
0.5625
 40
0.625
 40
0.625
 40
0.625
 40
0.625
 40
0.6875
 40
0.6875
 40
0.6875
 40
0.6875
 40
0.75
 40
0.75
 40
0.75
 40
0.75
 40
0.8125
 40
0.8125
 40
0.8125
 40
0.8125
 40
0.875
 40
0.875
 40
0.875
 40
0.875
 40
1.0
 40
1.0
 40
1.0
 40
1.0
 10
14.497
 20
-3.5131
 30
0.0
 10
14.4977
 20
-3.4232
 30
0.0
 10
14.5171
 20
-3.345
 30
0.0
 10
14.5552
 20
-3.2797
 30
0.0
 10
14.5552
 20
-3.2797
 30
0.0
 10
14.5934
 20
-3.2143
 30
0.0
 10
14.6471
 20
-3.16
 30
0.0
 10
14.7156
 20
-3.118
 30
0.0
 10
14.7156
 20
-3.118
 30
0.0
 10
14.7842
 20
-3.0753
 30
0.0
 10
14.865
 20
-3.0442
 30
0.0
 10
14.9569
 20
-3.0235
 30
0.0
 10
14.9569
 20
-3.0235
 30
0.0
 10
15.0494
 20
-3.0028
 30
0.0
 10
15.1496
 20
-2.9931
 30
0.0
 10
15.2576
 20
-2.9931
 30
0.0
 10
15.2576
 20
-2.9931
 30
0.0
 10
15.2861
 20
-2.9931
 30
0.0
 10
15.3107
 20
-2.9957
 30
0.0
 10
15.3301
 20
-3.0016
 30
0.0
 10
15.3301
 20
-3.0016
 30
0.0
 10
15.3501
 20
-3.0067
 30
0.0
 10
15.3689
 20
-3.0145
 30
0.0
 10
15.3857
 20
-3.0242
 30
0.0
 10
15.3857
 20
-3.0242
 30
0.0
 10
15.4368
 20
-3.0539
 30
0.0
 10
15.482
 20
-3.0934
 30
0.0
 10
15.5215
 20
-3.1419
 30
0.0
 10
15.5215
 20
-3.1419
 30
0.0
 10
15.561
 20
-3.1898
 30
0.0
 10
15.592
 20
-3.246
 30
0.0
 10
15.6146
 20
-3.3101
 30
0.0
 10
15.6146
 20
-3.3101
 30
0.0
 10
15.6373
 20
-3.3741
 30
0.0
 10
15.6489
 20
-3.4446
 30
0.0
 10
15.6496
 20
-3.5209
 30
0.0
 10
15.6496
 20
-3.5209
 30
0.0
 10
15.6489
 20
-3.6199
 30
0.0
 10
15.6256
 20
-3.7052
 30
0.0
 10
15.5804
 20
-3.7777
 30
0.0
 10
15.5804
 20
-3.7777
 30
0.0
 10
15.5351
 20
-3.8501
 30
0.0
 10
15.473
 20
-3.9064
 30
0.0
 10
15.3928
 20
-3.9458
 30
0.0
 10
15.3928
 20
-3.9458
 30
0.0
 10
15.3126
 20
-3.9853
 30
0.0
 10
15.2195
 20
-4.0053
 30
0.0
 10
15.114
 20
-4.006
 30
0.0
 10
15.114
 20
-4.006
 30
0.0
 10
14.9924
 20
-4.0053
 30
0.0
 10
14.8857
 20
-3.984
 30
0.0
 10
14.7939
 20
-3.942
 30
0.0
 10
14.7939
 20
-3.942
 30
0.0
 10
14.7014
 20
-3.8999
 30
0.0
 10
14.629
 20
-3.8424
 30
0.0
 10
14.5766
 20
-3.7686
 30
0.0
 10
14.5766
 20
-3.7686
 30
0.0
 10
14.5242
 20
-3.6949
 30
0.0
 10
14.4977
 20
-3.6095
 30
0.0
 10
14.497
 20
-3.5131
 30
0.0
  0
SPLINE
  5
BA
330
1F
100
AcDbEntity
  8
Ilustrace
 62
   250
100
AcDbSpline
210
0.0
220
0.0
230
1.0
 70
    11
 71
     3
 72
   132
 73
   128
 74
     0
 42
0.0000000001
 43
0.0000000001
 40
0.0
 40
0.0
 40
0.0
 40
0.0
 40
0.0303030303030303
 40
0.0303030303030303
 40
0.0303030303030303
 40
0.0303030303030303
 40
0.0606060606060606
 40
0.0606060606060606
 40
0.0606060606060606
 40
0.0606060606060606
 40
0.0909090909090909
 40
0.0909090909090909
 40
0.0909090909090909
 40
0.0909090909090909
 40
0.1212121212121212
 40
0.1212121212121212
 40
0.1212121212121212
 40
0.1212121212121212
 40
0.1515151515151515
 40
0.1515151515151515
 40
0.1515151515151515
 40
0.1515151515151515
 40
0.1818181818181818
 40
0.1818181818181818
 40
0.1818181818181818
 40
0.1818181818181818
 40
0.2121212121212121
 40
0.2121212121212121
 40
0.2121212121212121
 40
0.2121212121212121
 40
0.2424242424242424
 40
0.2424242424242424
 40
0.2424242424242424
 40
0.2424242424242424
 40
0.2727272727272727
 40
0.2727272727272727
 40
0.2727272727272727
 40
0.2727272727272727
 40
0.303030303030303
 40
0.303030303030303
 40
0.303030303030303
 40
0.303030303030303
 40
0.3333333333333333
 40
0.3333333333333333
 40
0.3333333333333333
 40
0.3333333333333333
 40
0.3636363636363636
 40
0.3636363636363636
 40
0.3636363636363636
 40
0.3636363636363636
 40
0.3939393939393939
 40
0.3939393939393939
 40
0.3939393939393939
 40
0.3939393939393939
 40
0.4242424242424243
 40
0.4242424242424243
 40
0.4242424242424243
 40
0.4242424242424243
 40
0.4545454545454545
 40
0.4545454545454545
 40
0.4545454545454545
 40
0.4545454545454545
 40
0.4848484848484849
 40
0.4848484848484849
 40
0.4848484848484849
 40
0.4848484848484849
 40
0.5151515151515151
 40
0.5151515151515151
 40
0.5151515151515151
 40
0.5151515151515151
 40
0.5454545454545454
 40
0.5454545454545454
 40
0.5454545454545454
 40
0.5454545454545454
 40
0.5757575757575758
 40
0.5757575757575758
 40
0.5757575757575758
 40
0.5757575757575758
 40
0.6060606060606061
 40
0.6060606060606061
 40
0.6060606060606061
 40
0.6060606060606061
 40
0.6363636363636364
 40
0.6363636363636364
 40
0.6363636363636364
 40
0.6363636363636364
 40
0.6666666666666666
 40
0.6666666666666666
 40
0.6666666666666666
 40
0.6666666666666666
 40
0.696969696969697
 40
0.696969696969697
 40
0.696969696969697
 40
0.696969696969697
 40
0.7272727272727273
 40
0.7272727272727273
 40
0.7272727272727273
 40
0.7272727272727273
 40
0.7575757575757576
 40
0.7575757575757576
 40
0.7575757575757576
 40
0.7575757575757576
 40
0.7878787878787878
 40
0.7878787878787878
 40
0.7878787878787878
 40
0.7878787878787878
 40
0.8181818181818182
 40
0.8181818181818182
 40
0.8181818181818182
 40
0.8181818181818182
 40
0.8484848484848485
 40
0.8484848484848485
 40
0.8484848484848485
 40
0.8484848484848485
 40
0.8787878787878788
 40
0.8787878787878788
 40
0.8787878787878788
 40
0.8787878787878788
 40
0.9090909090909091
 40
0.9090909090909091
 40
0.9090909090909091
 40
0.9090909090909091
 40
0.9393939393939394
 40
0.9393939393939394
 40
0.9393939393939394
 40
0.9393939393939394
 40
1.0
 40
1.0
 40
1.0
 40
1.0
 10
14.2797
 20
-0.8317
 30
0.0
 10
14.2797
 20
-0.8317
 30
0.0
 10
14.2797
 20
-2.0386
 30
0.0
 10
14.2797
 20
-2.0386
 30
0.0
 10
14.2797
 20
-2.0386
 30
0.0
 10
14.2797
 20
-2.0386
 30
0.0
 10
15.4905
 20
-2.2016
 30
0.0
 10
15.4905
 20
-2.2016
 30
0.0
 10
15.4905
 20
-2.2016
 30
0.0
 10
15.484
 20
-2.155
 30
0.0
 10
15.4788
 20
-2.1032
 30
0.0
 10
15.4743
 20
-2.045
 30
0.0
 10
15.4743
 20
-2.045
 30
0.0
 10
15.4698
 20
-1.9875
 30
0.0
 10
15.4672
 20
-1.9215
 30
0.0
 10
15.4672
 20
-1.8484
 30
0.0
 10
15.4672
 20
-1.8484
 30
0.0
 10
15.4678
 20
-1.6816
 30
0.0
 10
15.4918
 20
-1.5451
 30
0.0
 10
15.5383
 20
-1.439
 30
0.0
 10
15.5383
 20
-1.439
 30
0.0
 10
15.5855
 20
-1.3323
 30
0.0
 10
15.6502
 20
-1.2534
 30
0.0
 10
15.733
 20
-1.2023
 30
0.0
 10
15.733
 20
-1.2023
 30
0.0
 10
15.8164
 20
-1.1512
 30
0.0
 10
15.9128
 20
-1.126
 30
0.0
 10
16.0221
 20
-1.1266
 30
0.0
 10
16.0221
 20
-1.1266
 30
0.0
 10
16.1068
 20
-1.126
 30
0.0
 10
16.1825
 20
-1.1415
 30
0.0
 10
16.2498
 20
-1.1732
 30
0.0
 10
16.2498
 20
-1.1732
 30
0.0
 10
16.3177
 20
-1.2042
 30
0.0
 10
16.3746
 20
-1.2476
 30
0.0
 10
16.4224
 20
-1.3025
 30
0.0
 10
16.4224
 20
-1.3025
 30
0.0
 10
16.4697
 20
-1.3575
 30
0.0
 10
16.5059
 20
-1.4209
 30
0.0
 10
16.5311
 20
-1.4927
 30
0.0
 10
16.5311
 20
-1.4927
 30
0.0
 10
16.5563
 20
-1.5645
 30
0.0
 10
16.5693
 20
-1.6402
 30
0.0
 10
16.5693
 20
-1.7204
 30
0.0
 10
16.5693
 20
-1.7204
 30
0.0
 10
16.5686
 20
-1.7986
 30
0.0
 10
16.5615
 20
-1.8723
 30
0.0
 10
16.5466
 20
-1.9416
 30
0.0
 10
16.5466
 20
-1.9416
 30
0.0
 10
16.5324
 20
-2.0108
 30
0.0
 10
16.5149
 20
-2.0728
 30
0.0
 10
16.4936
 20
-2.1278
 30
0.0
 10
16.4936
 20
-2.1278
 30
0.0
 10
16.4722
 20
-2.1828
 30
0.0
 10
16.4509
 20
-2.2281
 30
0.0
 10
16.4296
 20
-2.2636
 30
0.0
 10
16.4296
 20
-2.2636
 30
0.0
 10
16.4296
 20
-2.2636
 30
0.0
 10
16.6896
 20
-2.349
 30
0.0
 10
16.6896
 20
-2.349
 30
0.0
 10
16.6896
 20
-2.349
 30
0.0
 10
16.7161
 20
-2.307
 30
0.0
 10
16.7407
 20
-2.2546
 30
0.0
 10
16.7646
 20
-2.1919
 30
0.0
 10
16.7646
 20
-2.1919
 30
0.0
 10
16.7879
 20
-2.1291
 30
0.0
 10
16.8066
 20
-2.058
 30
0.0
 10
16.8215
 20
-1.9784
 30
0.0
 10
16.8215
 20
-1.9784
 30
0.0
 10
16.8364
 20
-1.8982
 30
0.0
 10
16.8441
 20
-1.8122
 30
0.0
 10
16.8448
 20
-1.7204
 30
0.0
 10
16.8448
 20
-1.7204
 30
0.0
 10
16.8441
 20
-1.5826
 30
0.0
 10
16.8221
 20
-1.4571
 30
0.0
 10
16.7795
 20
-1.3426
 30
0.0
 10
16.7795
 20
-1.3426
 30
0.0
 10
16.7368
 20
-1.2282
 30
0.0
 10
16.6766
 20
-1.1292
 30
0.0
 10
16.599
 20
-1.0458
 30
0.0
 10
16.599
 20
-1.0458
 30
0.0
 10
16.5214
 20
-0.9617
 30
0.0
 10
16.4302
 20
-0.897
 30
0.0
 10
16.3261
 20
-0.8511
 30
0.0
 10
16.3261
 20
-0.8511
 30
0.0
 10
16.2213
 20
-0.8052
 30
0.0
 10
16.1068
 20
-0.7819
 30
0.0
 10
15.9833
 20
-0.7813
 30
0.0
 10
15.9833
 20
-0.7813
 30
0.0
 10
15.8785
 20
-0.7819
 30
0.0
 10
15.7841
 20
-0.7987
 30
0.0
 10
15.7007
 20
-0.8311
 30
0.0
 10
15.7007
 20
-0.8311
 30
0.0
 10
15.6172
 20
-0.8634
 30
0.0
 10
15.5454
 20
-0.9061
 30
0.0
 10
15.4846
 20
-0.9604
 30
0.0
 10
15.4846
 20
-0.9604
 30
0.0
 10
15.4238
 20
-1.0147
 30
0.0
 10
15.3753
 20
-1.0755
 30
0.0
 10
15.3391
 20
-1.1421
 30
0.0
 10
15.3391
 20
-1.1421
 30
0.0
 10
15.2913
 20
-1.2204
 30
0.0
 10
15.2563
 20
-1.3051
 30
0.0
 10
15.235
 20
-1.3976
 30
0.0
 10
15.235
 20
-1.3976
 30
0.0
 10
15.2136
 20
-1.4901
 30
0.0
 10
15.2026
 20
-1.5858
 30
0.0
 10
15.2033
 20
-1.6854
 30
0.0
 10
15.2033
 20
-1.6854
 30
0.0
 10
15.2033
 20
-1.7307
 30
0.0
 10
15.2039
 20
-1.7695
 30
0.0
 10
15.2059
 20
-1.8012
 30
0.0
 10
15.2059
 20
-1.8012
 30
0.0
 10
15.2078
 20
-1.8329
 30
0.0
 10
15.2111
 20
-1.8626
 30
0.0
 10
15.2149
 20
-1.8911
 30
0.0
 10
15.2149
 20
-1.8911
 30
0.0
 10
15.2149
 20
-1.8911
 30
0.0
 10
14.5669
 20
-1.7941
 30
0.0
 10
14.5669
 20
-1.7941
 30
0.0
 10
14.5669
 20
-1.7941
 30
0.0
 10
14.5669
 20
-1.7941
 30
0.0
 10
14.5669
 20
-0.8317
 30
0.0
 10
14.5669
 20
-0.8317
 30
0.0
 10
14.5669
 20
-0.8317
 30
0.0
 10
14.5669
 20
-0.8317
 30
0.0
 10
14.2797
 20
-0.8317
 30
0.0
 10
14.2797
 20
-0.8317
 30
0.0
  0
SPLINE
  5
BB
330
1F
100
AcDbEntity
  8
Ilustrace
 62
   250
100
AcDbSpline
210
0.0
220
0.0
230
1.0
 70
    11
 71
     3
 72
    36
 73
    32
 74
     0
 42
0.0000000001
 43
0.0000000001
 40
0.0
 40
0.0
 40
0.0
 40
0.0
 40
0.1111111111111111
 40
0.1111111111111111
 40
0.1111111111111111
 40
0.1111111111111111
 40
0.2222222222222222
 40
0.2222222222222222
 40
0.2222222222222222
 40
0.2222222222222222
 40
0.3333333333333333
 40
0.3333333333333333
 40
0.3333333333333333
 40
0.3333333333333333
 40
0.4444444444444444
 40
0.4444444444444444
 40
0.4444444444444444
 40
0.4444444444444444
 40
0.5555555555555556
 40
0.5555555555555556
 40
0.5555555555555556
 40
0.5555555555555556
 40
0.6666666666666666
 40
0.6666666666666666
 40
0.6666666666666666
 40
0.6666666666666666
 40
0.7777777777777778
 40
0.7777777777777778
 40
0.7777777777777778
 40
0.7777777777777778
 40
1.0
 40
1.0
 40
1.0
 40
1.0
 10
16.8021
 20
2.3348
 30
0.0
 10
16.8021
 20
2.3348
 30
0.0
 10
16.8021
 20
2.6647
 30
0.0
 10
16.8021
 20
2.6647
 30
0.0
 10
16.8021
 20
2.6647
 30
0.0
 10
16.8021
 20
2.6647
 30
0.0
 10
14.2797
 20
2.6647
 30
0.0
 10
14.2797
 20
2.6647
 30
0.0
 10
14.2797
 20
2.6647
 30
0.0
 10
14.2797
 20
2.6647
 30
0.0
 10
14.2797
 20
2.3736
 30
0.0
 10
14.2797
 20
2.3736
 30
0.0
 10
14.2797
 20
2.3736
 30
0.0
 10
14.2797
 20
2.3736
 30
0.0
 10
14.5746
 20
1.8226
 30
0.0
 10
14.5746
 20
1.8226
 30
0.0
 10
14.5746
 20
1.8226
 30
0.0
 10
14.5746
 20
1.8226
 30
0.0
 10
14.8346
 20
1.8886
 30
0.0
 10
14.8346
 20
1.8886
 30
0.0
 10
14.8346
 20
1.8886
 30
0.0
 10
14.8346
 20
1.8886
 30
0.0
 10
14.5979
 20
2.3271
 30
0.0
 10
14.5979
 20
2.3271
 30
0.0
 10
14.5979
 20
2.3271
 30
0.0
 10
14.5979
 20
2.3271
 30
0.0
 10
14.5979
 20
2.3348
 30
0.0
 10
14.5979
 20
2.3348
 30
0.0
 10
14.5979
 20
2.3348
 30
0.0
 10
14.5979
 20
2.3348
 30
0.0
 10
16.8021
 20
2.3348
 30
0.0
 10
16.8021
 20
2.3348
 30
0.0
  0
SPLINE
  5
BC
330
1F
100
AcDbEntity
  8
Ilustrace
 62
   250
100
AcDbSpline
210
0.0
220
0.0
230
1.0
 70
    11
 71
     3
 72
   124
 73
   120
 74
     0
 42
0.0000000001
 43
0.0000000001
 40
0.0
 40
0.0
 40
0.0
 40
0.0
 40
0.032258064516129
 40
0.032258064516129
 40
0.032258064516129
 40
0.032258064516129
 40
0.0645161290322581
 40
0.0645161290322581
 40
0.0645161290322581
 40
0.0645161290322581
 40
0.0967741935483871
 40
0.0967741935483871
 40
0.0967741935483871
 40
0.0967741935483871
 40
0.1290322580645161
 40
0.1290322580645161
 40
0.1290322580645161
 40
0.1290322580645161
 40
0.1612903225806452
 40
0.1612903225806452
 40
0.1612903225806452
 40
0.1612903225806452
 40
0.1935483870967742
 40
0.1935483870967742
 40
0.1935483870967742
 40
0.1935483870967742
 40
0.2258064516129032
 40
0.2258064516129032
 40
0.2258064516129032
 40
0.2258064516129032
 40
0.2580645161290323
 40
0.2580645161290323
 40
0.2580645161290323
 40
0.2580645161290323
 40
0.2903225806451613
 40
0.2903225806451613
 40
0.2903225806451613
 40
0.2903225806451613
 40
0.3225806451612903
 40
0.3225806451612903
 40
0.3225806451612903
 40
0.3225806451612903
 40
0.3548387096774194
 40
0.3548387096774194
 40
0.3548387096774194
 40
0.3548387096774194
 40
0.3870967741935484
 40
0.3870967741935484
 40
0.3870967741935484
 40
0.3870967741935484
 40
0.4193548387096774
 40
0.4193548387096774
 40
0.4193548387096774
 40
0.4193548387096774
 40
0.4516129032258064
 40
0.4516129032258064
 40
0.4516129032258064
 40
0.4516129032258064
 40
0.4838709677419355
 40
0.4838709677419355
 40
0.4838709677419355
 40
0.4838709677419355
 40
0.5161290322580645
 40
0.5161290322580645
 40
0.5161290322580645
 40
0.5161290322580645
 40
0.5483870967741935
 40
0.5483870967741935
 40
0.5483870967741935
 40
0.5483870967741935
 40
0.5806451612903226
 40
0.5806451612903226
 40
0.5806451612903226
 40
0.5806451612903226
 40
0.6129032258064516
 40
0.6129032258064516
 40
0.6129032258064516
 40
0.6129032258064516
 40
0.6451612903225806
 40
0.6451612903225806
 40
0.6451612903225806
 40
0.6451612903225806
 40
0.6774193548387096
 40
0.6774193548387096
 40
0.6774193548387096
 40
0.6774193548387096
 40
0.7096774193548387
 40
0.7096774193548387
 40
0.7096774193548387
 40
0.7096774193548387
 40
0.7419354838709677
 40
0.7419354838709677
 40
0.7419354838709677
 40
0.7419354838709677
 40
0.7741935483870968
 40
0.7741935483870968
 40
0.7741935483870968
 40
0.7741935483870968
 40
0.8064516129032258
 40
0.8064516129032258
 40
0.8064516129032258
 40
0.8064516129032258
 40
0.8387096774193549
 40
0.8387096774193549
 40
0.8387096774193549
 40
0.8387096774193549
 40
0.8709677419354839
 40
0.8709677419354839
 40
0.8709677419354839
 40
0.8709677419354839
 40
0.9032258064516129
 40
0.9032258064516129
 40
0.9032258064516129
 40
0.9032258064516129
 40
0.9354838709677419
 40
0.9354838709677419
 40
0.9354838709677419
 40
0.9354838709677419
 40
1.0
 40
1.0
 40
1.0
 40
1.0
 10
16.8021
 20
5.1948
 30
0.0
 10
16.8021
 20
5.1948
 30
0.0
 10
16.5188
 20
5.1948
 30
0.0
 10
16.5188
 20
5.1948
 30
0.0
 10
16.5188
 20
5.1948
 30
0.0
 10
16.5188
 20
5.1948
 30
0.0
 10
16.5188
 20
4.0655
 30
0.0
 10
16.5188
 20
4.0655
 30
0.0
 10
16.5188
 20
4.0655
 30
0.0
 10
16.5188
 20
4.0655
 30
0.0
 10
16.5111
 20
4.0655
 30
0.0
 10
16.5111
 20
4.0655
 30
0.0
 10
16.5111
 20
4.0655
 30
0.0
 10
16.5111
 20
4.0655
 30
0.0
 10
16.3248
 20
4.2634
 30
0.0
 10
16.3248
 20
4.2634
 30
0.0
 10
16.3248
 20
4.2634
 30
0.0
 10
16.1974
 20
4.3967
 30
0.0
 10
16.0764
 20
4.517
 30
0.0
 10
15.9626
 20
4.6237
 30
0.0
 10
15.9626
 20
4.6237
 30
0.0
 10
15.8488
 20
4.7304
 30
0.0
 10
15.7375
 20
4.8216
 30
0.0
 10
15.6302
 20
4.8973
 30
0.0
 10
15.6302
 20
4.8973
 30
0.0
 10
15.5228
 20
4.9736
 30
0.0
 10
15.4148
 20
5.0311
 30
0.0
 10
15.3061
 20
5.0719
 30
0.0
 10
15.3061
 20
5.0719
 30
0.0
 10
15.1981
 20
5.112
 30
0.0
 10
15.0862
 20
5.132
 30
0.0
 10
14.9705
 20
5.1327
 30
0.0
 10
14.9705
 20
5.1327
 30
0.0
 10
14.8793
 20
5.1327
 30
0.0
 10
14.79
 20
5.1185
 30
0.0
 10
14.7033
 20
5.0887
 30
0.0
 10
14.7033
 20
5.0887
 30
0.0
 10
14.6167
 20
5.059
 30
0.0
 10
14.5384
 20
5.0124
 30
0.0
 10
14.4686
 20
4.9503
 30
0.0
 10
14.4686
 20
4.9503
 30
0.0
 10
14.3981
 20
4.8882
 30
0.0
 10
14.3424
 20
4.808
 30
0.0
 10
14.3011
 20
4.7103
 30
0.0
 10
14.3011
 20
4.7103
 30
0.0
 10
14.259
 20
4.6127
 30
0.0
 10
14.2377
 20
4.4963
 30
0.0
 10
14.237
 20
4.3604
 30
0.0
 10
14.237
 20
4.3604
 30
0.0
 10
14.2377
 20
4.2647
 30
0.0
 10
14.2487
 20
4.1735
 30
0.0
 10
14.2713
 20
4.0869
 30
0.0
 10
14.2713
 20
4.0869
 30
0.0
 10
14.2939
 20
4.0002
 30
0.0
 10
14.3243
 20
3.92
 30
0.0
 10
14.3631
 20
3.8463
 30
0.0
 10
14.3631
 20
3.8463
 30
0.0
 10
14.4013
 20
3.7732
 30
0.0
 10
14.4446
 20
3.7079
 30
0.0
 10
14.4931
 20
3.6503
 30
0.0
 10
14.4931
 20
3.6503
 30
0.0
 10
14.4931
 20
3.6503
 30
0.0
 10
14.7337
 20
3.759
 30
0.0
 10
14.7337
 20
3.759
 30
0.0
 10
14.7337
 20
3.759
 30
0.0
 10
14.7008
 20
3.7978
 30
0.0
 10
14.6678
 20
3.8443
 30
0.0
 10
14.6354
 20
3.8987
 30
0.0
 10
14.6354
 20
3.8987
 30
0.0
 10
14.6024
 20
3.953
 30
0.0
 10
14.5759
 20
4.0131
 30
0.0
 10
14.5539
 20
4.0798
 30
0.0
 10
14.5539
 20
4.0798
 30
0.0
 10
14.5326
 20
4.1464
 30
0.0
 10
14.521
 20
4.2182
 30
0.0
 10
14.5203
 20
4.2945
 30
0.0
 10
14.5203
 20
4.2945
 30
0.0
 10
14.521
 20
4.3883
 30
0.0
 10
14.5345
 20
4.4672
 30
0.0
 10
14.5611
 20
4.5312
 30
0.0
 10
14.5611
 20
4.5312
 30
0.0
 10
14.5882
 20
4.5946
 30
0.0
 10
14.6244
 20
4.6457
 30
0.0
 10
14.6704
 20
4.6838
 30
0.0
 10
14.6704
 20
4.6838
 30
0.0
 10
14.7169
 20
4.722
 30
0.0
 10
14.7693
 20
4.7498
 30
0.0
 10
14.8282
 20
4.7666
 30
0.0
 10
14.8282
 20
4.7666
 30
0.0
 10
14.887
 20
4.7834
 30
0.0
 10
14.9485
 20
4.7918
 30
0.0
 10
15.0131
 20
4.7912
 30
0.0
 10
15.0131
 20
4.7912
 30
0.0
 10
15.1076
 20
4.7912
 30
0.0
 10
15.2007
 20
4.7724
 30
0.0
 10
15.2932
 20
4.7349
 30
0.0
 10
15.2932
 20
4.7349
 30
0.0
 10
15.3863
 20
4.6974
 30
0.0
 10
15.4833
 20
4.6405
 30
0.0
 10
15.5855
 20
4.5635
 30
0.0
 10
15.5855
 20
4.5635
 30
0.0
 10
15.6877
 20
4.4866
 30
0.0
 10
15.7996
 20
4.3889
 30
0.0
 10
15.9212
 20
4.2705
 30
0.0
 10
15.9212
 20
4.2705
 30
0.0
 10
16.0428
 20
4.1528
 30
0.0
 10
16.1799
 20
4.0131
 30
0.0
 10
16.3325
 20
3.8521
 30
0.0
 10
16.3325
 20
3.8521
 30
0.0
 10
16.3325
 20
3.8521
 30
0.0
 10
16.5925
 20
3.5843
 30
0.0
 10
16.5925
 20
3.5843
 30
0.0
 10
16.5925
 20
3.5843
 30
0.0
 10
16.5925
 20
3.5843
 30
0.0
 10
16.8021
 20
3.5843
 30
0.0
 10
16.8021
 20
3.5843
 30
0.0
 10
16.8021
 20
3.5843
 30
0.0
 10
16.8021
 20
3.5843
 30
0.0
 10
16.8021
 20
5.1948
 30
0.0
 10
16.8021
 20
5.1948
 30
0.0
  0
SPLINE
  5
BD
330
1F
100
AcDbEntity
  8
Ilustrace
 62
   250
100
AcDbSpline
210
0.0
220
0.0
230
1.0
 70
    11
 71
     3
 72
   132
 73
   128
 74
     0
 42
0.0000000001
 43
0.0000000001
 40
0.0
 40
0.0
 40
0.0
 40
0.0
 40
0.0303030303030303
 40
0.0303030303030303
 40
0.0303030303030303
 40
0.0303030303030303
 40
0.0606060606060606
 40
0.0606060606060606
 40
0.0606060606060606
 40
0.0606060606060606
 40
0.0909090909090909
 40
0.0909090909090909
 40
0.0909090909090909
 40
0.0909090909090909
 40
0.1212121212121212
 40
0.1212121212121212
 40
0.1212121212121212
 40
0.1212121212121212
 40
0.1515151515151515
 40
0.1515151515151515
 40
0.1515151515151515
 40
0.1515151515151515
 40
0.1818181818181818
 40
0.1818181818181818
 40
0.1818181818181818
 40
0.1818181818181818
 40
0.2121212121212121
 40
0.2121212121212121
 40
0.2121212121212121
 40
0.2121212121212121
 40
0.2424242424242424
 40
0.2424242424242424
 40
0.2424242424242424
 40
0.2424242424242424
 40
0.2727272727272727
 40
0.2727272727272727
 40
0.2727272727272727
 40
0.2727272727272727
 40
0.303030303030303
 40
0.303030303030303
 40
0.303030303030303
 40
0.303030303030303
 40
0.3333333333333333
 40
0.3333333333333333
 40
0.3333333333333333
 40
0.3333333333333333
 40
0.3636363636363636
 40
0.3636363636363636
 40
0.3636363636363636
 40
0.3636363636363636
 40
0.3939393939393939
 40
0.3939393939393939
 40
0.3939393939393939
 40
0.3939393939393939
 40
0.4242424242424243
 40
0.4242424242424243
 40
0.4242424242424243
 40
0.4242424242424243
 40
0.4545454545454545
 40
0.4545454545454545
 40
0.4545454545454545
 40
0.4545454545454545
 40
0.4848484848484849
 40
0.4848484848484849
 40
0.4848484848484849
 40
0.4848484848484849
 40
0.5151515151515151
 40
0.5151515151515151
 40
0.5151515151515151
 40
0.5151515151515151
 40
0.5454545454545454
 40
0.5454545454545454
 40
0.5454545454545454
 40
0.5454545454545454
 40
0.5757575757575758
 40
0.5757575757575758
 40
0.5757575757575758
 40
0.5757575757575758
 40
0.6060606060606061
 40
0.6060606060606061
 40
0.6060606060606061
 40
0.6060606060606061
 40
0.6363636363636364
 40
0.6363636363636364
 40
0.6363636363636364
 40
0.6363636363636364
 40
0.6666666666666666
 40
0.6666666666666666
 40
0.6666666666666666
 40
0.6666666666666666
 40
0.696969696969697
 40
0.696969696969697
 40
0.696969696969697
 40
0.696969696969697
 40
0.7272727272727273
 40
0.7272727272727273
 40
0.7272727272727273
 40
0.7272727272727273
 40
0.7575757575757576
 40
0.7575757575757576
 40
0.7575757575757576
 40
0.7575757575757576
 40
0.7878787878787878
 40
0.7878787878787878
 40
0.7878787878787878
 40
0.7878787878787878
 40
0.8181818181818182
 40
0.8181818181818182
 40
0.8181818181818182
 40
0.8181818181818182
 40
0.8484848484848485
 40
0.8484848484848485
 40
0.8484848484848485
 40
0.8484848484848485
 40
0.8787878787878788
 40
0.8787878787878788
 40
0.8787878787878788
 40
0.8787878787878788
 40
0.9090909090909091
 40
0.9090909090909091
 40
0.9090909090909091
 40
0.9090909090909091
 40
0.9393939393939394
 40
0.9393939393939394
 40
0.9393939393939394
 40
0.9393939393939394
 40
1.0
 40
1.0
 40
1.0
 40
1.0
 10
14.2797
 20
7.0807
 30
0.0
 10
14.2797
 20
7.0807
 30
0.0
 10
14.2797
 20
5.8738
 30
0.0
 10
14.2797
 20
5.8738
 30
0.0
 10
14.2797
 20
5.8738
 30
0.0
 10
14.2797
 20
5.8738
 30
0.0
 10
15.4905
 20
5.7108
 30
0.0
 10
15.4905
 20
5.7108
 30
0.0
 10
15.4905
 20
5.7108
 30
0.0
 10
15.484
 20
5.7574
 30
0.0
 10
15.4788
 20
5.8092
 30
0.0
 10
15.4743
 20
5.8674
 30
0.0
 10
15.4743
 20
5.8674
 30
0.0
 10
15.4698
 20
5.9249
 30
0.0
 10
15.4672
 20
5.9909
 30
0.0
 10
15.4672
 20
6.064
 30
0.0
 10
15.4672
 20
6.064
 30
0.0
 10
15.4678
 20
6.2308
 30
0.0
 10
15.4918
 20
6.3673
 30
0.0
 10
15.5383
 20
6.4734
 30
0.0
 10
15.5383
 20
6.4734
 30
0.0
 10
15.5855
 20
6.5801
 30
0.0
 10
15.6502
 20
6.659
 30
0.0
 10
15.733
 20
6.7101
 30
0.0
 10
15.733
 20
6.7101
 30
0.0
 10
15.8164
 20
6.7612
 30
0.0
 10
15.9128
 20
6.7864
 30
0.0
 10
16.0221
 20
6.7858
 30
0.0
 10
16.0221
 20
6.7858
 30
0.0
 10
16.1068
 20
6.7864
 30
0.0
 10
16.1825
 20
6.7709
 30
0.0
 10
16.2498
 20
6.7392
 30
0.0
 10
16.2498
 20
6.7392
 30
0.0
 10
16.3177
 20
6.7082
 30
0.0
 10
16.3746
 20
6.6648
 30
0.0
 10
16.4224
 20
6.6099
 30
0.0
 10
16.4224
 20
6.6099
 30
0.0
 10
16.4697
 20
6.5549
 30
0.0
 10
16.5059
 20
6.4915
 30
0.0
 10
16.5311
 20
6.4197
 30
0.0
 10
16.5311
 20
6.4197
 30
0.0
 10
16.5563
 20
6.3479
 30
0.0
 10
16.5693
 20
6.2722
 30
0.0
 10
16.5693
 20
6.192
 30
0.0
 10
16.5693
 20
6.192
 30
0.0
 10
16.5686
 20
6.1138
 30
0.0
 10
16.5615
 20
6.0401
 30
0.0
 10
16.5466
 20
5.9708
 30
0.0
 10
16.5466
 20
5.9708
 30
0.0
 10
16.5324
 20
5.9016
 30
0.0
 10
16.5149
 20
5.8396
 30
0.0
 10
16.4936
 20
5.7846
 30
0.0
 10
16.4936
 20
5.7846
 30
0.0
 10
16.4722
 20
5.7296
 30
0.0
 10
16.4509
 20
5.6843
 30
0.0
 10
16.4296
 20
5.6488
 30
0.0
 10
16.4296
 20
5.6488
 30
0.0
 10
16.4296
 20
5.6488
 30
0.0
 10
16.6896
 20
5.5634
 30
0.0
 10
16.6896
 20
5.5634
 30
0.0
 10
16.6896
 20
5.5634
 30
0.0
 10
16.7161
 20
5.6054
 30
0.0
 10
16.7407
 20
5.6578
 30
0.0
 10
16.7646
 20
5.7205
 30
0.0
 10
16.7646
 20
5.7205
 30
0.0
 10
16.7879
 20
5.7833
 30
0.0
 10
16.8066
 20
5.8544
 30
0.0
 10
16.8215
 20
5.934
 30
0.0
 10
16.8215
 20
5.934
 30
0.0
 10
16.8364
 20
6.0142
 30
0.0
 10
16.8441
 20
6.1002
 30
0.0
 10
16.8448
 20
6.192
 30
0.0
 10
16.8448
 20
6.192
 30
0.0
 10
16.8441
 20
6.3298
 30
0.0
 10
16.8221
 20
6.4553
 30
0.0
 10
16.7795
 20
6.5698
 30
0.0
 10
16.7795
 20
6.5698
 30
0.0
 10
16.7368
 20
6.6842
 30
0.0
 10
16.6766
 20
6.7832
 30
0.0
 10
16.599
 20
6.8666
 30
0.0
 10
16.599
 20
6.8666
 30
0.0
 10
16.5214
 20
6.9507
 30
0.0
 10
16.4302
 20
7.0154
 30
0.0
 10
16.3261
 20
7.0613
 30
0.0
 10
16.3261
 20
7.0613
 30
0.0
 10
16.2213
 20
7.1072
 30
0.0
 10
16.1068
 20
7.1305
 30
0.0
 10
15.9833
 20
7.1311
 30
0.0
 10
15.9833
 20
7.1311
 30
0.0
 10
15.8785
 20
7.1305
 30
0.0
 10
15.7841
 20
7.1137
 30
0.0
 10
15.7007
 20
7.0813
 30
0.0
 10
15.7007
 20
7.0813
 30
0.0
 10
15.6172
 20
7.049
 30
0.0
 10
15.5454
 20
7.0063
 30
0.0
 10
15.4846
 20
6.952
 30
0.0
 10
15.4846
 20
6.952
 30
0.0
 10
15.4238
 20
6.8977
 30
0.0
 10
15.3753
 20
6.8369
 30
0.0
 10
15.3391
 20
6.7703
 30
0.0
 10
15.3391
 20
6.7703
 30
0.0
 10
15.2913
 20
6.692
 30
0.0
 10
15.2563
 20
6.6073
 30
0.0
 10
15.235
 20
6.5148
 30
0.0
 10
15.235
 20
6.5148
 30
0.0
 10
15.2136
 20
6.4223
 30
0.0
 10
15.2026
 20
6.3266
 30
0.0
 10
15.2033
 20
6.227
 30
0.0
 10
15.2033
 20
6.227
 30
0.0
 10
15.2033
 20
6.1817
 30
0.0
 10
15.2039
 20
6.1429
 30
0.0
 10
15.2059
 20
6.1112
 30
0.0
 10
15.2059
 20
6.1112
 30
0.0
 10
15.2078
 20
6.0795
 30
0.0
 10
15.2111
 20
6.0498
 30
0.0
 10
15.2149
 20
6.0213
 30
0.0
 10
15.2149
 20
6.0213
 30
0.0
 10
15.2149
 20
6.0213
 30
0.0
 10
14.5669
 20
6.1183
 30
0.0
 10
14.5669
 20
6.1183
 30
0.0
 10
14.5669
 20
6.1183
 30
0.0
 10
14.5669
 20
6.1183
 30
0.0
 10
14.5669
 20
7.0807
 30
0.0
 10
14.5669
 20
7.0807
 30
0.0
 10
14.5669
 20
7.0807
 30
0.0
 10
14.5669
 20
7.0807
 30
0.0
 10
14.2797
 20
7.0807
 30
0.0
 10
14.2797
 20
7.0807
 30
0.0
  0
SPLINE
  5
BE
330
1F
100
AcDbEntity
  8
Ilustrace
 62
   250
100
AcDbSpline
210
0.0
220
0.0
230
1.0
 70
    11
 71
     3
 72
    20
 73
    16
 74
     0
 42
0.0000000001
 43
0.0000000001
 40
0.0
 40
0.0
 40
0.0
 40
0.0
 40
0.2
 40
0.2
 40
0.2
 40
0.2
 40
0.4
 40
0.4
 40
0.4
 40
0.4
 40
0.6
 40
0.6
 40
0.6
 40
0.6
 40
1.0
 40
1.0
 40
1.0
 40
1.0
 10
15.7
 20
-0.4049
 30
0.0
 10
15.7
 20
-0.4049
 30
0.0
 10
15.9328
 20
-0.4049
 30
0.0
 10
15.9328
 20
-0.4049
 30
0.0
 10
15.9328
 20
-0.4049
 30
0.0
 10
15.9328
 20
-0.4049
 30
0.0
 10
15.9328
 20
1.3026
 30
0.0
 10
15.9328
 20
1.3026
 30
0.0
 10
15.9328
 20
1.3026
 30
0.0
 10
15.9328
 20
1.3026
 30
0.0
 10
15.7
 20
1.3026
 30
0.0
 10
15.7
 20
1.3026
 30
0.0
 10
15.7
 20
1.3026
 30
0.0
 10
15.7
 20
1.3026
 30
0.0
 10
15.7
 20
-0.4049
 30
0.0
 10
15.7
 20
-0.4049
 30
0.0
  0
SPLINE
  5
BF
330
1F
100
AcDbEntity
  8
Ilustrace
 62
   250
100
AcDbSpline
210
0.0
220
0.0
230
1.0
 70
    11
 71
     3
 72
    68
 73
    64
 74
     0
 42
0.0000000001
 43
0.0000000001
 40
0.0
 40
0.0
 40
0.0
 40
0.0
 40
0.0588235294117647
 40
0.0588235294117647
 40
0.0588235294117647
 40
0.0588235294117647
 40
0.1176470588235294
 40
0.1176470588235294
 40
0.1176470588235294
 40
0.1176470588235294
 40
0.1764705882352941
 40
0.1764705882352941
 40
0.1764705882352941
 40
0.1764705882352941
 40
0.2352941176470588
 40
0.2352941176470588
 40
0.2352941176470588
 40
0.2352941176470588
 40
0.2941176470588235
 40
0.2941176470588235
 40
0.2941176470588235
 40
0.2941176470588235
 40
0.3529411764705883
 40
0.3529411764705883
 40
0.3529411764705883
 40
0.3529411764705883
 40
0.4117647058823529
 40
0.4117647058823529
 40
0.4117647058823529
 40
0.4117647058823529
 40
0.4705882352941176
 40
0.4705882352941176
 40
0.4705882352941176
 40
0.4705882352941176
 40
0.5294117647058824
 40
0.5294117647058824
 40
0.5294117647058824
 40
0.5294117647058824
 40
0.5882352941176471
 40
0.5882352941176471
 40
0.5882352941176471
 40
0.5882352941176471
 40
0.6470588235294118
 40
0.6470588235294118
 40
0.6470588235294118
 40
0.6470588235294118
 40
0.7058823529411765
 40
0.7058823529411765
 40
0.7058823529411765
 40
0.7058823529411765
 40
0.7647058823529411
 40
0.7647058823529411
 40
0.7647058823529411
 40
0.7647058823529411
 40
0.8235294117647058
 40
0.8235294117647058
 40
0.8235294117647058
 40
0.8235294117647058
 40
0.8823529411764706
 40
0.8823529411764706
 40
0.8823529411764706
 40
0.8823529411764706
 40
1.0
 40
1.0
 40
1.0
 40
1.0
 10
-9.2752
 20
-11.4531
 30
0.0
 10
-9.3373
 20
-11.5346
 30
0.0
 10
-9.3974
 20
-11.627
 30
0.0
 10
-9.4569
 20
-11.7318
 30
0.0
 10
-9.4569
 20
-11.7318
 30
0.0
 10
-9.5164
 20
-11.8359
 30
0.0
 10
-9.5708
 20
-11.9537
 30
0.0
 10
-9.6193
 20
-12.0837
 30
0.0
 10
-9.6193
 20
-12.0837
 30
0.0
 10
-9.6684
 20
-12.2137
 30
0.0
 10
-9.7072
 20
-12.3585
 30
0.0
 10
-9.737
 20
-12.517
 30
0.0
 10
-9.737
 20
-12.517
 30
0.0
 10
-9.7661
 20
-12.6761
 30
0.0
 10
-9.7816
 20
-12.8501
 30
0.0
 10
-9.7835
 20
-13.0402
 30
0.0
 10
-9.7835
 20
-13.0402
 30
0.0
 10
-9.7829
 20
-13.2291
 30
0.0
 10
-9.768
 20
-13.4024
 30
0.0
 10
-9.7383
 20
-13.5602
 30
0.0
 10
-9.7383
 20
-13.5602
 30
0.0
 10
-9.7092
 20
-13.718
 30
0.0
 10
-9.6697
 20
-13.8616
 30
0.0
 10
-9.6212
 20
-13.991
 30
0.0
 10
-9.6212
 20
-13.991
 30
0.0
 10
-9.572
 20
-14.1203
 30
0.0
 10
-9.5177
 20
-14.2367
 30
0.0
 10
-9.4576
 20
-14.3402
 30
0.0
 10
-9.4576
 20
-14.3402
 30
0.0
 10
-9.3981
 20
-14.4437
 30
0.0
 10
-9.3373
 20
-14.5356
 30
0.0
 10
-9.2752
 20
-14.6158
 30
0.0
 10
-9.2752
 20
-14.6158
 30
0.0
 10
-9.2752
 20
-14.6158
 30
0.0
 10
-9.0113
 20
-14.6158
 30
0.0
 10
-9.0113
 20
-14.6158
 30
0.0
 10
-9.0113
 20
-14.6158
 30
0.0
 10
-9.1031
 20
-14.487
 30
0.0
 10
-9.1853
 20
-14.3448
 30
0.0
 10
-9.2577
 20
-14.1895
 30
0.0
 10
-9.2577
 20
-14.1895
 30
0.0
 10
-9.3308
 20
-14.0337
 30
0.0
 10
-9.3884
 20
-13.8616
 30
0.0
 10
-9.4311
 20
-13.6721
 30
0.0
 10
-9.4311
 20
-13.6721
 30
0.0
 10
-9.4737
 20
-13.4833
 30
0.0
 10
-9.4957
 20
-13.2737
 30
0.0
 10
-9.4964
 20
-13.0441
 30
0.0
 10
-9.4964
 20
-13.0441
 30
0.0
 10
-9.4957
 20
-12.8093
 30
0.0
 10
-9.475
 20
-12.5953
 30
0.0
 10
-9.4336
 20
-12.4032
 30
0.0
 10
-9.4336
 20
-12.4032
 30
0.0
 10
-9.3922
 20
-12.2104
 30
0.0
 10
-9.3353
 20
-12.0358
 30
0.0
 10
-9.2629
 20
-11.8793
 30
0.0
 10
-9.2629
 20
-11.8793
 30
0.0
 10
-9.1905
 20
-11.7228
 30
0.0
 10
-9.1064
 20
-11.5805
 30
0.0
 10
-9.0113
 20
-11.4531
 30
0.0
 10
-9.0113
 20
-11.4531
 30
0.0
 10
-9.0113
 20
-11.4531
 30
0.0
 10
-9.2752
 20
-11.4531
 30
0.0
 10
-9.2752
 20
-11.4531
 30
0.0
  0
SPLINE
  5
C0
330
1F
100
AcDbEntity
  8
Ilustrace
 62
   250
100
AcDbSpline
210
0.0
220
0.0
230
1.0
 70
    11
 71
     3
 72
   104
 73
   100
 74
     0
 42
0.0000000001
 43
0.0000000001
 40
0.0
 40
0.0
 40
0.0
 40
0.0
 40
0.0384615384615385
 40
0.0384615384615385
 40
0.0384615384615385
 40
0.0384615384615385
 40
0.0769230769230769
 40
0.0769230769230769
 40
0.0769230769230769
 40
0.0769230769230769
 40
0.1153846153846154
 40
0.1153846153846154
 40
0.1153846153846154
 40
0.1153846153846154
 40
0.1538461538461539
 40
0.1538461538461539
 40
0.1538461538461539
 40
0.1538461538461539
 40
0.1923076923076923
 40
0.1923076923076923
 40
0.1923076923076923
 40
0.1923076923076923
 40
0.2307692307692308
 40
0.2307692307692308
 40
0.2307692307692308
 40
0.2307692307692308
 40
0.2692307692307692
 40
0.2692307692307692
 40
0.2692307692307692
 40
0.2692307692307692
 40
0.3076923076923077
 40
0.3076923076923077
 40
0.3076923076923077
 40
0.3076923076923077
 40
0.3461538461538461
 40
0.3461538461538461
 40
0.3461538461538461
 40
0.3461538461538461
 40
0.3846153846153846
 40
0.3846153846153846
 40
0.3846153846153846
 40
0.3846153846153846
 40
0.4230769230769231
 40
0.4230769230769231
 40
0.4230769230769231
 40
0.4230769230769231
 40
0.4615384615384616
 40
0.4615384615384616
 40
0.4615384615384616
 40
0.4615384615384616
 40
0.5
 40
0.5
 40
0.5
 40
0.5
 40
0.5384615384615384
 40
0.5384615384615384
 40
0.5384615384615384
 40
0.5384615384615384
 40
0.5769230769230769
 40
0.5769230769230769
 40
0.5769230769230769
 40
0.5769230769230769
 40
0.6153846153846154
 40
0.6153846153846154
 40
0.6153846153846154
 40
0.6153846153846154
 40
0.6538461538461539
 40
0.6538461538461539
 40
0.6538461538461539
 40
0.6538461538461539
 40
0.6923076923076923
 40
0.6923076923076923
 40
0.6923076923076923
 40
0.6923076923076923
 40
0.7307692307692307
 40
0.7307692307692307
 40
0.7307692307692307
 40
0.7307692307692307
 40
0.7692307692307693
 40
0.7692307692307693
 40
0.7692307692307693
 40
0.7692307692307693
 40
0.8076923076923077
 40
0.8076923076923077
 40
0.8076923076923077
 40
0.8076923076923077
 40
0.8461538461538461
 40
0.8461538461538461
 40
0.8461538461538461
 40
0.8461538461538461
 40
0.8846153846153846
 40
0.8846153846153846
 40
0.8846153846153846
 40
0.8846153846153846
 40
0.9230769230769231
 40
0.9230769230769231
 40
0.9230769230769231
 40
0.9230769230769231
 40
1.0
 40
1.0
 40
1.0
 40
1.0
 10
-8.5418
 20
-14.3131
 30
0.0
 10
-8.5418
 20
-14.3131
 30
0.0
 10
-8.2973
 20
-13.9793
 30
0.0
 10
-8.2973
 20
-13.9793
 30
0.0
 10
-8.2973
 20
-13.9793
 30
0.0
 10
-8.2035
 20
-14.0472
 30
0.0
 10
-8.1007
 20
-14.0996
 30
0.0
 10
-7.9894
 20
-14.1352
 30
0.0
 10
-7.9894
 20
-14.1352
 30
0.0
 10
-7.8775
 20
-14.1708
 30
0.0
 10
-7.7605
 20
-14.1889
 30
0.0
 10
-7.6376
 20
-14.1889
 30
0.0
 10
-7.6376
 20
-14.1889
 30
0.0
 10
-7.5115
 20
-14.1889
 30
0.0
 10
-7.3892
 20
-14.1701
 30
0.0
 10
-7.2722
 20
-14.1333
 30
0.0
 10
-7.2722
 20
-14.1333
 30
0.0
 10
-7.1551
 20
-14.0964
 30
0.0
 10
-7.0464
 20
-14.0414
 30
0.0
 10
-6.9468
 20
-13.9677
 30
0.0
 10
-6.9468
 20
-13.9677
 30
0.0
 10
-6.8466
 20
-13.8946
 30
0.0
 10
-6.7593
 20
-13.8028
 30
0.0
 10
-6.6843
 20
-13.6928
 30
0.0
 10
-6.6843
 20
-13.6928
 30
0.0
 10
-6.6099
 20
-13.5829
 30
0.0
 10
-6.5517
 20
-13.4548
 30
0.0
 10
-6.5096
 20
-13.308
 30
0.0
 10
-6.5096
 20
-13.308
 30
0.0
 10
-6.4682
 20
-13.1618
 30
0.0
 10
-6.4469
 20
-12.9975
 30
0.0
 10
-6.4462
 20
-12.8152
 30
0.0
 10
-6.4462
 20
-12.8152
 30
0.0
 10
-6.4462
 20
-12.6864
 30
0.0
 10
-6.4592
 20
-12.5642
 30
0.0
 10
-6.4857
 20
-12.4478
 30
0.0
 10
-6.4857
 20
-12.4478
 30
0.0
 10
-6.5116
 20
-12.3307
 30
0.0
 10
-6.5497
 20
-12.2221
 30
0.0
 10
-6.5995
 20
-12.1218
 30
0.0
 10
-6.5995
 20
-12.1218
 30
0.0
 10
-6.65
 20
-12.0216
 30
0.0
 10
-6.7114
 20
-11.9323
 30
0.0
 10
-6.7839
 20
-11.8528
 30
0.0
 10
-6.7839
 20
-11.8528
 30
0.0
 10
-6.7839
 20
-11.8528
 30
0.0
 10
-6.5433
 20
-11.519
 30
0.0
 10
-6.5433
 20
-11.519
 30
0.0
 10
-6.5433
 20
-11.519
 30
0.0
 10
-6.5433
 20
-11.519
 30
0.0
 10
-6.7489
 20
-11.3793
 30
0.0
 10
-6.7489
 20
-11.3793
 30
0.0
 10
-6.7489
 20
-11.3793
 30
0.0
 10
-6.7489
 20
-11.3793
 30
0.0
 10
-6.9779
 20
-11.6937
 30
0.0
 10
-6.9779
 20
-11.6937
 30
0.0
 10
-6.9779
 20
-11.6937
 30
0.0
 10
-7.0717
 20
-11.6238
 30
0.0
 10
-7.1732
 20
-11.5714
 30
0.0
 10
-7.2832
 20
-11.5365
 30
0.0
 10
-7.2832
 20
-11.5365
 30
0.0
 10
-7.3938
 20
-11.5016
 30
0.0
 10
-7.5089
 20
-11.4841
 30
0.0
 10
-7.6298
 20
-11.4841
 30
0.0
 10
-7.6298
 20
-11.4841
 30
0.0
 10
-7.8025
 20
-11.4848
 30
0.0
 10
-7.9616
 20
-11.5171
 30
0.0
 10
-8.1084
 20
-11.5811
 30
0.0
 10
-8.1084
 20
-11.5811
 30
0.0
 10
-8.2546
 20
-11.6452
 30
0.0
 10
-8.382
 20
-11.7376
 30
0.0
 10
-8.4907
 20
-11.8573
 30
0.0
 10
-8.4907
 20
-11.8573
 30
0.0
 10
-8.6
 20
-11.9769
 30
0.0
 10
-8.6841
 20
-12.1205
 30
0.0
 10
-8.7449
 20
-12.288
 30
0.0
 10
-8.7449
 20
-12.288
 30
0.0
 10
-8.805
 20
-12.4556
 30
0.0
 10
-8.8361
 20
-12.6425
 30
0.0
 10
-8.8367
 20
-12.8501
 30
0.0
 10
-8.8367
 20
-12.8501
 30
0.0
 10
-8.8367
 20
-12.9807
 30
0.0
 10
-8.8225
 20
-13.1056
 30
0.0
 10
-8.7953
 20
-13.2233
 30
0.0
 10
-8.7953
 20
-13.2233
 30
0.0
 10
-8.7681
 20
-13.341
 30
0.0
 10
-8.7287
 20
-13.4503
 30
0.0
 10
-8.6776
 20
-13.5505
 30
0.0
 10
-8.6776
 20
-13.5505
 30
0.0
 10
-8.6259
 20
-13.6508
 30
0.0
 10
-8.5638
 20
-13.7407
 30
0.0
 10
-8.4913
 20
-13.8202
 30
0.0
 10
-8.4913
 20
-13.8202
 30
0.0
 10
-8.4913
 20
-13.8202
 30
0.0
 10
-8.7319
 20
-14.1578
 30
0.0
 10
-8.7319
 20
-14.1578
 30
0.0
 10
-8.7319
 20
-14.1578
 30
0.0
 10
-8.7319
 20
-14.1578
 30
0.0
 10
-8.5418
 20
-14.3131
 30
0.0
 10
-8.5418
 20
-14.3131
 30
0.0
  0
SPLINE
  5
C1
330
1F
100
AcDbEntity
  8
Ilustrace
 62
   250
100
AcDbSpline
210
0.0
220
0.0
230
1.0
 70
    11
 71
     3
 72
    52
 73
    48
 74
     0
 42
0.0000000001
 43
0.0000000001
 40
0.0
 40
0.0
 40
0.0
 40
0.0
 40
0.0769230769230769
 40
0.0769230769230769
 40
0.0769230769230769
 40
0.0769230769230769
 40
0.1538461538461539
 40
0.1538461538461539
 40
0.1538461538461539
 40
0.1538461538461539
 40
0.2307692307692308
 40
0.2307692307692308
 40
0.2307692307692308
 40
0.2307692307692308
 40
0.3076923076923077
 40
0.3076923076923077
 40
0.3076923076923077
 40
0.3076923076923077
 40
0.3846153846153846
 40
0.3846153846153846
 40
0.3846153846153846
 40
0.3846153846153846
 40
0.4615384615384616
 40
0.4615384615384616
 40
0.4615384615384616
 40
0.4615384615384616
 40
0.5384615384615384
 40
0.5384615384615384
 40
0.5384615384615384
 40
0.5384615384615384
 40
0.6153846153846154
 40
0.6153846153846154
 40
0.6153846153846154
 40
0.6153846153846154
 40
0.6923076923076923
 40
0.6923076923076923
 40
0.6923076923076923
 40
0.6923076923076923
 40
0.7692307692307693
 40
0.7692307692307693
 40
0.7692307692307693
 40
0.7692307692307693
 40
0.8461538461538461
 40
0.8461538461538461
 40
0.8461538461538461
 40
0.8461538461538461
 40
1.0
 40
1.0
 40
1.0
 40
1.0
 10
-8.2934
 20
-13.5331
 30
0.0
 10
-8.2934
 20
-13.5331
 30
0.0
 10
-8.3012
 20
-13.5369
 30
0.0
 10
-8.3012
 20
-13.5369
 30
0.0
 10
-8.3012
 20
-13.5369
 30
0.0
 10
-8.34
 20
-13.4703
 30
0.0
 10
-8.3736
 20
-13.4011
 30
0.0
 10
-8.4021
 20
-13.33
 30
0.0
 10
-8.4021
 20
-13.33
 30
0.0
 10
-8.4305
 20
-13.2582
 30
0.0
 10
-8.4525
 20
-13.1825
 30
0.0
 10
-8.468
 20
-13.101
 30
0.0
 10
-8.468
 20
-13.101
 30
0.0
 10
-8.4836
 20
-13.0202
 30
0.0
 10
-8.4913
 20
-12.9309
 30
0.0
 10
-8.4913
 20
-12.8346
 30
0.0
 10
-8.4913
 20
-12.8346
 30
0.0
 10
-8.4913
 20
-12.7233
 30
0.0
 10
-8.4797
 20
-12.616
 30
0.0
 10
-8.457
 20
-12.5105
 30
0.0
 10
-8.457
 20
-12.5105
 30
0.0
 10
-8.4338
 20
-12.4058
 30
0.0
 10
-8.3995
 20
-12.3074
 30
0.0
 10
-8.3542
 20
-12.2169
 30
0.0
 10
-8.3542
 20
-12.2169
 30
0.0
 10
-8.3083
 20
-12.1257
 30
0.0
 10
-8.2514
 20
-12.0455
 30
0.0
 10
-8.1828
 20
-11.9769
 30
0.0
 10
-8.1828
 20
-11.9769
 30
0.0
 10
-8.1143
 20
-11.9077
 30
0.0
 10
-8.0347
 20
-11.8541
 30
0.0
 10
-7.9442
 20
-11.8153
 30
0.0
 10
-7.9442
 20
-11.8153
 30
0.0
 10
-7.853
 20
-11.7758
 30
0.0
 10
-7.7508
 20
-11.7564
 30
0.0
 10
-7.6376
 20
-11.7558
 30
0.0
 10
-7.6376
 20
-11.7558
 30
0.0
 10
-7.5386
 20
-11.7564
 30
0.0
 10
-7.4481
 20
-11.7726
 30
0.0
 10
-7.3666
 20
-11.8049
 30
0.0
 10
-7.3666
 20
-11.8049
 30
0.0
 10
-7.2845
 20
-11.8366
 30
0.0
 10
-7.2107
 20
-11.8812
 30
0.0
 10
-7.1448
 20
-11.9381
 30
0.0
 10
-7.1448
 20
-11.9381
 30
0.0
 10
-7.1448
 20
-11.9381
 30
0.0
 10
-8.2934
 20
-13.5331
 30
0.0
 10
-8.2934
 20
-13.5331
 30
0.0
  0
SPLINE
  5
C2
330
1F
100
AcDbEntity
  8
Ilustrace
 62
   250
100
AcDbSpline
210
0.0
220
0.0
230
1.0
 70
    11
 71
     3
 72
    48
 73
    44
 74
     0
 42
0.0000000001
 43
0.0000000001
 40
0.0
 40
0.0
 40
0.0
 40
0.0
 40
0.0833333333333333
 40
0.0833333333333333
 40
0.0833333333333333
 40
0.0833333333333333
 40
0.1666666666666667
 40
0.1666666666666667
 40
0.1666666666666667
 40
0.1666666666666667
 40
0.25
 40
0.25
 40
0.25
 40
0.25
 40
0.3333333333333333
 40
0.3333333333333333
 40
0.3333333333333333
 40
0.3333333333333333
 40
0.4166666666666667
 40
0.4166666666666667
 40
0.4166666666666667
 40
0.4166666666666667
 40
0.5
 40
0.5
 40
0.5
 40
0.5
 40
0.5833333333333334
 40
0.5833333333333334
 40
0.5833333333333334
 40
0.5833333333333334
 40
0.6666666666666666
 40
0.6666666666666666
 40
0.6666666666666666
 40
0.6666666666666666
 40
0.75
 40
0.75
 40
0.75
 40
0.75
 40
0.8333333333333334
 40
0.8333333333333334
 40
0.8333333333333334
 40
0.8333333333333334
 40
1.0
 40
1.0
 40
1.0
 40
1.0
 10
-6.9857
 20
-12.1438
 30
0.0
 10
-6.9857
 20
-12.1438
 30
0.0
 10
-6.974
 20
-12.1438
 30
0.0
 10
-6.974
 20
-12.1438
 30
0.0
 10
-6.974
 20
-12.1438
 30
0.0
 10
-6.9067
 20
-12.2563
 30
0.0
 10
-6.8595
 20
-12.3702
 30
0.0
 10
-6.8317
 20
-12.4853
 30
0.0
 10
-6.8317
 20
-12.4853
 30
0.0
 10
-6.8039
 20
-12.5998
 30
0.0
 10
-6.7903
 20
-12.7136
 30
0.0
 10
-6.7916
 20
-12.8268
 30
0.0
 10
-6.7916
 20
-12.8268
 30
0.0
 10
-6.7916
 20
-12.9445
 30
0.0
 10
-6.8039
 20
-13.057
 30
0.0
 10
-6.8278
 20
-13.1651
 30
0.0
 10
-6.8278
 20
-13.1651
 30
0.0
 10
-6.8518
 20
-13.2731
 30
0.0
 10
-6.8873
 20
-13.3727
 30
0.0
 10
-6.9339
 20
-13.4639
 30
0.0
 10
-6.9339
 20
-13.4639
 30
0.0
 10
-6.9811
 20
-13.5551
 30
0.0
 10
-7.0387
 20
-13.6346
 30
0.0
 10
-7.1072
 20
-13.7019
 30
0.0
 10
-7.1072
 20
-13.7019
 30
0.0
 10
-7.1764
 20
-13.7698
 30
0.0
 10
-7.2554
 20
-13.8228
 30
0.0
 10
-7.3446
 20
-13.8603
 30
0.0
 10
-7.3446
 20
-13.8603
 30
0.0
 10
-7.4339
 20
-13.8978
 30
0.0
 10
-7.5328
 20
-13.9166
 30
0.0
 10
-7.6415
 20
-13.9172
 30
0.0
 10
-7.6415
 20
-13.9172
 30
0.0
 10
-7.7469
 20
-13.9172
 30
0.0
 10
-7.8394
 20
-13.9011
 30
0.0
 10
-7.9176
 20
-13.8694
 30
0.0
 10
-7.9176
 20
-13.8694
 30
0.0
 10
-7.9965
 20
-13.8377
 30
0.0
 10
-8.067
 20
-13.7911
 30
0.0
 10
-8.1304
 20
-13.731
 30
0.0
 10
-8.1304
 20
-13.731
 30
0.0
 10
-8.1304
 20
-13.731
 30
0.0
 10
-6.9857
 20
-12.1438
 30
0.0
 10
-6.9857
 20
-12.1438
 30
0.0
  0
SPLINE
  5
C3
330
1F
100
AcDbEntity
  8
Ilustrace
 62
   250
100
AcDbSpline
210
0.0
220
0.0
230
1.0
 70
    11
 71
     3
 72
   124
 73
   120
 74
     0
 42
0.0000000001
 43
0.0000000001
 40
0.0
 40
0.0
 40
0.0
 40
0.0
 40
0.032258064516129
 40
0.032258064516129
 40
0.032258064516129
 40
0.032258064516129
 40
0.0645161290322581
 40
0.0645161290322581
 40
0.0645161290322581
 40
0.0645161290322581
 40
0.0967741935483871
 40
0.0967741935483871
 40
0.0967741935483871
 40
0.0967741935483871
 40
0.1290322580645161
 40
0.1290322580645161
 40
0.1290322580645161
 40
0.1290322580645161
 40
0.1612903225806452
 40
0.1612903225806452
 40
0.1612903225806452
 40
0.1612903225806452
 40
0.1935483870967742
 40
0.1935483870967742
 40
0.1935483870967742
 40
0.1935483870967742
 40
0.2258064516129032
 40
0.2258064516129032
 40
0.2258064516129032
 40
0.2258064516129032
 40
0.2580645161290323
 40
0.2580645161290323
 40
0.2580645161290323
 40
0.2580645161290323
 40
0.2903225806451613
 40
0.2903225806451613
 40
0.2903225806451613
 40
0.2903225806451613
 40
0.3225806451612903
 40
0.3225806451612903
 40
0.3225806451612903
 40
0.3225806451612903
 40
0.3548387096774194
 40
0.3548387096774194
 40
0.3548387096774194
 40
0.3548387096774194
 40
0.3870967741935484
 40
0.3870967741935484
 40
0.3870967741935484
 40
0.3870967741935484
 40
0.4193548387096774
 40
0.4193548387096774
 40
0.4193548387096774
 40
0.4193548387096774
 40
0.4516129032258064
 40
0.4516129032258064
 40
0.4516129032258064
 40
0.4516129032258064
 40
0.4838709677419355
 40
0.4838709677419355
 40
0.4838709677419355
 40
0.4838709677419355
 40
0.5161290322580645
 40
0.5161290322580645
 40
0.5161290322580645
 40
0.5161290322580645
 40
0.5483870967741935
 40
0.5483870967741935
 40
0.5483870967741935
 40
0.5483870967741935
 40
0.5806451612903226
 40
0.5806451612903226
 40
0.5806451612903226
 40
0.5806451612903226
 40
0.6129032258064516
 40
0.6129032258064516
 40
0.6129032258064516
 40
0.6129032258064516
 40
0.6451612903225806
 40
0.6451612903225806
 40
0.6451612903225806
 40
0.6451612903225806
 40
0.6774193548387096
 40
0.6774193548387096
 40
0.6774193548387096
 40
0.6774193548387096
 40
0.7096774193548387
 40
0.7096774193548387
 40
0.7096774193548387
 40
0.7096774193548387
 40
0.7419354838709677
 40
0.7419354838709677
 40
0.7419354838709677
 40
0.7419354838709677
 40
0.7741935483870968
 40
0.7741935483870968
 40
0.7741935483870968
 40
0.7741935483870968
 40
0.8064516129032258
 40
0.8064516129032258
 40
0.8064516129032258
 40
0.8064516129032258
 40
0.8387096774193549
 40
0.8387096774193549
 40
0.8387096774193549
 40
0.8387096774193549
 40
0.8709677419354839
 40
0.8709677419354839
 40
0.8709677419354839
 40
0.8709677419354839
 40
0.9032258064516129
 40
0.9032258064516129
 40
0.9032258064516129
 40
0.9032258064516129
 40
0.9354838709677419
 40
0.9354838709677419
 40
0.9354838709677419
 40
0.9354838709677419
 40
1.0
 40
1.0
 40
1.0
 40
1.0
 10
-5.9302
 20
-14.185
 30
0.0
 10
-5.8894
 20
-14.1869
 30
0.0
 10
-5.8422
 20
-14.1869
 30
0.0
 10
-5.7892
 20
-14.1837
 30
0.0
 10
-5.7892
 20
-14.1837
 30
0.0
 10
-5.7361
 20
-14.1811
 30
0.0
 10
-5.6779
 20
-14.1753
 30
0.0
 10
-5.6158
 20
-14.1656
 30
0.0
 10
-5.6158
 20
-14.1656
 30
0.0
 10
-5.5246
 20
-14.1553
 30
0.0
 10
-5.4354
 20
-14.1352
 30
0.0
 10
-5.3481
 20
-14.1067
 30
0.0
 10
-5.3481
 20
-14.1067
 30
0.0
 10
-5.2608
 20
-14.0776
 30
0.0
 10
-5.1773
 20
-14.0395
 30
0.0
 10
-5.0984
 20
-13.9929
 30
0.0
 10
-5.0984
 20
-13.9929
 30
0.0
 10
-5.0195
 20
-13.9463
 30
0.0
 10
-4.9477
 20
-13.8914
 30
0.0
 10
-4.8824
 20
-13.828
 30
0.0
 10
-4.8824
 20
-13.828
 30
0.0
 10
-4.799
 20
-13.7478
 30
0.0
 10
-4.7246
 20
-13.6514
 30
0.0
 10
-4.6593
 20
-13.5376
 30
0.0
 10
-4.6593
 20
-13.5376
 30
0.0
 10
-4.5939
 20
-13.4244
 30
0.0
 10
-4.5428
 20
-13.2938
 30
0.0
 10
-4.5053
 20
-13.1457
 30
0.0
 10
-4.5053
 20
-13.1457
 30
0.0
 10
-4.4678
 20
-12.9975
 30
0.0
 10
-4.4484
 20
-12.832
 30
0.0
 10
-4.4478
 20
-12.6483
 30
0.0
 10
-4.4478
 20
-12.6483
 30
0.0
 10
-4.4478
 20
-12.4847
 30
0.0
 10
-4.4672
 20
-12.3378
 30
0.0
 10
-4.5053
 20
-12.2065
 30
0.0
 10
-4.5053
 20
-12.2065
 30
0.0
 10
-4.5435
 20
-12.0753
 30
0.0
 10
-4.5991
 20
-11.9634
 30
0.0
 10
-4.6716
 20
-11.8702
 30
0.0
 10
-4.6716
 20
-11.8702
 30
0.0
 10
-4.744
 20
-11.7771
 30
0.0
 10
-4.8313
 20
-11.7059
 30
0.0
 10
-4.9341
 20
-11.6561
 30
0.0
 10
-4.9341
 20
-11.6561
 30
0.0
 10
-5.037
 20
-11.6063
 30
0.0
 10
-5.1527
 20
-11.5818
 30
0.0
 10
-5.2821
 20
-11.5811
 30
0.0
 10
-5.2821
 20
-11.5811
 30
0.0
 10
-5.4115
 20
-11.5818
 30
0.0
 10
-5.5292
 20
-11.6063
 30
0.0
 10
-5.6346
 20
-11.6542
 30
0.0
 10
-5.6346
 20
-11.6542
 30
0.0
 10
-5.74
 20
-11.7014
 30
0.0
 10
-5.8306
 20
-11.7674
 30
0.0
 10
-5.9062
 20
-11.8502
 30
0.0
 10
-5.9062
 20
-11.8502
 30
0.0
 10
-5.9826
 20
-11.9336
 30
0.0
 10
-6.0408
 20
-12.0287
 30
0.0
 10
-6.0815
 20
-12.136
 30
0.0
 10
-6.0815
 20
-12.136
 30
0.0
 10
-6.1223
 20
-12.2434
 30
0.0
 10
-6.1429
 20
-12.3572
 30
0.0
 10
-6.1436
 20
-12.4775
 30
0.0
 10
-6.1436
 20
-12.4775
 30
0.0
 10
-6.1429
 20
-12.5856
 30
0.0
 10
-6.1255
 20
-12.6864
 30
0.0
 10
-6.0912
 20
-12.7796
 30
0.0
 10
-6.0912
 20
-12.7796
 30
0.0
 10
-6.0563
 20
-12.8734
 30
0.0
 10
-6.0065
 20
-12.9549
 30
0.0
 10
-5.9418
 20
-13.0254
 30
0.0
 10
-5.9418
 20
-13.0254
 30
0.0
 10
-5.8771
 20
-13.0952
 30
0.0
 10
-5.7989
 20
-13.1502
 30
0.0
 10
-5.7083
 20
-13.1896
 30
0.0
 10
-5.7083
 20
-13.1896
 30
0.0
 10
-5.6171
 20
-13.2291
 30
0.0
 10
-5.5156
 20
-13.2491
 30
0.0
 10
-5.4024
 20
-13.2498
 30
0.0
 10
-5.4024
 20
-13.2498
 30
0.0
 10
-5.2743
 20
-13.2491
 30
0.0
 10
-5.1599
 20
-13.2259
 30
0.0
 10
-5.0596
 20
-13.1799
 30
0.0
 10
-5.0596
 20
-13.1799
 30
0.0
 10
-4.96
 20
-13.134
 30
0.0
 10
-4.8746
 20
-13.068
 30
0.0
 10
-4.8048
 20
-12.982
 30
0.0
 10
-4.8048
 20
-12.982
 30
0.0
 10
-4.8048
 20
-12.982
 30
0.0
 10
-4.7931
 20
-12.982
 30
0.0
 10
-4.7931
 20
-12.982
 30
0.0
 10
-4.7931
 20
-12.982
 30
0.0
 10
-4.8171
 20
-13.1295
 30
0.0
 10
-4.8578
 20
-13.2588
 30
0.0
 10
-4.9147
 20
-13.3694
 30
0.0
 10
-4.9147
 20
-13.3694
 30
0.0
 10
-4.9723
 20
-13.4807
 30
0.0
 10
-5.0428
 20
-13.5738
 30
0.0
 10
-5.1269
 20
-13.6495
 30
0.0
 10
-5.1269
 20
-13.6495
 30
0.0
 10
-5.1993
 20
-13.7193
 30
0.0
 10
-5.2802
 20
-13.7737
 30
0.0
 10
-5.3701
 20
-13.8138
 30
0.0
 10
-5.3701
 20
-13.8138
 30
0.0
 10
-5.46
 20
-13.8539
 30
0.0
 10
-5.555
 20
-13.8804
 30
0.0
 10
-5.6546
 20
-13.894
 30
0.0
 10
-5.6546
 20
-13.894
 30
0.0
 10
-5.7122
 20
-13.8998
 30
0.0
 10
-5.7639
 20
-13.9043
 30
0.0
 10
-5.8086
 20
-13.9069
 30
0.0
 10
-5.8086
 20
-13.9069
 30
0.0
 10
-5.8532
 20
-13.9095
 30
0.0
 10
-5.8939
 20
-13.9095
 30
0.0
 10
-5.9302
 20
-13.9056
 30
0.0
 10
-5.9302
 20
-13.9056
 30
0.0
 10
-5.9302
 20
-13.9056
 30
0.0
 10
-5.9302
 20
-14.185
 30
0.0
 10
-5.9302
 20
-14.185
 30
0.0
  0
SPLINE
  5
C4
330
1F
100
AcDbEntity
  8
Ilustrace
 62
   250
100
AcDbSpline
210
0.0
220
0.0
230
1.0
 70
    11
 71
     3
 72
    64
 73
    60
 74
     0
 42
0.0000000001
 43
0.0000000001
 40
0.0
 40
0.0
 40
0.0
 40
0.0
 40
0.0625
 40
0.0625
 40
0.0625
 40
0.0625
 40
0.125
 40
0.125
 40
0.125
 40
0.125
 40
0.1875
 40
0.1875
 40
0.1875
 40
0.1875
 40
0.25
 40
0.25
 40
0.25
 40
0.25
 40
0.3125
 40
0.3125
 40
0.3125
 40
0.3125
 40
0.375
 40
0.375
 40
0.375
 40
0.375
 40
0.4375
 40
0.4375
 40
0.4375
 40
0.4375
 40
0.5
 40
0.5
 40
0.5
 40
0.5
 40
0.5625
 40
0.5625
 40
0.5625
 40
0.5625
 40
0.625
 40
0.625
 40
0.625
 40
0.625
 40
0.6875
 40
0.6875
 40
0.6875
 40
0.6875
 40
0.75
 40
0.75
 40
0.75
 40
0.75
 40
0.8125
 40
0.8125
 40
0.8125
 40
0.8125
 40
0.875
 40
0.875
 40
0.875
 40
0.875
 40
1.0
 40
1.0
 40
1.0
 40
1.0
 10
-5.3131
 20
-11.8411
 30
0.0
 10
-5.2232
 20
-11.8418
 30
0.0
 10
-5.145
 20
-11.8612
 30
0.0
 10
-5.0797
 20
-11.8993
 30
0.0
 10
-5.0797
 20
-11.8993
 30
0.0
 10
-5.0143
 20
-11.9375
 30
0.0
 10
-4.96
 20
-11.9912
 30
0.0
 10
-4.918
 20
-12.0597
 30
0.0
 10
-4.918
 20
-12.0597
 30
0.0
 10
-4.8753
 20
-12.1283
 30
0.0
 10
-4.8442
 20
-12.2091
 30
0.0
 10
-4.8235
 20
-12.301
 30
0.0
 10
-4.8235
 20
-12.301
 30
0.0
 10
-4.8028
 20
-12.3935
 30
0.0
 10
-4.7931
 20
-12.4937
 30
0.0
 10
-4.7931
 20
-12.6017
 30
0.0
 10
-4.7931
 20
-12.6017
 30
0.0
 10
-4.7931
 20
-12.6302
 30
0.0
 10
-4.7957
 20
-12.6548
 30
0.0
 10
-4.8016
 20
-12.6742
 30
0.0
 10
-4.8016
 20
-12.6742
 30
0.0
 10
-4.8067
 20
-12.6942
 30
0.0
 10
-4.8145
 20
-12.713
 30
0.0
 10
-4.8242
 20
-12.7298
 30
0.0
 10
-4.8242
 20
-12.7298
 30
0.0
 10
-4.8539
 20
-12.7809
 30
0.0
 10
-4.8934
 20
-12.8261
 30
0.0
 10
-4.9419
 20
-12.8656
 30
0.0
 10
-4.9419
 20
-12.8656
 30
0.0
 10
-4.9898
 20
-12.9051
 30
0.0
 10
-5.046
 20
-12.9361
 30
0.0
 10
-5.1101
 20
-12.9587
 30
0.0
 10
-5.1101
 20
-12.9587
 30
0.0
 10
-5.1741
 20
-12.9814
 30
0.0
 10
-5.2446
 20
-12.993
 30
0.0
 10
-5.3209
 20
-12.9937
 30
0.0
 10
-5.3209
 20
-12.9937
 30
0.0
 10
-5.4199
 20
-12.993
 30
0.0
 10
-5.5052
 20
-12.9697
 30
0.0
 10
-5.5777
 20
-12.9245
 30
0.0
 10
-5.5777
 20
-12.9245
 30
0.0
 10
-5.6501
 20
-12.8792
 30
0.0
 10
-5.7064
 20
-12.8171
 30
0.0
 10
-5.7458
 20
-12.7369
 30
0.0
 10
-5.7458
 20
-12.7369
 30
0.0
 10
-5.7853
 20
-12.6567
 30
0.0
 10
-5.8053
 20
-12.5636
 30
0.0
 10
-5.806
 20
-12.4581
 30
0.0
 10
-5.806
 20
-12.4581
 30
0.0
 10
-5.8053
 20
-12.3365
 30
0.0
 10
-5.784
 20
-12.2298
 30
0.0
 10
-5.742
 20
-12.138
 30
0.0
 10
-5.742
 20
-12.138
 30
0.0
 10
-5.6999
 20
-12.0455
 30
0.0
 10
-5.6424
 20
-11.9731
 30
0.0
 10
-5.5686
 20
-11.9207
 30
0.0
 10
-5.5686
 20
-11.9207
 30
0.0
 10
-5.4949
 20
-11.8683
 30
0.0
 10
-5.4095
 20
-11.8418
 30
0.0
 10
-5.3131
 20
-11.8411
 30
0.0
  0
SPLINE
  5
C5
330
1F
100
AcDbEntity
  8
Ilustrace
 62
   250
100
AcDbSpline
210
0.0
220
0.0
230
1.0
 70
    11
 71
     3
 72
    48
 73
    44
 74
     0
 42
0.0000000001
 43
0.0000000001
 40
0.0
 40
0.0
 40
0.0
 40
0.0
 40
0.0833333333333333
 40
0.0833333333333333
 40
0.0833333333333333
 40
0.0833333333333333
 40
0.1666666666666667
 40
0.1666666666666667
 40
0.1666666666666667
 40
0.1666666666666667
 40
0.25
 40
0.25
 40
0.25
 40
0.25
 40
0.3333333333333333
 40
0.3333333333333333
 40
0.3333333333333333
 40
0.3333333333333333
 40
0.4166666666666667
 40
0.4166666666666667
 40
0.4166666666666667
 40
0.4166666666666667
 40
0.5
 40
0.5
 40
0.5
 40
0.5
 40
0.5833333333333334
 40
0.5833333333333334
 40
0.5833333333333334
 40
0.5833333333333334
 40
0.6666666666666666
 40
0.6666666666666666
 40
0.6666666666666666
 40
0.6666666666666666
 40
0.75
 40
0.75
 40
0.75
 40
0.75
 40
0.8333333333333334
 40
0.8333333333333334
 40
0.8333333333333334
 40
0.8333333333333334
 40
1.0
 40
1.0
 40
1.0
 40
1.0
 10
-2.7598
 20
-14.1462
 30
0.0
 10
-2.7598
 20
-14.1462
 30
0.0
 10
-2.7598
 20
-13.4555
 30
0.0
 10
-2.7598
 20
-13.4555
 30
0.0
 10
-2.7598
 20
-13.4555
 30
0.0
 10
-2.7598
 20
-13.4555
 30
0.0
 10
-2.4066
 20
-13.4555
 30
0.0
 10
-2.4066
 20
-13.4555
 30
0.0
 10
-2.4066
 20
-13.4555
 30
0.0
 10
-2.4066
 20
-13.4555
 30
0.0
 10
-2.4066
 20
-13.1916
 30
0.0
 10
-2.4066
 20
-13.1916
 30
0.0
 10
-2.4066
 20
-13.1916
 30
0.0
 10
-2.4066
 20
-13.1916
 30
0.0
 10
-2.7598
 20
-13.1916
 30
0.0
 10
-2.7598
 20
-13.1916
 30
0.0
 10
-2.7598
 20
-13.1916
 30
0.0
 10
-2.7598
 20
-13.1916
 30
0.0
 10
-2.7598
 20
-11.6238
 30
0.0
 10
-2.7598
 20
-11.6238
 30
0.0
 10
-2.7598
 20
-11.6238
 30
0.0
 10
-2.7598
 20
-11.6238
 30
0.0
 10
-3.1284
 20
-11.6238
 30
0.0
 10
-3.1284
 20
-11.6238
 30
0.0
 10
-3.1284
 20
-11.6238
 30
0.0
 10
-3.1284
 20
-11.6238
 30
0.0
 10
-4.2538
 20
-13.2343
 30
0.0
 10
-4.2538
 20
-13.2343
 30
0.0
 10
-4.2538
 20
-13.2343
 30
0.0
 10
-4.2538
 20
-13.2343
 30
0.0
 10
-4.2538
 20
-13.4555
 30
0.0
 10
-4.2538
 20
-13.4555
 30
0.0
 10
-4.2538
 20
-13.4555
 30
0.0
 10
-4.2538
 20
-13.4555
 30
0.0
 10
-3.0818
 20
-13.4555
 30
0.0
 10
-3.0818
 20
-13.4555
 30
0.0
 10
-3.0818
 20
-13.4555
 30
0.0
 10
-3.0818
 20
-13.4555
 30
0.0
 10
-3.0818
 20
-14.1462
 30
0.0
 10
-3.0818
 20
-14.1462
 30
0.0
 10
-3.0818
 20
-14.1462
 30
0.0
 10
-3.0818
 20
-14.1462
 30
0.0
 10
-2.7598
 20
-14.1462
 30
0.0
 10
-2.7598
 20
-14.1462
 30
0.0
  0
SPLINE
  5
C6
330
1F
100
AcDbEntity
  8
Ilustrace
 62
   250
100
AcDbSpline
210
0.0
220
0.0
230
1.0
 70
    11
 71
     3
 72
    36
 73
    32
 74
     0
 42
0.0000000001
 43
0.0000000001
 40
0.0
 40
0.0
 40
0.0
 40
0.0
 40
0.1111111111111111
 40
0.1111111111111111
 40
0.1111111111111111
 40
0.1111111111111111
 40
0.2222222222222222
 40
0.2222222222222222
 40
0.2222222222222222
 40
0.2222222222222222
 40
0.3333333333333333
 40
0.3333333333333333
 40
0.3333333333333333
 40
0.3333333333333333
 40
0.4444444444444444
 40
0.4444444444444444
 40
0.4444444444444444
 40
0.4444444444444444
 40
0.5555555555555556
 40
0.5555555555555556
 40
0.5555555555555556
 40
0.5555555555555556
 40
0.6666666666666666
 40
0.6666666666666666
 40
0.6666666666666666
 40
0.6666666666666666
 40
0.7777777777777778
 40
0.7777777777777778
 40
0.7777777777777778
 40
0.7777777777777778
 40
1.0
 40
1.0
 40
1.0
 40
1.0
 10
-3.9084
 20
-13.1916
 30
0.0
 10
-3.9084
 20
-13.1916
 30
0.0
 10
-3.9084
 20
-13.1838
 30
0.0
 10
-3.9084
 20
-13.1838
 30
0.0
 10
-3.9084
 20
-13.1838
 30
0.0
 10
-3.9084
 20
-13.1838
 30
0.0
 10
-3.2914
 20
-12.3262
 30
0.0
 10
-3.2914
 20
-12.3262
 30
0.0
 10
-3.2914
 20
-12.3262
 30
0.0
 10
-3.2571
 20
-12.2686
 30
0.0
 10
-3.2228
 20
-12.2104
 30
0.0
 10
-3.1892
 20
-12.1516
 30
0.0
 10
-3.1892
 20
-12.1516
 30
0.0
 10
-3.1562
 20
-12.0921
 30
0.0
 10
-3.12
 20
-12.0261
 30
0.0
 10
-3.0818
 20
-11.9537
 30
0.0
 10
-3.0818
 20
-11.9537
 30
0.0
 10
-3.0818
 20
-11.9537
 30
0.0
 10
-3.0702
 20
-11.9537
 30
0.0
 10
-3.0702
 20
-11.9537
 30
0.0
 10
-3.0702
 20
-11.9537
 30
0.0
 10
-3.078
 20
-12.0856
 30
0.0
 10
-3.0818
 20
-12.2175
 30
0.0
 10
-3.0818
 20
-12.3495
 30
0.0
 10
-3.0818
 20
-12.3495
 30
0.0
 10
-3.0818
 20
-12.3495
 30
0.0
 10
-3.0818
 20
-13.1916
 30
0.0
 10
-3.0818
 20
-13.1916
 30
0.0
 10
-3.0818
 20
-13.1916
 30
0.0
 10
-3.0818
 20
-13.1916
 30
0.0
 10
-3.9084
 20
-13.1916
 30
0.0
 10
-3.9084
 20
-13.1916
 30
0.0
  0
SPLINE
  5
C7
330
1F
100
AcDbEntity
  8
Ilustrace
 62
   250
100
AcDbSpline
210
0.0
220
0.0
230
1.0
 70
    11
 71
     3
 72
    68
 73
    64
 74
     0
 42
0.0000000001
 43
0.0000000001
 40
0.0
 40
0.0
 40
0.0
 40
0.0
 40
0.0588235294117647
 40
0.0588235294117647
 40
0.0588235294117647
 40
0.0588235294117647
 40
0.1176470588235294
 40
0.1176470588235294
 40
0.1176470588235294
 40
0.1176470588235294
 40
0.1764705882352941
 40
0.1764705882352941
 40
0.1764705882352941
 40
0.1764705882352941
 40
0.2352941176470588
 40
0.2352941176470588
 40
0.2352941176470588
 40
0.2352941176470588
 40
0.2941176470588235
 40
0.2941176470588235
 40
0.2941176470588235
 40
0.2941176470588235
 40
0.3529411764705883
 40
0.3529411764705883
 40
0.3529411764705883
 40
0.3529411764705883
 40
0.4117647058823529
 40
0.4117647058823529
 40
0.4117647058823529
 40
0.4117647058823529
 40
0.4705882352941176
 40
0.4705882352941176
 40
0.4705882352941176
 40
0.4705882352941176
 40
0.5294117647058824
 40
0.5294117647058824
 40
0.5294117647058824
 40
0.5294117647058824
 40
0.5882352941176471
 40
0.5882352941176471
 40
0.5882352941176471
 40
0.5882352941176471
 40
0.6470588235294118
 40
0.6470588235294118
 40
0.6470588235294118
 40
0.6470588235294118
 40
0.7058823529411765
 40
0.7058823529411765
 40
0.7058823529411765
 40
0.7058823529411765
 40
0.7647058823529411
 40
0.7647058823529411
 40
0.7647058823529411
 40
0.7647058823529411
 40
0.8235294117647058
 40
0.8235294117647058
 40
0.8235294117647058
 40
0.8235294117647058
 40
0.8823529411764706
 40
0.8823529411764706
 40
0.8823529411764706
 40
0.8823529411764706
 40
1.0
 40
1.0
 40
1.0
 40
1.0
 10
-1.9798
 20
-14.6158
 30
0.0
 10
-1.9177
 20
-14.5343
 30
0.0
 10
-1.8576
 20
-14.4418
 30
0.0
 10
-1.7974
 20
-14.3376
 30
0.0
 10
-1.7974
 20
-14.3376
 30
0.0
 10
-1.7379
 20
-14.2335
 30
0.0
 10
-1.6842
 20
-14.1171
 30
0.0
 10
-1.6351
 20
-13.9871
 30
0.0
 10
-1.6351
 20
-13.9871
 30
0.0
 10
-1.5866
 20
-13.8571
 30
0.0
 10
-1.5478
 20
-13.7135
 30
0.0
 10
-1.518
 20
-13.5551
 30
0.0
 10
-1.518
 20
-13.5551
 30
0.0
 10
-1.4889
 20
-13.3966
 30
0.0
 10
-1.4734
 20
-13.2226
 30
0.0
 10
-1.4714
 20
-13.0325
 30
0.0
 10
-1.4714
 20
-13.0325
 30
0.0
 10
-1.4721
 20
-12.8423
 30
0.0
 10
-1.487
 20
-12.6683
 30
0.0
 10
-1.5167
 20
-12.5092
 30
0.0
 10
-1.5167
 20
-12.5092
 30
0.0
 10
-1.5458
 20
-12.3508
 30
0.0
 10
-1.5846
 20
-12.2065
 30
0.0
 10
-1.6338
 20
-12.0765
 30
0.0
 10
-1.6338
 20
-12.0765
 30
0.0
 10
-1.6829
 20
-11.9472
 30
0.0
 10
-1.7373
 20
-11.8308
 30
0.0
 10
-1.7974
 20
-11.7273
 30
0.0
 10
-1.7974
 20
-11.7273
 30
0.0
 10
-1.8569
 20
-11.6238
 30
0.0
 10
-1.9177
 20
-11.5326
 30
0.0
 10
-1.9798
 20
-11.4531
 30
0.0
 10
-1.9798
 20
-11.4531
 30
0.0
 10
-1.9798
 20
-11.4531
 30
0.0
 10
-2.2437
 20
-11.4531
 30
0.0
 10
-2.2437
 20
-11.4531
 30
0.0
 10
-2.2437
 20
-11.4531
 30
0.0
 10
-2.1512
 20
-11.5818
 30
0.0
 10
-2.0684
 20
-11.7241
 30
0.0
 10
-1.9953
 20
-11.8799
 30
0.0
 10
-1.9953
 20
-11.8799
 30
0.0
 10
-1.9229
 20
-12.0358
 30
0.0
 10
-1.8653
 20
-12.2085
 30
0.0
 10
-1.8233
 20
-12.3986
 30
0.0
 10
-1.8233
 20
-12.3986
 30
0.0
 10
-1.7812
 20
-12.5888
 30
0.0
 10
-1.7593
 20
-12.8003
 30
0.0
 10
-1.7586
 20
-13.0325
 30
0.0
 10
-1.7586
 20
-13.0325
 30
0.0
 10
-1.7593
 20
-13.2647
 30
0.0
 10
-1.7812
 20
-13.4768
 30
0.0
 10
-1.8239
 20
-13.6682
 30
0.0
 10
-1.8239
 20
-13.6682
 30
0.0
 10
-1.8666
 20
-13.8597
 30
0.0
 10
-1.9242
 20
-14.033
 30
0.0
 10
-1.9973
 20
-14.1895
 30
0.0
 10
-1.9973
 20
-14.1895
 30
0.0
 10
-2.0697
 20
-14.3461
 30
0.0
 10
-2.1518
 20
-14.4883
 30
0.0
 10
-2.2437
 20
-14.6158
 30
0.0
 10
-2.2437
 20
-14.6158
 30
0.0
 10
-2.2437
 20
-14.6158
 30
0.0
 10
-1.9798
 20
-14.6158
 30
0.0
 10
-1.9798
 20
-14.6158
 30
0.0
  0
SPLINE
  5
C8
330
1F
100
AcDbEntity
  8
Ilustrace
  6
New Line1
 62
   250
370
    15
100
AcDbSpline
210
0.0
220
0.0
230
1.0
 70
    24
 71
     3
 72
     8
 73
     4
 74
     0
 42
0.0000000001
 43
0.0000000001
 40
0.0
 40
0.0
 40
0.0
 40
0.0
 40
1.0
 40
1.0
 40
1.0
 40
1.0
 10
-5.3182
 20
12.8924
 30
0.0
 10
-5.3182
 20
12.8924
 30
0.0
 10
-5.3182
 20
-11.0193
 30
0.0
 10
-5.3182
 20
-11.0193
 30
0.0
  0
SPLINE
  5
CA
330
1F
100
AcDbEntity
  8
Ilustrace
 62
   250
370
     9
100
AcDbSpline
210
0.0
220
0.0
230
1.0
 70
    11
 71
     3
 72
    32
 73
    28
 74
     0
 42
0.0000000001
 43
0.0000000001
 40
0.0
 40
0.0
 40
0.0
 40
0.0
 40
0.125
 40
0.125
 40
0.125
 40
0.125
 40
0.25
 40
0.25
 40
0.25
 40
0.25
 40
0.375
 40
0.375
 40
0.375
 40
0.375
 40
0.5
 40
0.5
 40
0.5
 40
0.5
 40
0.625
 40
0.625
 40
0.625
 40
0.625
 40
0.75
 40
0.75
 40
0.75
 40
0.75
 40
1.0
 40
1.0
 40
1.0
 40
1.0
 10
3.4192
 20
15.6889
 30
0.0
 10
3.4192
 20
15.6889
 30
0.0
 10
3.4192
 20
15.6889
 30
0.0
 10
3.4192
 20
15.6889
 30
0.0
 10
3.4192
 20
15.6889
 30
0.0
 10
3.4192
 20
15.6889
 30
0.0
 10
3.4192
 20
15.6889
 30
0.0
 10
3.4192
 20
15.6889
 30
0.0
 10
3.4192
 20
15.6889
 30
0.0
 10
3.4192
 20
15.6889
 30
0.0
 10
4.692
 20
16.1323
 30
0.0
 10
4.692
 20
16.1323
 30
0.0
 10
4.692
 20
16.1323
 30
0.0
 10
4.692
 20
16.1323
 30
0.0
 10
3.4192
 20
16.5757
 30
0.0
 10
3.4192
 20
16.5757
 30
0.0
 10
3.4192
 20
16.5757
 30
0.0
 10
3.4192
 20
16.5757
 30
0.0
 10
3.4192
 20
16.5757
 30
0.0
 10
3.4192
 20
16.5757
 30
0.0
 10
3.4192
 20
16.5757
 30
0.0
 10
3.4192
 20
16.5757
 30
0.0
 10
3.4192
 20
16.5757
 30
0.0
 10
3.4192
 20
16.5757
 30
0.0
 10
3.4192
 20
16.5757
 30
0.0
 10
3.4192
 20
16.5757
 30
0.0
 10
3.4192
 20
15.6889
 30
0.0
 10
3.4192
 20
15.6889
 30
0.0
  0
SPLINE
  5
CB
330
1F
100
AcDbEntity
  8
Ilustrace
 62
   250
370
     9
100
AcDbSpline
210
0.0
220
0.0
230
1.0
 70
    11
 71
     3
 72
    32
 73
    28
 74
     0
 42
0.0000000001
 43
0.0000000001
 40
0.0
 40
0.0
 40
0.0
 40
0.0
 40
0.125
 40
0.125
 40
0.125
 40
0.125
 40
0.25
 40
0.25
 40
0.25
 40
0.25
 40
0.375
 40
0.375
 40
0.375
 40
0.375
 40
0.5
 40
0.5
 40
0.5
 40
0.5
 40
0.625
 40
0.625
 40
0.625
 40
0.625
 40
0.75
 40
0.75
 40
0.75
 40
0.75
 40
1.0
 40
1.0
 40
1.0
 40
1.0
 10
1.7135
 20
-15.3605
 30
0.0
 10
1.7135
 20
-15.3605
 30
0.0
 10
1.7135
 20
-15.3605
 30
0.0
 10
1.7135
 20
-15.3605
 30
0.0
 10
1.7135
 20
-15.3605
 30
0.0
 10
1.7135
 20
-15.3605
 30
0.0
 10
1.7135
 20
-15.3605
 30
0.0
 10
1.7135
 20
-15.3605
 30
0.0
 10
1.7135
 20
-15.3605
 30
0.0
 10
1.7135
 20
-15.3605
 30
0.0
 10
2.9863
 20
-14.9171
 30
0.0
 10
2.9863
 20
-14.9171
 30
0.0
 10
2.9863
 20
-14.9171
 30
0.0
 10
2.9863
 20
-14.9171
 30
0.0
 10
1.7135
 20
-14.4737
 30
0.0
 10
1.7135
 20
-14.4737
 30
0.0
 10
1.7135
 20
-14.4737
 30
0.0
 10
1.7135
 20
-14.4737
 30
0.0
 10
1.7135
 20
-14.4737
 30
0.0
 10
1.7135
 20
-14.4737
 30
0.0
 10
1.7135
 20
-14.4737
 30
0.0
 10
1.7135
 20
-14.4737
 30
0.0
 10
1.7135
 20
-14.4737
 30
0.0
 10
1.7135
 20
-14.4737
 30
0.0
 10
1.7135
 20
-14.4737
 30
0.0
 10
1.7135
 20
-14.4737
 30
0.0
 10
1.7135
 20
-15.3605
 30
0.0
 10
1.7135
 20
-15.3605
 30
0.0
  0
SPLINE
  5
CC
330
1F
100
AcDbEntity
  8
Ilustrace
 62
   250
370
     9
100
AcDbSpline
210
0.0
220
0.0
230
1.0
 70
    11
 71
     3
 72
    32
 73
    28
 74
     0
 42
0.0000000001
 43
0.0000000001
 40
0.0
 40
0.0
 40
0.0
 40
0.0
 40
0.125
 40
0.125
 40
0.125
 40
0.125
 40
0.25
 40
0.25
 40
0.25
 40
0.25
 40
0.375
 40
0.375
 40
0.375
 40
0.375
 40
0.5
 40
0.5
 40
0.5
 40
0.5
 40
0.625
 40
0.625
 40
0.625
 40
0.625
 40
0.75
 40
0.75
 40
0.75
 40
0.75
 40
1.0
 40
1.0
 40
1.0
 40
1.0
 10
17.625
 20
10.8719
 30
0.0
 10
17.625
 20
10.8719
 30
0.0
 10
17.625
 20
10.8719
 30
0.0
 10
17.625
 20
10.8719
 30
0.0
 10
17.625
 20
10.8719
 30
0.0
 10
17.625
 20
10.8719
 30
0.0
 10
17.625
 20
10.8719
 30
0.0
 10
17.625
 20
10.8719
 30
0.0
 10
17.625
 20
10.8719
 30
0.0
 10
17.625
 20
10.8719
 30
0.0
 10
17.1816
 20
12.1447
 30
0.0
 10
17.1816
 20
12.1447
 30
0.0
 10
17.1816
 20
12.1447
 30
0.0
 10
17.1816
 20
12.1447
 30
0.0
 10
16.7382
 20
10.8719
 30
0.0
 10
16.7382
 20
10.8719
 30
0.0
 10
16.7382
 20
10.8719
 30
0.0
 10
16.7382
 20
10.8719
 30
0.0
 10
16.7382
 20
10.8719
 30
0.0
 10
16.7382
 20
10.8719
 30
0.0
 10
16.7382
 20
10.8719
 30
0.0
 10
16.7382
 20
10.8719
 30
0.0
 10
16.7382
 20
10.8719
 30
0.0
 10
16.7382
 20
10.8719
 30
0.0
 10
16.7382
 20
10.8719
 30
0.0
 10
16.7382
 20
10.8719
 30
0.0
 10
17.625
 20
10.8719
 30
0.0
 10
17.625
 20
10.8719
 30
0.0
  0
SPLINE
  5
CD
330
1F
100
AcDbEntity
  8
Ilustrace
 62
   250
370
     9
100
AcDbSpline
210
0.0
220
0.0
230
1.0
 70
    11
 71
     3
 72
    32
 73
    28
 74
     0
 42
0.0000000001
 43
0.0000000001
 40
0.0
 40
0.0
 40
0.0
 40
0.0
 40
0.125
 40
0.125
 40
0.125
 40
0.125
 40
0.25
 40
0.25
 40
0.25
 40
0.25
 40
0.375
 40
0.375
 40
0.375
 40
0.375
 40
0.5
 40
0.5
 40
0.5
 40
0.5
 40
0.625
 40
0.625
 40
0.625
 40
0.625
 40
0.75
 40
0.75
 40
0.75
 40
0.75
 40
1.0
 40
1.0
 40
1.0
 40
1.0
 10
-13.737
 20
15.7099
 30
0.0
 10
-13.737
 20
15.7099
 30
0.0
 10
-13.737
 20
15.7099
 30
0.0
 10
-13.737
 20
15.7099
 30
0.0
 10
-13.737
 20
15.7099
 30
0.0
 10
-13.737
 20
15.7099
 30
0.0
 10
-13.737
 20
15.7099
 30
0.0
 10
-13.737
 20
15.7099
 30
0.0
 10
-13.737
 20
15.7099
 30
0.0
 10
-13.737
 20
15.7099
 30
0.0
 10
-15.0116
 20
16.1533
 30
0.0
 10
-15.0116
 20
16.1533
 30
0.0
 10
-15.0116
 20
16.1533
 30
0.0
 10
-15.0116
 20
16.1533
 30
0.0
 10
-13.737
 20
16.5967
 30
0.0
 10
-13.737
 20
16.5967
 30
0.0
 10
-13.737
 20
16.5967
 30
0.0
 10
-13.737
 20
16.5967
 30
0.0
 10
-13.737
 20
16.5967
 30
0.0
 10
-13.737
 20
16.5967
 30
0.0
 10
-13.737
 20
16.5967
 30
0.0
 10
-13.737
 20
16.5967
 30
0.0
 10
-13.737
 20
16.5967
 30
0.0
 10
-13.737
 20
16.5967
 30
0.0
 10
-13.737
 20
16.5967
 30
0.0
 10
-13.737
 20
16.5967
 30
0.0
 10
-13.737
 20
15.7099
 30
0.0
 10
-13.737
 20
15.7099
 30
0.0
  0
SPLINE
  5
CE
330
1F
100
AcDbEntity
  8
Ilustrace
 62
   250
370
     9
100
AcDbSpline
210
0.0
220
0.0
230
1.0
 70
    11
 71
     3
 72
    32
 73
    28
 74
     0
 42
0.0000000001
 43
0.0000000001
 40
0.0
 40
0.0
 40
0.0
 40
0.0
 40
0.125
 40
0.125
 40
0.125
 40
0.125
 40
0.25
 40
0.25
 40
0.25
 40
0.25
 40
0.375
 40
0.375
 40
0.375
 40
0.375
 40
0.5
 40
0.5
 40
0.5
 40
0.5
 40
0.625
 40
0.625
 40
0.625
 40
0.625
 40
0.75
 40
0.75
 40
0.75
 40
0.75
 40
1.0
 40
1.0
 40
1.0
 40
1.0
 10
-12.3669
 20
-15.3808
 30
0.0
 10
-12.3669
 20
-15.3808
 30
0.0
 10
-12.3669
 20
-15.3808
 30
0.0
 10
-12.3669
 20
-15.3808
 30
0.0
 10
-12.3669
 20
-15.3808
 30
0.0
 10
-12.3669
 20
-15.3808
 30
0.0
 10
-12.3669
 20
-15.3808
 30
0.0
 10
-12.3669
 20
-15.3808
 30
0.0
 10
-12.3669
 20
-15.3808
 30
0.0
 10
-12.3669
 20
-15.3808
 30
0.0
 10
-13.6415
 20
-14.9374
 30
0.0
 10
-13.6415
 20
-14.9374
 30
0.0
 10
-13.6415
 20
-14.9374
 30
0.0
 10
-13.6415
 20
-14.9374
 30
0.0
 10
-12.3669
 20
-14.494
 30
0.0
 10
-12.3669
 20
-14.494
 30
0.0
 10
-12.3669
 20
-14.494
 30
0.0
 10
-12.3669
 20
-14.494
 30
0.0
 10
-12.3669
 20
-14.494
 30
0.0
 10
-12.3669
 20
-14.494
 30
0.0
 10
-12.3669
 20
-14.494
 30
0.0
 10
-12.3669
 20
-14.494
 30
0.0
 10
-12.3669
 20
-14.494
 30
0.0
 10
-12.3669
 20
-14.494
 30
0.0
 10
-12.3669
 20
-14.494
 30
0.0
 10
-12.3669
 20
-14.494
 30
0.0
 10
-12.3669
 20
-15.3808
 30
0.0
 10
-12.3669
 20
-15.3808
 30
0.0
  0
SPLINE
  5
CF
330
1F
100
AcDbEntity
  8
Ilustrace
 62
   250
370
     9
100
AcDbSpline
210
0.0
220
0.0
230
1.0
 70
    11
 71
     3
 72
    32
 73
    28
 74
     0
 42
0.0000000001
 43
0.0000000001
 40
0.0
 40
0.0
 40
0.0
 40
0.0
 40
0.125
 40
0.125
 40
0.125
 40
0.125
 40
0.25
 40
0.25
 40
0.25
 40
0.25
 40
0.375
 40
0.375
 40
0.375
 40
0.375
 40
0.5
 40
0.5
 40
0.5
 40
0.5
 40
0.625
 40
0.625
 40
0.625
 40
0.625
 40
0.75
 40
0.75
 40
0.75
 40
0.75
 40
1.0
 40
1.0
 40
1.0
 40
1.0
 10
17.6246
 20
-9.0592
 30
0.0
 10
17.6246
 20
-9.0592
 30
0.0
 10
17.6246
 20
-9.0592
 30
0.0
 10
17.6246
 20
-9.0592
 30
0.0
 10
17.6246
 20
-9.0592
 30
0.0
 10
17.6246
 20
-9.0592
 30
0.0
 10
17.6246
 20
-9.0592
 30
0.0
 10
17.6246
 20
-9.0592
 30
0.0
 10
17.6246
 20
-9.0592
 30
0.0
 10
17.6246
 20
-9.0592
 30
0.0
 10
17.1812
 20
-10.3338
 30
0.0
 10
17.1812
 20
-10.3338
 30
0.0
 10
17.1812
 20
-10.3338
 30
0.0
 10
17.1812
 20
-10.3338
 30
0.0
 10
16.7378
 20
-9.0592
 30
0.0
 10
16.7378
 20
-9.0592
 30
0.0
 10
16.7378
 20
-9.0592
 30
0.0
 10
16.7378
 20
-9.0592
 30
0.0
 10
16.7378
 20
-9.0592
 30
0.0
 10
16.7378
 20
-9.0592
 30
0.0
 10
16.7378
 20
-9.0592
 30
0.0
 10
16.7378
 20
-9.0592
 30
0.0
 10
16.7378
 20
-9.0592
 30
0.0
 10
16.7378
 20
-9.0592
 30
0.0
 10
16.7378
 20
-9.0592
 30
0.0
 10
16.7378
 20
-9.0592
 30
0.0
 10
17.6246
 20
-9.0592
 30
0.0
 10
17.6246
 20
-9.0592
 30
0.0
  0
SPLINE
  5
D0
330
1F
100
AcDbEntity
  8
Ilustrace
 62
   250
370
    15
100
AcDbSpline
210
0.0
220
0.0
230
1.0
 70
    24
 71
     3
 72
     8
 73
     4
 74
     0
 42
0.0000000001
 43
0.0000000001
 40
0.0
 40
0.0
 40
0.0
 40
0.0
 40
1.0
 40
1.0
 40
1.0
 40
1.0
 10
6.9472
 20
12.5186
 30
0.0
 10
6.9472
 20
12.5186
 30
0.0
 10
6.9472
 20
20.7063
 30
0.0
 10
6.9472
 20
20.7063
 30
0.0
  0
SPLINE
  5
D1
330
1F
100
AcDbEntity
  8
Ilustrace
 62
   250
370
    15
100
AcDbSpline
210
0.0
220
0.0
230
1.0
 70
    24
 71
     3
 72
     8
 73
     4
 74
     0
 42
0.0000000001
 43
0.0000000001
 40
0.0
 40
0.0
 40
0.0
 40
0.0
 40
1.0
 40
1.0
 40
1.0
 40
1.0
 10
-17.6454
 20
12.5491
 30
0.0
 10
-17.6454
 20
12.5491
 30
0.0
 10
-17.6454
 20
20.5824
 30
0.0
 10
-17.6454
 20
20.5824
 30
0.0
  0
SPLINE
  5
D2
330
1F
100
AcDbEntity
  8
Ilustrace
 62
   250
370
    15
100
AcDbSpline
210
0.0
220
0.0
230
1.0
 70
    24
 71
     3
 72
     8
 73
     4
 74
     0
 42
0.0000000001
 43
0.0000000001
 40
0.0
 40
0.0
 40
0.0
 40
0.0
 40
1.0
 40
1.0
 40
1.0
 40
1.0
 10
-17.4428
 20
20.1435
 30
0.0
 10
-17.4428
 20
20.1435
 30
0.0
 10
6.5352
 20
20.1435
 30
0.0
 10
6.5352
 20
20.1435
 30
0.0
  0
SPLINE
  5
D3
330
1F
100
AcDbEntity
  8
Ilustrace
 62
   250
100
AcDbSpline
210
0.0
220
0.0
230
1.0
 70
    11
 71
     3
 72
   104
 73
   100
 74
     0
 42
0.0000000001
 43
0.0000000001
 40
0.0
 40
0.0
 40
0.0
 40
0.0
 40
0.0384615384615385
 40
0.0384615384615385
 40
0.0384615384615385
 40
0.0384615384615385
 40
0.0769230769230769
 40
0.0769230769230769
 40
0.0769230769230769
 40
0.0769230769230769
 40
0.1153846153846154
 40
0.1153846153846154
 40
0.1153846153846154
 40
0.1153846153846154
 40
0.1538461538461539
 40
0.1538461538461539
 40
0.1538461538461539
 40
0.1538461538461539
 40
0.1923076923076923
 40
0.1923076923076923
 40
0.1923076923076923
 40
0.1923076923076923
 40
0.2307692307692308
 40
0.2307692307692308
 40
0.2307692307692308
 40
0.2307692307692308
 40
0.2692307692307692
 40
0.2692307692307692
 40
0.2692307692307692
 40
0.2692307692307692
 40
0.3076923076923077
 40
0.3076923076923077
 40
0.3076923076923077
 40
0.3076923076923077
 40
0.3461538461538461
 40
0.3461538461538461
 40
0.3461538461538461
 40
0.3461538461538461
 40
0.3846153846153846
 40
0.3846153846153846
 40
0.3846153846153846
 40
0.3846153846153846
 40
0.4230769230769231
 40
0.4230769230769231
 40
0.4230769230769231
 40
0.4230769230769231
 40
0.4615384615384616
 40
0.4615384615384616
 40
0.4615384615384616
 40
0.4615384615384616
 40
0.5
 40
0.5
 40
0.5
 40
0.5
 40
0.5384615384615384
 40
0.5384615384615384
 40
0.5384615384615384
 40
0.5384615384615384
 40
0.5769230769230769
 40
0.5769230769230769
 40
0.5769230769230769
 40
0.5769230769230769
 40
0.6153846153846154
 40
0.6153846153846154
 40
0.6153846153846154
 40
0.6153846153846154
 40
0.6538461538461539
 40
0.6538461538461539
 40
0.6538461538461539
 40
0.6538461538461539
 40
0.6923076923076923
 40
0.6923076923076923
 40
0.6923076923076923
 40
0.6923076923076923
 40
0.7307692307692307
 40
0.7307692307692307
 40
0.7307692307692307
 40
0.7307692307692307
 40
0.7692307692307693
 40
0.7692307692307693
 40
0.7692307692307693
 40
0.7692307692307693
 40
0.8076923076923077
 40
0.8076923076923077
 40
0.8076923076923077
 40
0.8076923076923077
 40
0.8461538461538461
 40
0.8461538461538461
 40
0.8461538461538461
 40
0.8461538461538461
 40
0.8846153846153846
 40
0.8846153846153846
 40
0.8846153846153846
 40
0.8846153846153846
 40
0.9230769230769231
 40
0.9230769230769231
 40
0.9230769230769231
 40
0.9230769230769231
 40
1.0
 40
1.0
 40
1.0
 40
1.0
 10
-9.0409
 20
20.4387
 30
0.0
 10
-9.0409
 20
20.4387
 30
0.0
 10
-8.7964
 20
20.7725
 30
0.0
 10
-8.7964
 20
20.7725
 30
0.0
 10
-8.7964
 20
20.7725
 30
0.0
 10
-8.7026
 20
20.7046
 30
0.0
 10
-8.5998
 20
20.6522
 30
0.0
 10
-8.4885
 20
20.6166
 30
0.0
 10
-8.4885
 20
20.6166
 30
0.0
 10
-8.3766
 20
20.581
 30
0.0
 10
-8.2596
 20
20.5629
 30
0.0
 10
-8.1367
 20
20.5629
 30
0.0
 10
-8.1367
 20
20.5629
 30
0.0
 10
-8.0106
 20
20.5629
 30
0.0
 10
-7.8883
 20
20.5817
 30
0.0
 10
-7.7713
 20
20.6185
 30
0.0
 10
-7.7713
 20
20.6185
 30
0.0
 10
-7.6542
 20
20.6554
 30
0.0
 10
-7.5455
 20
20.7104
 30
0.0
 10
-7.4459
 20
20.7841
 30
0.0
 10
-7.4459
 20
20.7841
 30
0.0
 10
-7.3457
 20
20.8572
 30
0.0
 10
-7.2584
 20
20.949
 30
0.0
 10
-7.1834
 20
21.059
 30
0.0
 10
-7.1834
 20
21.059
 30
0.0
 10
-7.109
 20
21.1689
 30
0.0
 10
-7.0508
 20
21.297
 30
0.0
 10
-7.0087
 20
21.4438
 30
0.0
 10
-7.0087
 20
21.4438
 30
0.0
 10
-6.9673
 20
21.59
 30
0.0
 10
-6.946
 20
21.7543
 30
0.0
 10
-6.9453
 20
21.9366
 30
0.0
 10
-6.9453
 20
21.9366
 30
0.0
 10
-6.9453
 20
22.0654
 30
0.0
 10
-6.9583
 20
22.1876
 30
0.0
 10
-6.9848
 20
22.304
 30
0.0
 10
-6.9848
 20
22.304
 30
0.0
 10
-7.0107
 20
22.4211
 30
0.0
 10
-7.0488
 20
22.5297
 30
0.0
 10
-7.0986
 20
22.63
 30
0.0
 10
-7.0986
 20
22.63
 30
0.0
 10
-7.1491
 20
22.7302
 30
0.0
 10
-7.2105
 20
22.8195
 30
0.0
 10
-7.283
 20
22.899
 30
0.0
 10
-7.283
 20
22.899
 30
0.0
 10
-7.283
 20
22.899
 30
0.0
 10
-7.0424
 20
23.2328
 30
0.0
 10
-7.0424
 20
23.2328
 30
0.0
 10
-7.0424
 20
23.2328
 30
0.0
 10
-7.0424
 20
23.2328
 30
0.0
 10
-7.248
 20
23.3725
 30
0.0
 10
-7.248
 20
23.3725
 30
0.0
 10
-7.248
 20
23.3725
 30
0.0
 10
-7.248
 20
23.3725
 30
0.0
 10
-7.477
 20
23.0581
 30
0.0
 10
-7.477
 20
23.0581
 30
0.0
 10
-7.477
 20
23.0581
 30
0.0
 10
-7.5708
 20
23.128
 30
0.0
 10
-7.6723
 20
23.1804
 30
0.0
 10
-7.7823
 20
23.2153
 30
0.0
 10
-7.7823
 20
23.2153
 30
0.0
 10
-7.8929
 20
23.2502
 30
0.0
 10
-8.008
 20
23.2677
 30
0.0
 10
-8.1289
 20
23.2677
 30
0.0
 10
-8.1289
 20
23.2677
 30
0.0
 10
-8.3016
 20
23.267
 30
0.0
 10
-8.4607
 20
23.2347
 30
0.0
 10
-8.6075
 20
23.1707
 30
0.0
 10
-8.6075
 20
23.1707
 30
0.0
 10
-8.7537
 20
23.1066
 30
0.0
 10
-8.8811
 20
23.0142
 30
0.0
 10
-8.9898
 20
22.8945
 30
0.0
 10
-8.9898
 20
22.8945
 30
0.0
 10
-9.0991
 20
22.7749
 30
0.0
 10
-9.1832
 20
22.6313
 30
0.0
 10
-9.244
 20
22.4638
 30
0.0
 10
-9.244
 20
22.4638
 30
0.0
 10
-9.3041
 20
22.2962
 30
0.0
 10
-9.3352
 20
22.1093
 30
0.0
 10
-9.3358
 20
21.9017
 30
0.0
 10
-9.3358
 20
21.9017
 30
0.0
 10
-9.3358
 20
21.7711
 30
0.0
 10
-9.3216
 20
21.6462
 30
0.0
 10
-9.2944
 20
21.5285
 30
0.0
 10
-9.2944
 20
21.5285
 30
0.0
 10
-9.2672
 20
21.4108
 30
0.0
 10
-9.2278
 20
21.3015
 30
0.0
 10
-9.1767
 20
21.2013
 30
0.0
 10
-9.1767
 20
21.2013
 30
0.0
 10
-9.125
 20
21.101
 30
0.0
 10
-9.0629
 20
21.0111
 30
0.0
 10
-8.9904
 20
20.9316
 30
0.0
 10
-8.9904
 20
20.9316
 30
0.0
 10
-8.9904
 20
20.9316
 30
0.0
 10
-9.231
 20
20.594
 30
0.0
 10
-9.231
 20
20.594
 30
0.0
 10
-9.231
 20
20.594
 30
0.0
 10
-9.231
 20
20.594
 30
0.0
 10
-9.0409
 20
20.4387
 30
0.0
 10
-9.0409
 20
20.4387
 30
0.0
  0
SPLINE
  5
D4
330
1F
100
AcDbEntity
  8
Ilustrace
 62
   250
100
AcDbSpline
210
0.0
220
0.0
230
1.0
 70
    11
 71
     3
 72
    52
 73
    48
 74
     0
 42
0.0000000001
 43
0.0000000001
 40
0.0
 40
0.0
 40
0.0
 40
0.0
 40
0.0769230769230769
 40
0.0769230769230769
 40
0.0769230769230769
 40
0.0769230769230769
 40
0.1538461538461539
 40
0.1538461538461539
 40
0.1538461538461539
 40
0.1538461538461539
 40
0.2307692307692308
 40
0.2307692307692308
 40
0.2307692307692308
 40
0.2307692307692308
 40
0.3076923076923077
 40
0.3076923076923077
 40
0.3076923076923077
 40
0.3076923076923077
 40
0.3846153846153846
 40
0.3846153846153846
 40
0.3846153846153846
 40
0.3846153846153846
 40
0.4615384615384616
 40
0.4615384615384616
 40
0.4615384615384616
 40
0.4615384615384616
 40
0.5384615384615384
 40
0.5384615384615384
 40
0.5384615384615384
 40
0.5384615384615384
 40
0.6153846153846154
 40
0.6153846153846154
 40
0.6153846153846154
 40
0.6153846153846154
 40
0.6923076923076923
 40
0.6923076923076923
 40
0.6923076923076923
 40
0.6923076923076923
 40
0.7692307692307693
 40
0.7692307692307693
 40
0.7692307692307693
 40
0.7692307692307693
 40
0.8461538461538461
 40
0.8461538461538461
 40
0.8461538461538461
 40
0.8461538461538461
 40
1.0
 40
1.0
 40
1.0
 40
1.0
 10
-8.7925
 20
21.2187
 30
0.0
 10
-8.7925
 20
21.2187
 30
0.0
 10
-8.8003
 20
21.2149
 30
0.0
 10
-8.8003
 20
21.2149
 30
0.0
 10
-8.8003
 20
21.2149
 30
0.0
 10
-8.8391
 20
21.2815
 30
0.0
 10
-8.8727
 20
21.3507
 30
0.0
 10
-8.9012
 20
21.4218
 30
0.0
 10
-8.9012
 20
21.4218
 30
0.0
 10
-8.9296
 20
21.4936
 30
0.0
 10
-8.9516
 20
21.5693
 30
0.0
 10
-8.9671
 20
21.6508
 30
0.0
 10
-8.9671
 20
21.6508
 30
0.0
 10
-8.9827
 20
21.7316
 30
0.0
 10
-8.9904
 20
21.8209
 30
0.0
 10
-8.9904
 20
21.9172
 30
0.0
 10
-8.9904
 20
21.9172
 30
0.0
 10
-8.9904
 20
22.0285
 30
0.0
 10
-8.9788
 20
22.1358
 30
0.0
 10
-8.9561
 20
22.2413
 30
0.0
 10
-8.9561
 20
22.2413
 30
0.0
 10
-8.9329
 20
22.346
 30
0.0
 10
-8.8986
 20
22.4444
 30
0.0
 10
-8.8533
 20
22.5349
 30
0.0
 10
-8.8533
 20
22.5349
 30
0.0
 10
-8.8074
 20
22.6261
 30
0.0
 10
-8.7505
 20
22.7063
 30
0.0
 10
-8.6819
 20
22.7749
 30
0.0
 10
-8.6819
 20
22.7749
 30
0.0
 10
-8.6134
 20
22.8441
 30
0.0
 10
-8.5338
 20
22.8977
 30
0.0
 10
-8.4433
 20
22.9365
 30
0.0
 10
-8.4433
 20
22.9365
 30
0.0
 10
-8.3521
 20
22.976
 30
0.0
 10
-8.2499
 20
22.9954
 30
0.0
 10
-8.1367
 20
22.996
 30
0.0
 10
-8.1367
 20
22.996
 30
0.0
 10
-8.0377
 20
22.9954
 30
0.0
 10
-7.9472
 20
22.9792
 30
0.0
 10
-7.8657
 20
22.9469
 30
0.0
 10
-7.8657
 20
22.9469
 30
0.0
 10
-7.7836
 20
22.9152
 30
0.0
 10
-7.7098
 20
22.8706
 30
0.0
 10
-7.6439
 20
22.8137
 30
0.0
 10
-7.6439
 20
22.8137
 30
0.0
 10
-7.6439
 20
22.8137
 30
0.0
 10
-8.7925
 20
21.2187
 30
0.0
 10
-8.7925
 20
21.2187
 30
0.0
  0
SPLINE
  5
D5
330
1F
100
AcDbEntity
  8
Ilustrace
 62
   250
100
AcDbSpline
210
0.0
220
0.0
230
1.0
 70
    11
 71
     3
 72
    48
 73
    44
 74
     0
 42
0.0000000001
 43
0.0000000001
 40
0.0
 40
0.0
 40
0.0
 40
0.0
 40
0.0833333333333333
 40
0.0833333333333333
 40
0.0833333333333333
 40
0.0833333333333333
 40
0.1666666666666667
 40
0.1666666666666667
 40
0.1666666666666667
 40
0.1666666666666667
 40
0.25
 40
0.25
 40
0.25
 40
0.25
 40
0.3333333333333333
 40
0.3333333333333333
 40
0.3333333333333333
 40
0.3333333333333333
 40
0.4166666666666667
 40
0.4166666666666667
 40
0.4166666666666667
 40
0.4166666666666667
 40
0.5
 40
0.5
 40
0.5
 40
0.5
 40
0.5833333333333334
 40
0.5833333333333334
 40
0.5833333333333334
 40
0.5833333333333334
 40
0.6666666666666666
 40
0.6666666666666666
 40
0.6666666666666666
 40
0.6666666666666666
 40
0.75
 40
0.75
 40
0.75
 40
0.75
 40
0.8333333333333334
 40
0.8333333333333334
 40
0.8333333333333334
 40
0.8333333333333334
 40
1.0
 40
1.0
 40
1.0
 40
1.0
 10
-7.4848
 20
22.608
 30
0.0
 10
-7.4848
 20
22.608
 30
0.0
 10
-7.4731
 20
22.608
 30
0.0
 10
-7.4731
 20
22.608
 30
0.0
 10
-7.4731
 20
22.608
 30
0.0
 10
-7.4058
 20
22.4955
 30
0.0
 10
-7.3586
 20
22.3816
 30
0.0
 10
-7.3308
 20
22.2665
 30
0.0
 10
-7.3308
 20
22.2665
 30
0.0
 10
-7.303
 20
22.152
 30
0.0
 10
-7.2894
 20
22.0382
 30
0.0
 10
-7.2907
 20
21.925
 30
0.0
 10
-7.2907
 20
21.925
 30
0.0
 10
-7.2907
 20
21.8073
 30
0.0
 10
-7.303
 20
21.6948
 30
0.0
 10
-7.3269
 20
21.5867
 30
0.0
 10
-7.3269
 20
21.5867
 30
0.0
 10
-7.3509
 20
21.4787
 30
0.0
 10
-7.3864
 20
21.3791
 30
0.0
 10
-7.433
 20
21.2879
 30
0.0
 10
-7.433
 20
21.2879
 30
0.0
 10
-7.4802
 20
21.1967
 30
0.0
 10
-7.5378
 20
21.1172
 30
0.0
 10
-7.6063
 20
21.0499
 30
0.0
 10
-7.6063
 20
21.0499
 30
0.0
 10
-7.6755
 20
20.982
 30
0.0
 10
-7.7545
 20
20.929
 30
0.0
 10
-7.8437
 20
20.8915
 30
0.0
 10
-7.8437
 20
20.8915
 30
0.0
 10
-7.933
 20
20.854
 30
0.0
 10
-8.0319
 20
20.8352
 30
0.0
 10
-8.1406
 20
20.8346
 30
0.0
 10
-8.1406
 20
20.8346
 30
0.0
 10
-8.246
 20
20.8346
 30
0.0
 10
-8.3385
 20
20.8507
 30
0.0
 10
-8.4167
 20
20.8824
 30
0.0
 10
-8.4167
 20
20.8824
 30
0.0
 10
-8.4956
 20
20.9141
 30
0.0
 10
-8.5661
 20
20.9607
 30
0.0
 10
-8.6295
 20
21.0208
 30
0.0
 10
-8.6295
 20
21.0208
 30
0.0
 10
-8.6295
 20
21.0208
 30
0.0
 10
-7.4848
 20
22.608
 30
0.0
 10
-7.4848
 20
22.608
 30
0.0
  0
SPLINE
  5
D6
330
1F
100
AcDbEntity
  8
Ilustrace
 62
   250
100
AcDbSpline
210
0.0
220
0.0
230
1.0
 70
    11
 71
     3
 72
    36
 73
    32
 74
     0
 42
0.0000000001
 43
0.0000000001
 40
0.0
 40
0.0
 40
0.0
 40
0.0
 40
0.1111111111111111
 40
0.1111111111111111
 40
0.1111111111111111
 40
0.1111111111111111
 40
0.2222222222222222
 40
0.2222222222222222
 40
0.2222222222222222
 40
0.2222222222222222
 40
0.3333333333333333
 40
0.3333333333333333
 40
0.3333333333333333
 40
0.3333333333333333
 40
0.4444444444444444
 40
0.4444444444444444
 40
0.4444444444444444
 40
0.4444444444444444
 40
0.5555555555555556
 40
0.5555555555555556
 40
0.5555555555555556
 40
0.5555555555555556
 40
0.6666666666666666
 40
0.6666666666666666
 40
0.6666666666666666
 40
0.6666666666666666
 40
0.7777777777777778
 40
0.7777777777777778
 40
0.7777777777777778
 40
0.7777777777777778
 40
1.0
 40
1.0
 40
1.0
 40
1.0
 10
-5.886
 20
20.6056
 30
0.0
 10
-5.886
 20
20.6056
 30
0.0
 10
-5.5561
 20
20.6056
 30
0.0
 10
-5.5561
 20
20.6056
 30
0.0
 10
-5.5561
 20
20.6056
 30
0.0
 10
-5.5561
 20
20.6056
 30
0.0
 10
-5.5561
 20
23.128
 30
0.0
 10
-5.5561
 20
23.128
 30
0.0
 10
-5.5561
 20
23.128
 30
0.0
 10
-5.5561
 20
23.128
 30
0.0
 10
-5.8472
 20
23.128
 30
0.0
 10
-5.8472
 20
23.128
 30
0.0
 10
-5.8472
 20
23.128
 30
0.0
 10
-5.8472
 20
23.128
 30
0.0
 10
-6.3982
 20
22.8331
 30
0.0
 10
-6.3982
 20
22.8331
 30
0.0
 10
-6.3982
 20
22.8331
 30
0.0
 10
-6.3982
 20
22.8331
 30
0.0
 10
-6.3322
 20
22.5731
 30
0.0
 10
-6.3322
 20
22.5731
 30
0.0
 10
-6.3322
 20
22.5731
 30
0.0
 10
-6.3322
 20
22.5731
 30
0.0
 10
-5.8937
 20
22.8098
 30
0.0
 10
-5.8937
 20
22.8098
 30
0.0
 10
-5.8937
 20
22.8098
 30
0.0
 10
-5.8937
 20
22.8098
 30
0.0
 10
-5.886
 20
22.8098
 30
0.0
 10
-5.886
 20
22.8098
 30
0.0
 10
-5.886
 20
22.8098
 30
0.0
 10
-5.886
 20
22.8098
 30
0.0
 10
-5.886
 20
20.6056
 30
0.0
 10
-5.886
 20
20.6056
 30
0.0
  0
SPLINE
  5
D7
330
1F
100
AcDbEntity
  8
Ilustrace
 62
   250
100
AcDbSpline
210
0.0
220
0.0
230
1.0
 70
    11
 71
     3
 72
   196
 73
   192
 74
     0
 42
0.0000000001
 43
0.0000000001
 40
0.0
 40
0.0
 40
0.0
 40
0.0
 40
0.0204081632653061
 40
0.0204081632653061
 40
0.0204081632653061
 40
0.0204081632653061
 40
0.0408163265306122
 40
0.0408163265306122
 40
0.0408163265306122
 40
0.0408163265306122
 40
0.0612244897959184
 40
0.0612244897959184
 40
0.0612244897959184
 40
0.0612244897959184
 40
0.0816326530612245
 40
0.0816326530612245
 40
0.0816326530612245
 40
0.0816326530612245
 40
0.1020408163265306
 40
0.1020408163265306
 40
0.1020408163265306
 40
0.1020408163265306
 40
0.1224489795918367
 40
0.1224489795918367
 40
0.1224489795918367
 40
0.1224489795918367
 40
0.1428571428571428
 40
0.1428571428571428
 40
0.1428571428571428
 40
0.1428571428571428
 40
0.163265306122449
 40
0.163265306122449
 40
0.163265306122449
 40
0.163265306122449
 40
0.1836734693877551
 40
0.1836734693877551
 40
0.1836734693877551
 40
0.1836734693877551
 40
0.2040816326530612
 40
0.2040816326530612
 40
0.2040816326530612
 40
0.2040816326530612
 40
0.2244897959183673
 40
0.2244897959183673
 40
0.2244897959183673
 40
0.2244897959183673
 40
0.2448979591836735
 40
0.2448979591836735
 40
0.2448979591836735
 40
0.2448979591836735
 40
0.2653061224489796
 40
0.2653061224489796
 40
0.2653061224489796
 40
0.2653061224489796
 40
0.2857142857142857
 40
0.2857142857142857
 40
0.2857142857142857
 40
0.2857142857142857
 40
0.3061224489795918
 40
0.3061224489795918
 40
0.3061224489795918
 40
0.3061224489795918
 40
0.3265306122448979
 40
0.3265306122448979
 40
0.3265306122448979
 40
0.3265306122448979
 40
0.3469387755102041
 40
0.3469387755102041
 40
0.3469387755102041
 40
0.3469387755102041
 40
0.3673469387755102
 40
0.3673469387755102
 40
0.3673469387755102
 40
0.3673469387755102
 40
0.3877551020408163
 40
0.3877551020408163
 40
0.3877551020408163
 40
0.3877551020408163
 40
0.4081632653061225
 40
0.4081632653061225
 40
0.4081632653061225
 40
0.4081632653061225
 40
0.4285714285714285
 40
0.4285714285714285
 40
0.4285714285714285
 40
0.4285714285714285
 40
0.4489795918367347
 40
0.4489795918367347
 40
0.4489795918367347
 40
0.4489795918367347
 40
0.4693877551020408
 40
0.4693877551020408
 40
0.4693877551020408
 40
0.4693877551020408
 40
0.4897959183673469
 40
0.4897959183673469
 40
0.4897959183673469
 40
0.4897959183673469
 40
0.5102040816326531
 40
0.5102040816326531
 40
0.5102040816326531
 40
0.5102040816326531
 40
0.5306122448979592
 40
0.5306122448979592
 40
0.5306122448979592
 40
0.5306122448979592
 40
0.5510204081632653
 40
0.5510204081632653
 40
0.5510204081632653
 40
0.5510204081632653
 40
0.5714285714285714
 40
0.5714285714285714
 40
0.5714285714285714
 40
0.5714285714285714
 40
0.5918367346938775
 40
0.5918367346938775
 40
0.5918367346938775
 40
0.5918367346938775
 40
0.6122448979591837
 40
0.6122448979591837
 40
0.6122448979591837
 40
0.6122448979591837
 40
0.6326530612244898
 40
0.6326530612244898
 40
0.6326530612244898
 40
0.6326530612244898
 40
0.6530612244897959
 40
0.6530612244897959
 40
0.6530612244897959
 40
0.6530612244897959
 40
0.673469387755102
 40
0.673469387755102
 40
0.673469387755102
 40
0.673469387755102
 40
0.6938775510204082
 40
0.6938775510204082
 40
0.6938775510204082
 40
0.6938775510204082
 40
0.7142857142857143
 40
0.7142857142857143
 40
0.7142857142857143
 40
0.7142857142857143
 40
0.7346938775510204
 40
0.7346938775510204
 40
0.7346938775510204
 40
0.7346938775510204
 40
0.7551020408163265
 40
0.7551020408163265
 40
0.7551020408163265
 40
0.7551020408163265
 40
0.7755102040816326
 40
0.7755102040816326
 40
0.7755102040816326
 40
0.7755102040816326
 40
0.7959183673469388
 40
0.7959183673469388
 40
0.7959183673469388
 40
0.7959183673469388
 40
0.8163265306122449
 40
0.8163265306122449
 40
0.8163265306122449
 40
0.8163265306122449
 40
0.8367346938775511
 40
0.8367346938775511
 40
0.8367346938775511
 40
0.8367346938775511
 40
0.8571428571428571
 40
0.8571428571428571
 40
0.8571428571428571
 40
0.8571428571428571
 40
0.8775510204081632
 40
0.8775510204081632
 40
0.8775510204081632
 40
0.8775510204081632
 40
0.8979591836734694
 40
0.8979591836734694
 40
0.8979591836734694
 40
0.8979591836734694
 40
0.9183673469387755
 40
0.9183673469387755
 40
0.9183673469387755
 40
0.9183673469387755
 40
0.9387755102040817
 40
0.9387755102040817
 40
0.9387755102040817
 40
0.9387755102040817
 40
0.9591836734693877
 40
0.9591836734693877
 40
0.9591836734693877
 40
0.9591836734693877
 40
1.0
 40
1.0
 40
1.0
 40
1.0
 10
-4.6481
 20
20.7337
 30
0.0
 10
-4.6061
 20
20.7058
 30
0.0
 10
-4.5517
 20
20.6793
 30
0.0
 10
-4.4858
 20
20.6535
 30
0.0
 10
-4.4858
 20
20.6535
 30
0.0
 10
-4.4198
 20
20.6276
 30
0.0
 10
-4.3448
 20
20.6062
 30
0.0
 10
-4.2607
 20
20.5888
 30
0.0
 10
-4.2607
 20
20.5888
 30
0.0
 10
-4.1766
 20
20.572
 30
0.0
 10
-4.0874
 20
20.5636
 30
0.0
 10
-3.9923
 20
20.5629
 30
0.0
 10
-3.9923
 20
20.5629
 30
0.0
 10
-3.8416
 20
20.5636
 30
0.0
 10
-3.709
 20
20.5843
 30
0.0
 10
-3.5945
 20
20.6244
 30
0.0
 10
-3.5945
 20
20.6244
 30
0.0
 10
-3.4801
 20
20.6645
 30
0.0
 10
-3.3843
 20
20.7201
 30
0.0
 10
-3.3067
 20
20.7899
 30
0.0
 10
-3.3067
 20
20.7899
 30
0.0
 10
-3.2291
 20
20.8598
 30
0.0
 10
-3.1709
 20
20.9406
 30
0.0
 10
-3.1314
 20
21.0312
 30
0.0
 10
-3.1314
 20
21.0312
 30
0.0
 10
-3.0926
 20
21.1217
 30
0.0
 10
-3.0726
 20
21.2181
 30
0.0
 10
-3.0726
 20
21.3196
 30
0.0
 10
-3.0726
 20
21.3196
 30
0.0
 10
-3.0739
 20
21.4082
 30
0.0
 10
-3.0894
 20
21.4884
 30
0.0
 10
-3.1185
 20
21.5609
 30
0.0
 10
-3.1185
 20
21.5609
 30
0.0
 10
-3.1476
 20
21.634
 30
0.0
 10
-3.1877
 20
21.6973
 30
0.0
 10
-3.2388
 20
21.7523
 30
0.0
 10
-3.2388
 20
21.7523
 30
0.0
 10
-3.2899
 20
21.8073
 30
0.0
 10
-3.3494
 20
21.8526
 30
0.0
 10
-3.4167
 20
21.8881
 30
0.0
 10
-3.4167
 20
21.8881
 30
0.0
 10
-3.4846
 20
21.9237
 30
0.0
 10
-3.557
 20
21.9489
 30
0.0
 10
-3.6353
 20
21.9638
 30
0.0
 10
-3.6353
 20
21.9638
 30
0.0
 10
-3.6353
 20
21.9638
 30
0.0
 10
-3.6353
 20
21.9716
 30
0.0
 10
-3.6353
 20
21.9716
 30
0.0
 10
-3.6353
 20
21.9716
 30
0.0
 10
-3.5331
 20
22.0097
 30
0.0
 10
-3.4471
 20
22.0582
 30
0.0
 10
-3.3785
 20
22.1177
 30
0.0
 10
-3.3785
 20
22.1177
 30
0.0
 10
-3.3093
 20
22.1772
 30
0.0
 10
-3.2569
 20
22.2458
 30
0.0
 10
-3.222
 20
22.3221
 30
0.0
 10
-3.222
 20
22.3221
 30
0.0
 10
-3.1871
 20
22.3984
 30
0.0
 10
-3.1696
 20
22.4806
 30
0.0
 10
-3.1696
 20
22.5692
 30
0.0
 10
-3.1696
 20
22.5692
 30
0.0
 10
-3.1696
 20
22.6468
 30
0.0
 10
-3.1838
 20
22.7212
 30
0.0
 10
-3.2123
 20
22.7923
 30
0.0
 10
-3.2123
 20
22.7923
 30
0.0
 10
-3.2414
 20
22.8641
 30
0.0
 10
-3.2854
 20
22.9281
 30
0.0
 10
-3.3442
 20
22.9851
 30
0.0
 10
-3.3442
 20
22.9851
 30
0.0
 10
-3.4031
 20
23.042
 30
0.0
 10
-3.4781
 20
23.0866
 30
0.0
 10
-3.5693
 20
23.1196
 30
0.0
 10
-3.5693
 20
23.1196
 30
0.0
 10
-3.6599
 20
23.1532
 30
0.0
 10
-3.7672
 20
23.17
 30
0.0
 10
-3.8914
 20
23.1707
 30
0.0
 10
-3.8914
 20
23.1707
 30
0.0
 10
-3.9826
 20
23.17
 30
0.0
 10
-4.0699
 20
23.1603
 30
0.0
 10
-4.154
 20
23.1422
 30
0.0
 10
-4.154
 20
23.1422
 30
0.0
 10
-4.2381
 20
23.1235
 30
0.0
 10
-4.3144
 20
23.0995
 30
0.0
 10
-4.3829
 20
23.0704
 30
0.0
 10
-4.3829
 20
23.0704
 30
0.0
 10
-4.4515
 20
23.0407
 30
0.0
 10
-4.5091
 20
23.0096
 30
0.0
 10
-4.555
 20
22.9766
 30
0.0
 10
-4.555
 20
22.9766
 30
0.0
 10
-4.555
 20
22.9766
 30
0.0
 10
-4.4618
 20
22.7283
 30
0.0
 10
-4.4618
 20
22.7283
 30
0.0
 10
-4.4618
 20
22.7283
 30
0.0
 10
-4.425
 20
22.7548
 30
0.0
 10
-4.3804
 20
22.7807
 30
0.0
 10
-4.3273
 20
22.8059
 30
0.0
 10
-4.3273
 20
22.8059
 30
0.0
 10
-4.2749
 20
22.8318
 30
0.0
 10
-4.2167
 20
22.8525
 30
0.0
 10
-4.1533
 20
22.8693
 30
0.0
 10
-4.1533
 20
22.8693
 30
0.0
 10
-4.0906
 20
22.8861
 30
0.0
 10
-4.0253
 20
22.8945
 30
0.0
 10
-3.9574
 20
22.8952
 30
0.0
 10
-3.9574
 20
22.8952
 30
0.0
 10
-3.8526
 20
22.8945
 30
0.0
 10
-3.7679
 20
22.8764
 30
0.0
 10
-3.7032
 20
22.8415
 30
0.0
 10
-3.7032
 20
22.8415
 30
0.0
 10
-3.6379
 20
22.8065
 30
0.0
 10
-3.59
 20
22.7606
 30
0.0
 10
-3.5596
 20
22.7031
 30
0.0
 10
-3.5596
 20
22.7031
 30
0.0
 10
-3.5292
 20
22.6461
 30
0.0
 10
-3.5143
 20
22.5834
 30
0.0
 10
-3.515
 20
22.5149
 30
0.0
 10
-3.515
 20
22.5149
 30
0.0
 10
-3.5156
 20
22.4405
 30
0.0
 10
-3.5337
 20
22.3758
 30
0.0
 10
-3.568
 20
22.3221
 30
0.0
 10
-3.568
 20
22.3221
 30
0.0
 10
-3.6023
 20
22.2684
 30
0.0
 10
-3.6476
 20
22.2238
 30
0.0
 10
-3.7032
 20
22.1895
 30
0.0
 10
-3.7032
 20
22.1895
 30
0.0
 10
-3.7588
 20
22.1546
 30
0.0
 10
-3.8196
 20
22.1294
 30
0.0
 10
-3.8849
 20
22.1126
 30
0.0
 10
-3.8849
 20
22.1126
 30
0.0
 10
-3.9503
 20
22.0964
 30
0.0
 10
-4.0143
 20
22.088
 30
0.0
 10
-4.0777
 20
22.088
 30
0.0
 10
-4.0777
 20
22.088
 30
0.0
 10
-4.0777
 20
22.088
 30
0.0
 10
-4.2678
 20
22.088
 30
0.0
 10
-4.2678
 20
22.088
 30
0.0
 10
-4.2678
 20
22.088
 30
0.0
 10
-4.2678
 20
22.088
 30
0.0
 10
-4.2678
 20
21.8319
 30
0.0
 10
-4.2678
 20
21.8319
 30
0.0
 10
-4.2678
 20
21.8319
 30
0.0
 10
-4.2678
 20
21.8319
 30
0.0
 10
-4.0777
 20
21.8319
 30
0.0
 10
-4.0777
 20
21.8319
 30
0.0
 10
-4.0777
 20
21.8319
 30
0.0
 10
-3.9942
 20
21.8319
 30
0.0
 10
-3.914
 20
21.8222
 30
0.0
 10
-3.8371
 20
21.8028
 30
0.0
 10
-3.8371
 20
21.8028
 30
0.0
 10
-3.7601
 20
21.7834
 30
0.0
 10
-3.6909
 20
21.753
 30
0.0
 10
-3.6295
 20
21.7122
 30
0.0
 10
-3.6295
 20
21.7122
 30
0.0
 10
-3.568
 20
21.6715
 30
0.0
 10
-3.5189
 20
21.6191
 30
0.0
 10
-3.4826
 20
21.5551
 30
0.0
 10
-3.4826
 20
21.5551
 30
0.0
 10
-3.4464
 20
21.4917
 30
0.0
 10
-3.4277
 20
21.4154
 30
0.0
 10
-3.4257
 20
21.3274
 30
0.0
 10
-3.4257
 20
21.3274
 30
0.0
 10
-3.4244
 20
21.2731
 30
0.0
 10
-3.4328
 20
21.2174
 30
0.0
 10
-3.4522
 20
21.1612
 30
0.0
 10
-3.4522
 20
21.1612
 30
0.0
 10
-3.471
 20
21.1043
 30
0.0
 10
-3.5027
 20
21.0512
 30
0.0
 10
-3.5467
 20
21.0027
 30
0.0
 10
-3.5467
 20
21.0027
 30
0.0
 10
-3.5907
 20
20.9542
 30
0.0
 10
-3.6495
 20
20.9148
 30
0.0
 10
-3.7232
 20
20.885
 30
0.0
 10
-3.7232
 20
20.885
 30
0.0
 10
-3.797
 20
20.8546
 30
0.0
 10
-3.8875
 20
20.8391
 30
0.0
 10
-3.9962
 20
20.8384
 30
0.0
 10
-3.9962
 20
20.8384
 30
0.0
 10
-4.077
 20
20.8391
 30
0.0
 10
-4.154
 20
20.8481
 30
0.0
 10
-4.2264
 20
20.8656
 30
0.0
 10
-4.2264
 20
20.8656
 30
0.0
 10
-4.2989
 20
20.8831
 30
0.0
 10
-4.3635
 20
20.9038
 30
0.0
 10
-4.4205
 20
20.9277
 30
0.0
 10
-4.4205
 20
20.9277
 30
0.0
 10
-4.4774
 20
20.9516
 30
0.0
 10
-4.522
 20
20.9736
 30
0.0
 10
-4.555
 20
20.9937
 30
0.0
 10
-4.555
 20
20.9937
 30
0.0
 10
-4.555
 20
20.9937
 30
0.0
 10
-4.6481
 20
20.7337
 30
0.0
 10
-4.6481
 20
20.7337
 30
0.0
  0
SPLINE
  5
D8
330
1F
100
AcDbEntity
  8
Ilustrace
 62
   250
100
AcDbSpline
210
0.0
220
0.0
230
1.0
 70
    11
 71
     3
 72
    36
 73
    32
 74
     0
 42
0.0000000001
 43
0.0000000001
 40
0.0
 40
0.0
 40
0.0
 40
0.0
 40
0.1111111111111111
 40
0.1111111111111111
 40
0.1111111111111111
 40
0.1111111111111111
 40
0.2222222222222222
 40
0.2222222222222222
 40
0.2222222222222222
 40
0.2222222222222222
 40
0.3333333333333333
 40
0.3333333333333333
 40
0.3333333333333333
 40
0.3333333333333333
 40
0.4444444444444444
 40
0.4444444444444444
 40
0.4444444444444444
 40
0.4444444444444444
 40
0.5555555555555556
 40
0.5555555555555556
 40
0.5555555555555556
 40
0.5555555555555556
 40
0.6666666666666666
 40
0.6666666666666666
 40
0.6666666666666666
 40
0.6666666666666666
 40
0.7777777777777778
 40
0.7777777777777778
 40
0.7777777777777778
 40
0.7777777777777778
 40
1.0
 40
1.0
 40
1.0
 40
1.0
 10
-2.5992
 20
23.128
 30
0.0
 10
-2.5992
 20
23.128
 30
0.0
 10
-2.5992
 20
22.8447
 30
0.0
 10
-2.5992
 20
22.8447
 30
0.0
 10
-2.5992
 20
22.8447
 30
0.0
 10
-2.5992
 20
22.8447
 30
0.0
 10
-1.3652
 20
22.8447
 30
0.0
 10
-1.3652
 20
22.8447
 30
0.0
 10
-1.3652
 20
22.8447
 30
0.0
 10
-1.3652
 20
22.8447
 30
0.0
 10
-1.3652
 20
22.8369
 30
0.0
 10
-1.3652
 20
22.8369
 30
0.0
 10
-1.3652
 20
22.8369
 30
0.0
 10
-1.3652
 20
22.8369
 30
0.0
 10
-2.4595
 20
20.6056
 30
0.0
 10
-2.4595
 20
20.6056
 30
0.0
 10
-2.4595
 20
20.6056
 30
0.0
 10
-2.4595
 20
20.6056
 30
0.0
 10
-2.1064
 20
20.6056
 30
0.0
 10
-2.1064
 20
20.6056
 30
0.0
 10
-2.1064
 20
20.6056
 30
0.0
 10
-2.1064
 20
20.6056
 30
0.0
 10
-1.0082
 20
22.9029
 30
0.0
 10
-1.0082
 20
22.9029
 30
0.0
 10
-1.0082
 20
22.9029
 30
0.0
 10
-1.0082
 20
22.9029
 30
0.0
 10
-1.0082
 20
23.128
 30
0.0
 10
-1.0082
 20
23.128
 30
0.0
 10
-1.0082
 20
23.128
 30
0.0
 10
-1.0082
 20
23.128
 30
0.0
 10
-2.5992
 20
23.128
 30
0.0
 10
-2.5992
 20
23.128
 30
0.0
  0
SPLINE
  5
D9
330
1F
100
AcDbEntity
  8
Ilustrace
 62
   250
370
     9
100
AcDbSpline
210
0.0
220
0.0
230
1.0
 70
    11
 71
     3
 72
    32
 73
    28
 74
     0
 42
0.0000000001
 43
0.0000000001
 40
0.0
 40
0.0
 40
0.0
 40
0.0
 40
0.125
 40
0.125
 40
0.125
 40
0.125
 40
0.25
 40
0.25
 40
0.25
 40
0.25
 40
0.375
 40
0.375
 40
0.375
 40
0.375
 40
0.5
 40
0.5
 40
0.5
 40
0.5
 40
0.625
 40
0.625
 40
0.625
 40
0.625
 40
0.75
 40
0.75
 40
0.75
 40
0.75
 40
1.0
 40
1.0
 40
1.0
 40
1.0
 10
5.5524
 20
19.7054
 30
0.0
 10
5.5524
 20
19.7054
 30
0.0
 10
5.5524
 20
19.7054
 30
0.0
 10
5.5524
 20
19.7054
 30
0.0
 10
5.5524
 20
19.7054
 30
0.0
 10
5.5524
 20
19.7054
 30
0.0
 10
5.5524
 20
19.7054
 30
0.0
 10
5.5524
 20
19.7054
 30
0.0
 10
5.5524
 20
19.7054
 30
0.0
 10
5.5524
 20
19.7054
 30
0.0
 10
6.8252
 20
20.1488
 30
0.0
 10
6.8252
 20
20.1488
 30
0.0
 10
6.8252
 20
20.1488
 30
0.0
 10
6.8252
 20
20.1488
 30
0.0
 10
5.5524
 20
20.5922
 30
0.0
 10
5.5524
 20
20.5922
 30
0.0
 10
5.5524
 20
20.5922
 30
0.0
 10
5.5524
 20
20.5922
 30
0.0
 10
5.5524
 20
20.5922
 30
0.0
 10
5.5524
 20
20.5922
 30
0.0
 10
5.5524
 20
20.5922
 30
0.0
 10
5.5524
 20
20.5922
 30
0.0
 10
5.5524
 20
20.5922
 30
0.0
 10
5.5524
 20
20.5922
 30
0.0
 10
5.5524
 20
20.5922
 30
0.0
 10
5.5524
 20
20.5922
 30
0.0
 10
5.5524
 20
19.7054
 30
0.0
 10
5.5524
 20
19.7054
 30
0.0
  0
SPLINE
  5
DA
330
1F
100
AcDbEntity
  8
Ilustrace
 62
   250
370
     9
100
AcDbSpline
210
0.0
220
0.0
230
1.0
 70
    11
 71
     3
 72
    32
 73
    28
 74
     0
 42
0.0000000001
 43
0.0000000001
 40
0.0
 40
0.0
 40
0.0
 40
0.0
 40
0.125
 40
0.125
 40
0.125
 40
0.125
 40
0.25
 40
0.25
 40
0.25
 40
0.25
 40
0.375
 40
0.375
 40
0.375
 40
0.375
 40
0.5
 40
0.5
 40
0.5
 40
0.5
 40
0.625
 40
0.625
 40
0.625
 40
0.625
 40
0.75
 40
0.75
 40
0.75
 40
0.75
 40
1.0
 40
1.0
 40
1.0
 40
1.0
 10
-16.2837
 20
19.7182
 30
0.0
 10
-16.2837
 20
19.7182
 30
0.0
 10
-16.2837
 20
19.7182
 30
0.0
 10
-16.2837
 20
19.7182
 30
0.0
 10
-16.2837
 20
19.7182
 30
0.0
 10
-16.2837
 20
19.7182
 30
0.0
 10
-16.2837
 20
19.7182
 30
0.0
 10
-16.2837
 20
19.7182
 30
0.0
 10
-16.2837
 20
19.7182
 30
0.0
 10
-16.2837
 20
19.7182
 30
0.0
 10
-17.5583
 20
20.1616
 30
0.0
 10
-17.5583
 20
20.1616
 30
0.0
 10
-17.5583
 20
20.1616
 30
0.0
 10
-17.5583
 20
20.1616
 30
0.0
 10
-16.2837
 20
20.605
 30
0.0
 10
-16.2837
 20
20.605
 30
0.0
 10
-16.2837
 20
20.605
 30
0.0
 10
-16.2837
 20
20.605
 30
0.0
 10
-16.2837
 20
20.605
 30
0.0
 10
-16.2837
 20
20.605
 30
0.0
 10
-16.2837
 20
20.605
 30
0.0
 10
-16.2837
 20
20.605
 30
0.0
 10
-16.2837
 20
20.605
 30
0.0
 10
-16.2837
 20
20.605
 30
0.0
 10
-16.2837
 20
20.605
 30
0.0
 10
-16.2837
 20
20.605
 30
0.0
 10
-16.2837
 20
19.7182
 30
0.0
 10
-16.2837
 20
19.7182
 30
0.0
  0
SPLINE
  5
DB
330
1F
100
AcDbEntity
  8
Ilustrace
 62
   250
370
    15
100
AcDbSpline
210
0.0
220
0.0
230
1.0
 70
    24
 71
     3
 72
     8
 73
     4
 74
     0
 42
0.0000000001
 43
0.0000000001
 40
0.0
 40
0.0
 40
0.0
 40
0.0
 40
1.0
 40
1.0
 40
1.0
 40
1.0
 10
12.1729
 20
-9.7141
 30
0.0
 10
12.1729
 20
-9.7141
 30
0.0
 10
12.1729
 20
-3.7833
 30
0.0
 10
12.1729
 20
-3.7833
 30
0.0
  0
SPLINE
  5
DC
330
1F
100
AcDbEntity
  8
Ilustrace
 62
   250
100
AcDbSpline
210
0.0
220
0.0
230
1.0
 70
    11
 71
     3
 72
    48
 73
    44
 74
     0
 42
0.0000000001
 43
0.0000000001
 40
0.0
 40
0.0
 40
0.0
 40
0.0
 40
0.0833333333333333
 40
0.0833333333333333
 40
0.0833333333333333
 40
0.0833333333333333
 40
0.1666666666666667
 40
0.1666666666666667
 40
0.1666666666666667
 40
0.1666666666666667
 40
0.25
 40
0.25
 40
0.25
 40
0.25
 40
0.3333333333333333
 40
0.3333333333333333
 40
0.3333333333333333
 40
0.3333333333333333
 40
0.4166666666666667
 40
0.4166666666666667
 40
0.4166666666666667
 40
0.4166666666666667
 40
0.5
 40
0.5
 40
0.5
 40
0.5
 40
0.5833333333333334
 40
0.5833333333333334
 40
0.5833333333333334
 40
0.5833333333333334
 40
0.6666666666666666
 40
0.6666666666666666
 40
0.6666666666666666
 40
0.6666666666666666
 40
0.75
 40
0.75
 40
0.75
 40
0.75
 40
0.8333333333333334
 40
0.8333333333333334
 40
0.8333333333333334
 40
0.8333333333333334
 40
1.0
 40
1.0
 40
1.0
 40
1.0
 10
11.2866
 20
-7.0706
 30
0.0
 10
11.2866
 20
-7.0706
 30
0.0
 10
10.5959
 20
-7.0706
 30
0.0
 10
10.5959
 20
-7.0706
 30
0.0
 10
10.5959
 20
-7.0706
 30
0.0
 10
10.5959
 20
-7.0706
 30
0.0
 10
10.5959
 20
-6.7174
 30
0.0
 10
10.5959
 20
-6.7174
 30
0.0
 10
10.5959
 20
-6.7174
 30
0.0
 10
10.5959
 20
-6.7174
 30
0.0
 10
10.332
 20
-6.7174
 30
0.0
 10
10.332
 20
-6.7174
 30
0.0
 10
10.332
 20
-6.7174
 30
0.0
 10
10.332
 20
-6.7174
 30
0.0
 10
10.332
 20
-7.0706
 30
0.0
 10
10.332
 20
-7.0706
 30
0.0
 10
10.332
 20
-7.0706
 30
0.0
 10
10.332
 20
-7.0706
 30
0.0
 10
8.7642
 20
-7.0706
 30
0.0
 10
8.7642
 20
-7.0706
 30
0.0
 10
8.7642
 20
-7.0706
 30
0.0
 10
8.7642
 20
-7.0706
 30
0.0
 10
8.7642
 20
-7.4392
 30
0.0
 10
8.7642
 20
-7.4392
 30
0.0
 10
8.7642
 20
-7.4392
 30
0.0
 10
8.7642
 20
-7.4392
 30
0.0
 10
10.3747
 20
-8.5646
 30
0.0
 10
10.3747
 20
-8.5646
 30
0.0
 10
10.3747
 20
-8.5646
 30
0.0
 10
10.3747
 20
-8.5646
 30
0.0
 10
10.5959
 20
-8.5646
 30
0.0
 10
10.5959
 20
-8.5646
 30
0.0
 10
10.5959
 20
-8.5646
 30
0.0
 10
10.5959
 20
-8.5646
 30
0.0
 10
10.5959
 20
-7.3926
 30
0.0
 10
10.5959
 20
-7.3926
 30
0.0
 10
10.5959
 20
-7.3926
 30
0.0
 10
10.5959
 20
-7.3926
 30
0.0
 10
11.2866
 20
-7.3926
 30
0.0
 10
11.2866
 20
-7.3926
 30
0.0
 10
11.2866
 20
-7.3926
 30
0.0
 10
11.2866
 20
-7.3926
 30
0.0
 10
11.2866
 20
-7.0706
 30
0.0
 10
11.2866
 20
-7.0706
 30
0.0
  0
SPLINE
  5
DD
330
1F
100
AcDbEntity
  8
Ilustrace
 62
   250
100
AcDbSpline
210
0.0
220
0.0
230
1.0
 70
    11
 71
     3
 72
    36
 73
    32
 74
     0
 42
0.0000000001
 43
0.0000000001
 40
0.0
 40
0.0
 40
0.0
 40
0.0
 40
0.1111111111111111
 40
0.1111111111111111
 40
0.1111111111111111
 40
0.1111111111111111
 40
0.2222222222222222
 40
0.2222222222222222
 40
0.2222222222222222
 40
0.2222222222222222
 40
0.3333333333333333
 40
0.3333333333333333
 40
0.3333333333333333
 40
0.3333333333333333
 40
0.4444444444444444
 40
0.4444444444444444
 40
0.4444444444444444
 40
0.4444444444444444
 40
0.5555555555555556
 40
0.5555555555555556
 40
0.5555555555555556
 40
0.5555555555555556
 40
0.6666666666666666
 40
0.6666666666666666
 40
0.6666666666666666
 40
0.6666666666666666
 40
0.7777777777777778
 40
0.7777777777777778
 40
0.7777777777777778
 40
0.7777777777777778
 40
1.0
 40
1.0
 40
1.0
 40
1.0
 10
10.332
 20
-8.2192
 30
0.0
 10
10.332
 20
-8.2192
 30
0.0
 10
10.3242
 20
-8.2192
 30
0.0
 10
10.3242
 20
-8.2192
 30
0.0
 10
10.3242
 20
-8.2192
 30
0.0
 10
10.3242
 20
-8.2192
 30
0.0
 10
9.4666
 20
-7.6022
 30
0.0
 10
9.4666
 20
-7.6022
 30
0.0
 10
9.4666
 20
-7.6022
 30
0.0
 10
9.409
 20
-7.5679
 30
0.0
 10
9.3508
 20
-7.5336
 30
0.0
 10
9.292
 20
-7.5
 30
0.0
 10
9.292
 20
-7.5
 30
0.0
 10
9.2325
 20
-7.467
 30
0.0
 10
9.1665
 20
-7.4308
 30
0.0
 10
9.0941
 20
-7.3926
 30
0.0
 10
9.0941
 20
-7.3926
 30
0.0
 10
9.0941
 20
-7.3926
 30
0.0
 10
9.0941
 20
-7.381
 30
0.0
 10
9.0941
 20
-7.381
 30
0.0
 10
9.0941
 20
-7.381
 30
0.0
 10
9.226
 20
-7.3888
 30
0.0
 10
9.3579
 20
-7.3926
 30
0.0
 10
9.4899
 20
-7.3926
 30
0.0
 10
9.4899
 20
-7.3926
 30
0.0
 10
9.4899
 20
-7.3926
 30
0.0
 10
10.332
 20
-7.3926
 30
0.0
 10
10.332
 20
-7.3926
 30
0.0
 10
10.332
 20
-7.3926
 30
0.0
 10
10.332
 20
-7.3926
 30
0.0
 10
10.332
 20
-8.2192
 30
0.0
 10
10.332
 20
-8.2192
 30
0.0
  0
SPLINE
  5
DE
330
1F
100
AcDbEntity
  8
Ilustrace
 62
   250
100
AcDbSpline
210
0.0
220
0.0
230
1.0
 70
    11
 71
     3
 72
    56
 73
    52
 74
     0
 42
0.0000000001
 43
0.0000000001
 40
0.0
 40
0.0
 40
0.0
 40
0.0
 40
0.0714285714285714
 40
0.0714285714285714
 40
0.0714285714285714
 40
0.0714285714285714
 40
0.1428571428571428
 40
0.1428571428571428
 40
0.1428571428571428
 40
0.1428571428571428
 40
0.2142857142857143
 40
0.2142857142857143
 40
0.2142857142857143
 40
0.2142857142857143
 40
0.2857142857142857
 40
0.2857142857142857
 40
0.2857142857142857
 40
0.2857142857142857
 40
0.3571428571428572
 40
0.3571428571428572
 40
0.3571428571428572
 40
0.3571428571428572
 40
0.4285714285714285
 40
0.4285714285714285
 40
0.4285714285714285
 40
0.4285714285714285
 40
0.5
 40
0.5
 40
0.5
 40
0.5
 40
0.5714285714285714
 40
0.5714285714285714
 40
0.5714285714285714
 40
0.5714285714285714
 40
0.6428571428571429
 40
0.6428571428571429
 40
0.6428571428571429
 40
0.6428571428571429
 40
0.7142857142857143
 40
0.7142857142857143
 40
0.7142857142857143
 40
0.7142857142857143
 40
0.7857142857142857
 40
0.7857142857142857
 40
0.7857142857142857
 40
0.7857142857142857
 40
0.8571428571428571
 40
0.8571428571428571
 40
0.8571428571428571
 40
0.8571428571428571
 40
1.0
 40
1.0
 40
1.0
 40
1.0
 10
8.7215
 20
-5.6115
 30
0.0
 10
8.7215
 20
-5.7402
 30
0.0
 10
8.75
 20
-5.8579
 30
0.0
 10
8.8069
 20
-5.9653
 30
0.0
 10
8.8069
 20
-5.9653
 30
0.0
 10
8.8638
 20
-6.0726
 30
0.0
 10
8.9472
 20
-6.1651
 30
0.0
 10
9.0585
 20
-6.244
 30
0.0
 10
9.0585
 20
-6.244
 30
0.0
 10
9.1697
 20
-6.3229
 30
0.0
 10
9.3068
 20
-6.3837
 30
0.0
 10
9.4698
 20
-6.4271
 30
0.0
 10
9.4698
 20
-6.4271
 30
0.0
 10
9.6328
 20
-6.4698
 30
0.0
 10
9.8204
 20
-6.4918
 30
0.0
 10
10.0332
 20
-6.4924
 30
0.0
 10
10.0332
 20
-6.4924
 30
0.0
 10
10.3119
 20
-6.4885
 30
0.0
 10
10.5473
 20
-6.4517
 30
0.0
 10
10.7401
 20
-6.3812
 30
0.0
 10
10.7401
 20
-6.3812
 30
0.0
 10
10.9328
 20
-6.3107
 30
0.0
 10
11.079
 20
-6.213
 30
0.0
 10
11.1786
 20
-6.0888
 30
0.0
 10
11.1786
 20
-6.0888
 30
0.0
 10
11.2782
 20
-5.9646
 30
0.0
 10
11.3286
 20
-5.8198
 30
0.0
 10
11.3293
 20
-5.6542
 30
0.0
 10
11.3293
 20
-5.6542
 30
0.0
 10
11.3286
 20
-5.4686
 30
0.0
 10
11.2769
 20
-5.3108
 30
0.0
 10
11.1747
 20
-5.1801
 30
0.0
 10
11.1747
 20
-5.1801
 30
0.0
 10
11.0725
 20
-5.0495
 30
0.0
 10
10.9225
 20
-4.9499
 30
0.0
 10
10.7246
 20
-4.8813
 30
0.0
 10
10.7246
 20
-4.8813
 30
0.0
 10
10.5266
 20
-4.8121
 30
0.0
 10
10.2848
 20
-4.7778
 30
0.0
 10
9.9982
 20
-4.7772
 30
0.0
 10
9.9982
 20
-4.7772
 30
0.0
 10
9.7298
 20
-4.7778
 30
0.0
 10
9.5002
 20
-4.8108
 30
0.0
 10
9.3101
 20
-4.8761
 30
0.0
 10
9.3101
 20
-4.8761
 30
0.0
 10
9.1199
 20
-4.9415
 30
0.0
 10
8.9744
 20
-5.0365
 30
0.0
 10
8.8742
 20
-5.1607
 30
0.0
 10
8.8742
 20
-5.1607
 30
0.0
 10
8.7733
 20
-5.2849
 30
0.0
 10
8.7222
 20
-5.4349
 30
0.0
 10
8.7215
 20
-5.6115
 30
0.0
  0
SPLINE
  5
DF
330
1F
100
AcDbEntity
  8
Ilustrace
 62
   250
100
AcDbSpline
210
0.0
220
0.0
230
1.0
 70
    11
 71
     3
 72
    56
 73
    52
 74
     0
 42
0.0000000001
 43
0.0000000001
 40
0.0
 40
0.0
 40
0.0
 40
0.0
 40
0.0714285714285714
 40
0.0714285714285714
 40
0.0714285714285714
 40
0.0714285714285714
 40
0.1428571428571428
 40
0.1428571428571428
 40
0.1428571428571428
 40
0.1428571428571428
 40
0.2142857142857143
 40
0.2142857142857143
 40
0.2142857142857143
 40
0.2142857142857143
 40
0.2857142857142857
 40
0.2857142857142857
 40
0.2857142857142857
 40
0.2857142857142857
 40
0.3571428571428572
 40
0.3571428571428572
 40
0.3571428571428572
 40
0.3571428571428572
 40
0.4285714285714285
 40
0.4285714285714285
 40
0.4285714285714285
 40
0.4285714285714285
 40
0.5
 40
0.5
 40
0.5
 40
0.5
 40
0.5714285714285714
 40
0.5714285714285714
 40
0.5714285714285714
 40
0.5714285714285714
 40
0.6428571428571429
 40
0.6428571428571429
 40
0.6428571428571429
 40
0.6428571428571429
 40
0.7142857142857143
 40
0.7142857142857143
 40
0.7142857142857143
 40
0.7142857142857143
 40
0.7857142857142857
 40
0.7857142857142857
 40
0.7857142857142857
 40
0.7857142857142857
 40
0.8571428571428571
 40
0.8571428571428571
 40
0.8571428571428571
 40
0.8571428571428571
 40
1.0
 40
1.0
 40
1.0
 40
1.0
 10
8.9854
 20
-5.6348
 30
0.0
 10
8.9861
 20
-5.5455
 30
0.0
 10
9.01
 20
-5.4686
 30
0.0
 10
9.0585
 20
-5.4039
 30
0.0
 10
9.0585
 20
-5.4039
 30
0.0
 10
9.107
 20
-5.3392
 30
0.0
 10
9.1762
 20
-5.2862
 30
0.0
 10
9.2667
 20
-5.2448
 30
0.0
 10
9.2667
 20
-5.2448
 30
0.0
 10
9.3566
 20
-5.2034
 30
0.0
 10
9.4653
 20
-5.1723
 30
0.0
 10
9.5908
 20
-5.1523
 30
0.0
 10
9.5908
 20
-5.1523
 30
0.0
 10
9.7169
 20
-5.1322
 30
0.0
 10
9.8579
 20
-5.1225
 30
0.0
 10
10.0138
 20
-5.1225
 30
0.0
 10
10.0138
 20
-5.1225
 30
0.0
 10
10.2298
 20
-5.1225
 30
0.0
 10
10.4161
 20
-5.1413
 30
0.0
 10
10.5726
 20
-5.1788
 30
0.0
 10
10.5726
 20
-5.1788
 30
0.0
 10
10.7297
 20
-5.2157
 30
0.0
 10
10.8507
 20
-5.2726
 30
0.0
 10
10.9361
 20
-5.3483
 30
0.0
 10
10.9361
 20
-5.3483
 30
0.0
 10
11.0214
 20
-5.4239
 30
0.0
 10
11.0641
 20
-5.5197
 30
0.0
 10
11.0654
 20
-5.6348
 30
0.0
 10
11.0654
 20
-5.6348
 30
0.0
 10
11.0648
 20
-5.7389
 30
0.0
 10
11.0247
 20
-5.8288
 30
0.0
 10
10.9445
 20
-5.9058
 30
0.0
 10
10.9445
 20
-5.9058
 30
0.0
 10
10.8643
 20
-5.9821
 30
0.0
 10
10.7478
 20
-6.041
 30
0.0
 10
10.5952
 20
-6.083
 30
0.0
 10
10.5952
 20
-6.083
 30
0.0
 10
10.4419
 20
-6.125
 30
0.0
 10
10.2563
 20
-6.1464
 30
0.0
 10
10.037
 20
-6.147
 30
0.0
 10
10.037
 20
-6.147
 30
0.0
 10
9.8074
 20
-6.1464
 30
0.0
 10
9.6154
 20
-6.1237
 30
0.0
 10
9.4588
 20
-6.0798
 30
0.0
 10
9.4588
 20
-6.0798
 30
0.0
 10
9.303
 20
-6.0358
 30
0.0
 10
9.1853
 20
-5.9756
 30
0.0
 10
9.1051
 20
-5.8987
 30
0.0
 10
9.1051
 20
-5.8987
 30
0.0
 10
9.0255
 20
-5.8217
 30
0.0
 10
8.9854
 20
-5.7337
 30
0.0
 10
8.9854
 20
-5.6348
 30
0.0
  0
SPLINE
  5
E0
330
1F
100
AcDbEntity
  8
Ilustrace
 62
   250
370
     9
100
AcDbSpline
210
0.0
220
0.0
230
1.0
 70
    11
 71
     3
 72
    32
 73
    28
 74
     0
 42
0.0000000001
 43
0.0000000001
 40
0.0
 40
0.0
 40
0.0
 40
0.0
 40
0.125
 40
0.125
 40
0.125
 40
0.125
 40
0.25
 40
0.25
 40
0.25
 40
0.25
 40
0.375
 40
0.375
 40
0.375
 40
0.375
 40
0.5
 40
0.5
 40
0.5
 40
0.5
 40
0.625
 40
0.625
 40
0.625
 40
0.625
 40
0.75
 40
0.75
 40
0.75
 40
0.75
 40
1.0
 40
1.0
 40
1.0
 40
1.0
 10
12.6084
 20
-4.5235
 30
0.0
 10
12.6084
 20
-4.5235
 30
0.0
 10
12.6084
 20
-4.5235
 30
0.0
 10
12.6084
 20
-4.5235
 30
0.0
 10
12.6084
 20
-4.5235
 30
0.0
 10
12.6084
 20
-4.5235
 30
0.0
 10
12.6084
 20
-4.5235
 30
0.0
 10
12.6084
 20
-4.5235
 30
0.0
 10
12.6084
 20
-4.5235
 30
0.0
 10
12.6084
 20
-4.5235
 30
0.0
 10
12.165
 20
-3.2507
 30
0.0
 10
12.165
 20
-3.2507
 30
0.0
 10
12.165
 20
-3.2507
 30
0.0
 10
12.165
 20
-3.2507
 30
0.0
 10
11.7216
 20
-4.5235
 30
0.0
 10
11.7216
 20
-4.5235
 30
0.0
 10
11.7216
 20
-4.5235
 30
0.0
 10
11.7216
 20
-4.5235
 30
0.0
 10
11.7216
 20
-4.5235
 30
0.0
 10
11.7216
 20
-4.5235
 30
0.0
 10
11.7216
 20
-4.5235
 30
0.0
 10
11.7216
 20
-4.5235
 30
0.0
 10
11.7216
 20
-4.5235
 30
0.0
 10
11.7216
 20
-4.5235
 30
0.0
 10
11.7216
 20
-4.5235
 30
0.0
 10
11.7216
 20
-4.5235
 30
0.0
 10
12.6084
 20
-4.5235
 30
0.0
 10
12.6084
 20
-4.5235
 30
0.0
  0
SPLINE
  5
E1
330
1F
100
AcDbEntity
  8
Ilustrace
 62
   250
370
     9
100
AcDbSpline
210
0.0
220
0.0
230
1.0
 70
    11
 71
     3
 72
    32
 73
    28
 74
     0
 42
0.0000000001
 43
0.0000000001
 40
0.0
 40
0.0
 40
0.0
 40
0.0
 40
0.125
 40
0.125
 40
0.125
 40
0.125
 40
0.25
 40
0.25
 40
0.25
 40
0.25
 40
0.375
 40
0.375
 40
0.375
 40
0.375
 40
0.5
 40
0.5
 40
0.5
 40
0.5
 40
0.625
 40
0.625
 40
0.625
 40
0.625
 40
0.75
 40
0.75
 40
0.75
 40
0.75
 40
1.0
 40
1.0
 40
1.0
 40
1.0
 10
12.6246
 20
-9.0592
 30
0.0
 10
12.6246
 20
-9.0592
 30
0.0
 10
12.6246
 20
-9.0592
 30
0.0
 10
12.6246
 20
-9.0592
 30
0.0
 10
12.6246
 20
-9.0592
 30
0.0
 10
12.6246
 20
-9.0592
 30
0.0
 10
12.6246
 20
-9.0592
 30
0.0
 10
12.6246
 20
-9.0592
 30
0.0
 10
12.6246
 20
-9.0592
 30
0.0
 10
12.6246
 20
-9.0592
 30
0.0
 10
12.1812
 20
-10.3338
 30
0.0
 10
12.1812
 20
-10.3338
 30
0.0
 10
12.1812
 20
-10.3338
 30
0.0
 10
12.1812
 20
-10.3338
 30
0.0
 10
11.7378
 20
-9.0592
 30
0.0
 10
11.7378
 20
-9.0592
 30
0.0
 10
11.7378
 20
-9.0592
 30
0.0
 10
11.7378
 20
-9.0592
 30
0.0
 10
11.7378
 20
-9.0592
 30
0.0
 10
11.7378
 20
-9.0592
 30
0.0
 10
11.7378
 20
-9.0592
 30
0.0
 10
11.7378
 20
-9.0592
 30
0.0
 10
11.7378
 20
-9.0592
 30
0.0
 10
11.7378
 20
-9.0592
 30
0.0
 10
11.7378
 20
-9.0592
 30
0.0
 10
11.7378
 20
-9.0592
 30
0.0
 10
12.6246
 20
-9.0592
 30
0.0
 10
12.6246
 20
-9.0592
 30
0.0
  0
SPLINE
  5
E2
330
1F
100
AcDbEntity
  8
Ilustrace
 62
   250
370
    15
100
AcDbSpline
210
0.0
220
0.0
230
1.0
 70
    24
 71
     3
 72
     8
 73
     4
 74
     0
 42
0.0000000001
 43
0.0000000001
 40
0.0
 40
0.0
 40
0.0
 40
0.0
 40
1.0
 40
1.0
 40
1.0
 40
1.0
 10
-14.1786
 20
-18.939
 30
0.0
 10
-14.1786
 20
-18.939
 30
0.0
 10
3.5695
 20
-18.939
 30
0.0
 10
3.5695
 20
-18.939
 30
0.0
  0
SPLINE
  5
E3
330
1F
100
AcDbEntity
  8
Ilustrace
 62
   250
100
AcDbSpline
210
0.0
220
0.0
230
1.0
 70
    11
 71
     3
 72
   104
 73
   100
 74
     0
 42
0.0000000001
 43
0.0000000001
 40
0.0
 40
0.0
 40
0.0
 40
0.0
 40
0.0384615384615385
 40
0.0384615384615385
 40
0.0384615384615385
 40
0.0384615384615385
 40
0.0769230769230769
 40
0.0769230769230769
 40
0.0769230769230769
 40
0.0769230769230769
 40
0.1153846153846154
 40
0.1153846153846154
 40
0.1153846153846154
 40
0.1153846153846154
 40
0.1538461538461539
 40
0.1538461538461539
 40
0.1538461538461539
 40
0.1538461538461539
 40
0.1923076923076923
 40
0.1923076923076923
 40
0.1923076923076923
 40
0.1923076923076923
 40
0.2307692307692308
 40
0.2307692307692308
 40
0.2307692307692308
 40
0.2307692307692308
 40
0.2692307692307692
 40
0.2692307692307692
 40
0.2692307692307692
 40
0.2692307692307692
 40
0.3076923076923077
 40
0.3076923076923077
 40
0.3076923076923077
 40
0.3076923076923077
 40
0.3461538461538461
 40
0.3461538461538461
 40
0.3461538461538461
 40
0.3461538461538461
 40
0.3846153846153846
 40
0.3846153846153846
 40
0.3846153846153846
 40
0.3846153846153846
 40
0.4230769230769231
 40
0.4230769230769231
 40
0.4230769230769231
 40
0.4230769230769231
 40
0.4615384615384616
 40
0.4615384615384616
 40
0.4615384615384616
 40
0.4615384615384616
 40
0.5
 40
0.5
 40
0.5
 40
0.5
 40
0.5384615384615384
 40
0.5384615384615384
 40
0.5384615384615384
 40
0.5384615384615384
 40
0.5769230769230769
 40
0.5769230769230769
 40
0.5769230769230769
 40
0.5769230769230769
 40
0.6153846153846154
 40
0.6153846153846154
 40
0.6153846153846154
 40
0.6153846153846154
 40
0.6538461538461539
 40
0.6538461538461539
 40
0.6538461538461539
 40
0.6538461538461539
 40
0.6923076923076923
 40
0.6923076923076923
 40
0.6923076923076923
 40
0.6923076923076923
 40
0.7307692307692307
 40
0.7307692307692307
 40
0.7307692307692307
 40
0.7307692307692307
 40
0.7692307692307693
 40
0.7692307692307693
 40
0.7692307692307693
 40
0.7692307692307693
 40
0.8076923076923077
 40
0.8076923076923077
 40
0.8076923076923077
 40
0.8076923076923077
 40
0.8461538461538461
 40
0.8461538461538461
 40
0.8461538461538461
 40
0.8461538461538461
 40
0.8846153846153846
 40
0.8846153846153846
 40
0.8846153846153846
 40
0.8846153846153846
 40
0.9230769230769231
 40
0.9230769230769231
 40
0.9230769230769231
 40
0.9230769230769231
 40
1.0
 40
1.0
 40
1.0
 40
1.0
 10
-9.5642
 20
-18.5446
 30
0.0
 10
-9.5642
 20
-18.5446
 30
0.0
 10
-9.3197
 20
-18.2108
 30
0.0
 10
-9.3197
 20
-18.2108
 30
0.0
 10
-9.3197
 20
-18.2108
 30
0.0
 10
-9.2259
 20
-18.2787
 30
0.0
 10
-9.1231
 20
-18.3311
 30
0.0
 10
-9.0118
 20
-18.3667
 30
0.0
 10
-9.0118
 20
-18.3667
 30
0.0
 10
-8.8999
 20
-18.4023
 30
0.0
 10
-8.7829
 20
-18.4204
 30
0.0
 10
-8.66
 20
-18.4204
 30
0.0
 10
-8.66
 20
-18.4204
 30
0.0
 10
-8.5339
 20
-18.4204
 30
0.0
 10
-8.4116
 20
-18.4016
 30
0.0
 10
-8.2946
 20
-18.3648
 30
0.0
 10
-8.2946
 20
-18.3648
 30
0.0
 10
-8.1775
 20
-18.3279
 30
0.0
 10
-8.0688
 20
-18.2729
 30
0.0
 10
-7.9692
 20
-18.1992
 30
0.0
 10
-7.9692
 20
-18.1992
 30
0.0
 10
-7.869
 20
-18.1261
 30
0.0
 10
-7.7817
 20
-18.0343
 30
0.0
 10
-7.7067
 20
-17.9243
 30
0.0
 10
-7.7067
 20
-17.9243
 30
0.0
 10
-7.6323
 20
-17.8144
 30
0.0
 10
-7.5741
 20
-17.6863
 30
0.0
 10
-7.532
 20
-17.5395
 30
0.0
 10
-7.532
 20
-17.5395
 30
0.0
 10
-7.4906
 20
-17.3933
 30
0.0
 10
-7.4693
 20
-17.229
 30
0.0
 10
-7.4686
 20
-17.0467
 30
0.0
 10
-7.4686
 20
-17.0467
 30
0.0
 10
-7.4686
 20
-16.9179
 30
0.0
 10
-7.4816
 20
-16.7957
 30
0.0
 10
-7.5081
 20
-16.6793
 30
0.0
 10
-7.5081
 20
-16.6793
 30
0.0
 10
-7.534
 20
-16.5622
 30
0.0
 10
-7.5721
 20
-16.4536
 30
0.0
 10
-7.6219
 20
-16.3533
 30
0.0
 10
-7.6219
 20
-16.3533
 30
0.0
 10
-7.6724
 20
-16.2531
 30
0.0
 10
-7.7338
 20
-16.1638
 30
0.0
 10
-7.8063
 20
-16.0843
 30
0.0
 10
-7.8063
 20
-16.0843
 30
0.0
 10
-7.8063
 20
-16.0843
 30
0.0
 10
-7.5657
 20
-15.7505
 30
0.0
 10
-7.5657
 20
-15.7505
 30
0.0
 10
-7.5657
 20
-15.7505
 30
0.0
 10
-7.5657
 20
-15.7505
 30
0.0
 10
-7.7713
 20
-15.6108
 30
0.0
 10
-7.7713
 20
-15.6108
 30
0.0
 10
-7.7713
 20
-15.6108
 30
0.0
 10
-7.7713
 20
-15.6108
 30
0.0
 10
-8.0003
 20
-15.9252
 30
0.0
 10
-8.0003
 20
-15.9252
 30
0.0
 10
-8.0003
 20
-15.9252
 30
0.0
 10
-8.0941
 20
-15.8553
 30
0.0
 10
-8.1956
 20
-15.8029
 30
0.0
 10
-8.3056
 20
-15.768
 30
0.0
 10
-8.3056
 20
-15.768
 30
0.0
 10
-8.4162
 20
-15.7331
 30
0.0
 10
-8.5313
 20
-15.7156
 30
0.0
 10
-8.6522
 20
-15.7156
 30
0.0
 10
-8.6522
 20
-15.7156
 30
0.0
 10
-8.8249
 20
-15.7163
 30
0.0
 10
-8.984
 20
-15.7486
 30
0.0
 10
-9.1308
 20
-15.8126
 30
0.0
 10
-9.1308
 20
-15.8126
 30
0.0
 10
-9.277
 20
-15.8767
 30
0.0
 10
-9.4044
 20
-15.9691
 30
0.0
 10
-9.5131
 20
-16.0888
 30
0.0
 10
-9.5131
 20
-16.0888
 30
0.0
 10
-9.6224
 20
-16.2084
 30
0.0
 10
-9.7065
 20
-16.352
 30
0.0
 10
-9.7673
 20
-16.5195
 30
0.0
 10
-9.7673
 20
-16.5195
 30
0.0
 10
-9.8274
 20
-16.6871
 30
0.0
 10
-9.8585
 20
-16.874
 30
0.0
 10
-9.8591
 20
-17.0816
 30
0.0
 10
-9.8591
 20
-17.0816
 30
0.0
 10
-9.8591
 20
-17.2122
 30
0.0
 10
-9.8449
 20
-17.3371
 30
0.0
 10
-9.8177
 20
-17.4548
 30
0.0
 10
-9.8177
 20
-17.4548
 30
0.0
 10
-9.7905
 20
-17.5725
 30
0.0
 10
-9.7511
 20
-17.6818
 30
0.0
 10
-9.7
 20
-17.782
 30
0.0
 10
-9.7
 20
-17.782
 30
0.0
 10
-9.6483
 20
-17.8823
 30
0.0
 10
-9.5862
 20
-17.9722
 30
0.0
 10
-9.5137
 20
-18.0517
 30
0.0
 10
-9.5137
 20
-18.0517
 30
0.0
 10
-9.5137
 20
-18.0517
 30
0.0
 10
-9.7543
 20
-18.3893
 30
0.0
 10
-9.7543
 20
-18.3893
 30
0.0
 10
-9.7543
 20
-18.3893
 30
0.0
 10
-9.7543
 20
-18.3893
 30
0.0
 10
-9.5642
 20
-18.5446
 30
0.0
 10
-9.5642
 20
-18.5446
 30
0.0
  0
SPLINE
  5
E4
330
1F
100
AcDbEntity
  8
Ilustrace
 62
   250
100
AcDbSpline
210
0.0
220
0.0
230
1.0
 70
    11
 71
     3
 72
    52
 73
    48
 74
     0
 42
0.0000000001
 43
0.0000000001
 40
0.0
 40
0.0
 40
0.0
 40
0.0
 40
0.0769230769230769
 40
0.0769230769230769
 40
0.0769230769230769
 40
0.0769230769230769
 40
0.1538461538461539
 40
0.1538461538461539
 40
0.1538461538461539
 40
0.1538461538461539
 40
0.2307692307692308
 40
0.2307692307692308
 40
0.2307692307692308
 40
0.2307692307692308
 40
0.3076923076923077
 40
0.3076923076923077
 40
0.3076923076923077
 40
0.3076923076923077
 40
0.3846153846153846
 40
0.3846153846153846
 40
0.3846153846153846
 40
0.3846153846153846
 40
0.4615384615384616
 40
0.4615384615384616
 40
0.4615384615384616
 40
0.4615384615384616
 40
0.5384615384615384
 40
0.5384615384615384
 40
0.5384615384615384
 40
0.5384615384615384
 40
0.6153846153846154
 40
0.6153846153846154
 40
0.6153846153846154
 40
0.6153846153846154
 40
0.6923076923076923
 40
0.6923076923076923
 40
0.6923076923076923
 40
0.6923076923076923
 40
0.7692307692307693
 40
0.7692307692307693
 40
0.7692307692307693
 40
0.7692307692307693
 40
0.8461538461538461
 40
0.8461538461538461
 40
0.8461538461538461
 40
0.8461538461538461
 40
1.0
 40
1.0
 40
1.0
 40
1.0
 10
-9.3158
 20
-17.7646
 30
0.0
 10
-9.3158
 20
-17.7646
 30
0.0
 10
-9.3236
 20
-17.7684
 30
0.0
 10
-9.3236
 20
-17.7684
 30
0.0
 10
-9.3236
 20
-17.7684
 30
0.0
 10
-9.3624
 20
-17.7018
 30
0.0
 10
-9.396
 20
-17.6326
 30
0.0
 10
-9.4245
 20
-17.5615
 30
0.0
 10
-9.4245
 20
-17.5615
 30
0.0
 10
-9.4529
 20
-17.4897
 30
0.0
 10
-9.4749
 20
-17.414
 30
0.0
 10
-9.4904
 20
-17.3325
 30
0.0
 10
-9.4904
 20
-17.3325
 30
0.0
 10
-9.506
 20
-17.2517
 30
0.0
 10
-9.5137
 20
-17.1624
 30
0.0
 10
-9.5137
 20
-17.0661
 30
0.0
 10
-9.5137
 20
-17.0661
 30
0.0
 10
-9.5137
 20
-16.9548
 30
0.0
 10
-9.5021
 20
-16.8475
 30
0.0
 10
-9.4794
 20
-16.742
 30
0.0
 10
-9.4794
 20
-16.742
 30
0.0
 10
-9.4562
 20
-16.6373
 30
0.0
 10
-9.4219
 20
-16.5389
 30
0.0
 10
-9.3766
 20
-16.4484
 30
0.0
 10
-9.3766
 20
-16.4484
 30
0.0
 10
-9.3307
 20
-16.3572
 30
0.0
 10
-9.2738
 20
-16.277
 30
0.0
 10
-9.2052
 20
-16.2084
 30
0.0
 10
-9.2052
 20
-16.2084
 30
0.0
 10
-9.1367
 20
-16.1392
 30
0.0
 10
-9.0571
 20
-16.0856
 30
0.0
 10
-8.9666
 20
-16.0468
 30
0.0
 10
-8.9666
 20
-16.0468
 30
0.0
 10
-8.8754
 20
-16.0073
 30
0.0
 10
-8.7732
 20
-15.9879
 30
0.0
 10
-8.66
 20
-15.9873
 30
0.0
 10
-8.66
 20
-15.9873
 30
0.0
 10
-8.561
 20
-15.9879
 30
0.0
 10
-8.4705
 20
-16.0041
 30
0.0
 10
-8.389
 20
-16.0364
 30
0.0
 10
-8.389
 20
-16.0364
 30
0.0
 10
-8.3069
 20
-16.0681
 30
0.0
 10
-8.2331
 20
-16.1127
 30
0.0
 10
-8.1672
 20
-16.1696
 30
0.0
 10
-8.1672
 20
-16.1696
 30
0.0
 10
-8.1672
 20
-16.1696
 30
0.0
 10
-9.3158
 20
-17.7646
 30
0.0
 10
-9.3158
 20
-17.7646
 30
0.0
  0
SPLINE
  5
E5
330
1F
100
AcDbEntity
  8
Ilustrace
 62
   250
100
AcDbSpline
210
0.0
220
0.0
230
1.0
 70
    11
 71
     3
 72
    48
 73
    44
 74
     0
 42
0.0000000001
 43
0.0000000001
 40
0.0
 40
0.0
 40
0.0
 40
0.0
 40
0.0833333333333333
 40
0.0833333333333333
 40
0.0833333333333333
 40
0.0833333333333333
 40
0.1666666666666667
 40
0.1666666666666667
 40
0.1666666666666667
 40
0.1666666666666667
 40
0.25
 40
0.25
 40
0.25
 40
0.25
 40
0.3333333333333333
 40
0.3333333333333333
 40
0.3333333333333333
 40
0.3333333333333333
 40
0.4166666666666667
 40
0.4166666666666667
 40
0.4166666666666667
 40
0.4166666666666667
 40
0.5
 40
0.5
 40
0.5
 40
0.5
 40
0.5833333333333334
 40
0.5833333333333334
 40
0.5833333333333334
 40
0.5833333333333334
 40
0.6666666666666666
 40
0.6666666666666666
 40
0.6666666666666666
 40
0.6666666666666666
 40
0.75
 40
0.75
 40
0.75
 40
0.75
 40
0.8333333333333334
 40
0.8333333333333334
 40
0.8333333333333334
 40
0.8333333333333334
 40
1.0
 40
1.0
 40
1.0
 40
1.0
 10
-8.0081
 20
-16.3753
 30
0.0
 10
-8.0081
 20
-16.3753
 30
0.0
 10
-7.9964
 20
-16.3753
 30
0.0
 10
-7.9964
 20
-16.3753
 30
0.0
 10
-7.9964
 20
-16.3753
 30
0.0
 10
-7.9291
 20
-16.4878
 30
0.0
 10
-7.8819
 20
-16.6017
 30
0.0
 10
-7.8541
 20
-16.7168
 30
0.0
 10
-7.8541
 20
-16.7168
 30
0.0
 10
-7.8263
 20
-16.8313
 30
0.0
 10
-7.8127
 20
-16.9451
 30
0.0
 10
-7.814
 20
-17.0583
 30
0.0
 10
-7.814
 20
-17.0583
 30
0.0
 10
-7.814
 20
-17.176
 30
0.0
 10
-7.8263
 20
-17.2885
 30
0.0
 10
-7.8502
 20
-17.3966
 30
0.0
 10
-7.8502
 20
-17.3966
 30
0.0
 10
-7.8742
 20
-17.5046
 30
0.0
 10
-7.9097
 20
-17.6042
 30
0.0
 10
-7.9563
 20
-17.6954
 30
0.0
 10
-7.9563
 20
-17.6954
 30
0.0
 10
-8.0035
 20
-17.7866
 30
0.0
 10
-8.0611
 20
-17.8661
 30
0.0
 10
-8.1296
 20
-17.9334
 30
0.0
 10
-8.1296
 20
-17.9334
 30
0.0
 10
-8.1988
 20
-18.0013
 30
0.0
 10
-8.2778
 20
-18.0543
 30
0.0
 10
-8.367
 20
-18.0918
 30
0.0
 10
-8.367
 20
-18.0918
 30
0.0
 10
-8.4563
 20
-18.1293
 30
0.0
 10
-8.5552
 20
-18.1481
 30
0.0
 10
-8.6639
 20
-18.1487
 30
0.0
 10
-8.6639
 20
-18.1487
 30
0.0
 10
-8.7693
 20
-18.1487
 30
0.0
 10
-8.8618
 20
-18.1326
 30
0.0
 10
-8.94
 20
-18.1009
 30
0.0
 10
-8.94
 20
-18.1009
 30
0.0
 10
-9.0189
 20
-18.0692
 30
0.0
 10
-9.0894
 20
-18.0226
 30
0.0
 10
-9.1528
 20
-17.9625
 30
0.0
 10
-9.1528
 20
-17.9625
 30
0.0
 10
-9.1528
 20
-17.9625
 30
0.0
 10
-8.0081
 20
-16.3753
 30
0.0
 10
-8.0081
 20
-16.3753
 30
0.0
  0
SPLINE
  5
E6
330
1F
100
AcDbEntity
  8
Ilustrace
 62
   250
100
AcDbSpline
210
0.0
220
0.0
230
1.0
 70
    11
 71
     3
 72
    36
 73
    32
 74
     0
 42
0.0000000001
 43
0.0000000001
 40
0.0
 40
0.0
 40
0.0
 40
0.0
 40
0.1111111111111111
 40
0.1111111111111111
 40
0.1111111111111111
 40
0.1111111111111111
 40
0.2222222222222222
 40
0.2222222222222222
 40
0.2222222222222222
 40
0.2222222222222222
 40
0.3333333333333333
 40
0.3333333333333333
 40
0.3333333333333333
 40
0.3333333333333333
 40
0.4444444444444444
 40
0.4444444444444444
 40
0.4444444444444444
 40
0.4444444444444444
 40
0.5555555555555556
 40
0.5555555555555556
 40
0.5555555555555556
 40
0.5555555555555556
 40
0.6666666666666666
 40
0.6666666666666666
 40
0.6666666666666666
 40
0.6666666666666666
 40
0.7777777777777778
 40
0.7777777777777778
 40
0.7777777777777778
 40
0.7777777777777778
 40
1.0
 40
1.0
 40
1.0
 40
1.0
 10
-6.4093
 20
-18.3777
 30
0.0
 10
-6.4093
 20
-18.3777
 30
0.0
 10
-6.0794
 20
-18.3777
 30
0.0
 10
-6.0794
 20
-18.3777
 30
0.0
 10
-6.0794
 20
-18.3777
 30
0.0
 10
-6.0794
 20
-18.3777
 30
0.0
 10
-6.0794
 20
-15.8553
 30
0.0
 10
-6.0794
 20
-15.8553
 30
0.0
 10
-6.0794
 20
-15.8553
 30
0.0
 10
-6.0794
 20
-15.8553
 30
0.0
 10
-6.3705
 20
-15.8553
 30
0.0
 10
-6.3705
 20
-15.8553
 30
0.0
 10
-6.3705
 20
-15.8553
 30
0.0
 10
-6.3705
 20
-15.8553
 30
0.0
 10
-6.9215
 20
-16.1502
 30
0.0
 10
-6.9215
 20
-16.1502
 30
0.0
 10
-6.9215
 20
-16.1502
 30
0.0
 10
-6.9215
 20
-16.1502
 30
0.0
 10
-6.8555
 20
-16.4102
 30
0.0
 10
-6.8555
 20
-16.4102
 30
0.0
 10
-6.8555
 20
-16.4102
 30
0.0
 10
-6.8555
 20
-16.4102
 30
0.0
 10
-6.417
 20
-16.1735
 30
0.0
 10
-6.417
 20
-16.1735
 30
0.0
 10
-6.417
 20
-16.1735
 30
0.0
 10
-6.417
 20
-16.1735
 30
0.0
 10
-6.4093
 20
-16.1735
 30
0.0
 10
-6.4093
 20
-16.1735
 30
0.0
 10
-6.4093
 20
-16.1735
 30
0.0
 10
-6.4093
 20
-16.1735
 30
0.0
 10
-6.4093
 20
-18.3777
 30
0.0
 10
-6.4093
 20
-18.3777
 30
0.0
  0
SPLINE
  5
E7
330
1F
100
AcDbEntity
  8
Ilustrace
 62
   250
100
AcDbSpline
210
0.0
220
0.0
230
1.0
 70
    11
 71
     3
 72
    56
 73
    52
 74
     0
 42
0.0000000001
 43
0.0000000001
 40
0.0
 40
0.0
 40
0.0
 40
0.0
 40
0.0714285714285714
 40
0.0714285714285714
 40
0.0714285714285714
 40
0.0714285714285714
 40
0.1428571428571428
 40
0.1428571428571428
 40
0.1428571428571428
 40
0.1428571428571428
 40
0.2142857142857143
 40
0.2142857142857143
 40
0.2142857142857143
 40
0.2142857142857143
 40
0.2857142857142857
 40
0.2857142857142857
 40
0.2857142857142857
 40
0.2857142857142857
 40
0.3571428571428572
 40
0.3571428571428572
 40
0.3571428571428572
 40
0.3571428571428572
 40
0.4285714285714285
 40
0.4285714285714285
 40
0.4285714285714285
 40
0.4285714285714285
 40
0.5
 40
0.5
 40
0.5
 40
0.5
 40
0.5714285714285714
 40
0.5714285714285714
 40
0.5714285714285714
 40
0.5714285714285714
 40
0.6428571428571429
 40
0.6428571428571429
 40
0.6428571428571429
 40
0.6428571428571429
 40
0.7142857142857143
 40
0.7142857142857143
 40
0.7142857142857143
 40
0.7142857142857143
 40
0.7857142857142857
 40
0.7857142857142857
 40
0.7857142857142857
 40
0.7857142857142857
 40
0.8571428571428571
 40
0.8571428571428571
 40
0.8571428571428571
 40
0.8571428571428571
 40
1.0
 40
1.0
 40
1.0
 40
1.0
 10
-4.3138
 20
-15.8126
 30
0.0
 10
-4.4425
 20
-15.8126
 30
0.0
 10
-4.5602
 20
-15.8411
 30
0.0
 10
-4.6676
 20
-15.898
 30
0.0
 10
-4.6676
 20
-15.898
 30
0.0
 10
-4.7749
 20
-15.9549
 30
0.0
 10
-4.8674
 20
-16.0383
 30
0.0
 10
-4.9463
 20
-16.1496
 30
0.0
 10
-4.9463
 20
-16.1496
 30
0.0
 10
-5.0252
 20
-16.2608
 30
0.0
 10
-5.086
 20
-16.3979
 30
0.0
 10
-5.1294
 20
-16.5609
 30
0.0
 10
-5.1294
 20
-16.5609
 30
0.0
 10
-5.1721
 20
-16.7239
 30
0.0
 10
-5.1941
 20
-16.9115
 30
0.0
 10
-5.1947
 20
-17.1243
 30
0.0
 10
-5.1947
 20
-17.1243
 30
0.0
 10
-5.1908
 20
-17.403
 30
0.0
 10
-5.154
 20
-17.6384
 30
0.0
 10
-5.0835
 20
-17.8312
 30
0.0
 10
-5.0835
 20
-17.8312
 30
0.0
 10
-5.013
 20
-18.0239
 30
0.0
 10
-4.9153
 20
-18.1701
 30
0.0
 10
-4.7911
 20
-18.2697
 30
0.0
 10
-4.7911
 20
-18.2697
 30
0.0
 10
-4.6669
 20
-18.3693
 30
0.0
 10
-4.5221
 20
-18.4197
 30
0.0
 10
-4.3565
 20
-18.4204
 30
0.0
 10
-4.3565
 20
-18.4204
 30
0.0
 10
-4.1709
 20
-18.4197
 30
0.0
 10
-4.0131
 20
-18.368
 30
0.0
 10
-3.8824
 20
-18.2658
 30
0.0
 10
-3.8824
 20
-18.2658
 30
0.0
 10
-3.7518
 20
-18.1636
 30
0.0
 10
-3.6522
 20
-18.0136
 30
0.0
 10
-3.5836
 20
-17.8157
 30
0.0
 10
-3.5836
 20
-17.8157
 30
0.0
 10
-3.5144
 20
-17.6177
 30
0.0
 10
-3.4801
 20
-17.3759
 30
0.0
 10
-3.4795
 20
-17.0893
 30
0.0
 10
-3.4795
 20
-17.0893
 30
0.0
 10
-3.4801
 20
-16.8209
 30
0.0
 10
-3.5131
 20
-16.5913
 30
0.0
 10
-3.5784
 20
-16.4012
 30
0.0
 10
-3.5784
 20
-16.4012
 30
0.0
 10
-3.6438
 20
-16.211
 30
0.0
 10
-3.7388
 20
-16.0655
 30
0.0
 10
-3.863
 20
-15.9653
 30
0.0
 10
-3.863
 20
-15.9653
 30
0.0
 10
-3.9872
 20
-15.8644
 30
0.0
 10
-4.1372
 20
-15.8133
 30
0.0
 10
-4.3138
 20
-15.8126
 30
0.0
  0
SPLINE
  5
E8
330
1F
100
AcDbEntity
  8
Ilustrace
 62
   250
100
AcDbSpline
210
0.0
220
0.0
230
1.0
 70
    11
 71
     3
 72
    56
 73
    52
 74
     0
 42
0.0000000001
 43
0.0000000001
 40
0.0
 40
0.0
 40
0.0
 40
0.0
 40
0.0714285714285714
 40
0.0714285714285714
 40
0.0714285714285714
 40
0.0714285714285714
 40
0.1428571428571428
 40
0.1428571428571428
 40
0.1428571428571428
 40
0.1428571428571428
 40
0.2142857142857143
 40
0.2142857142857143
 40
0.2142857142857143
 40
0.2142857142857143
 40
0.2857142857142857
 40
0.2857142857142857
 40
0.2857142857142857
 40
0.2857142857142857
 40
0.3571428571428572
 40
0.3571428571428572
 40
0.3571428571428572
 40
0.3571428571428572
 40
0.4285714285714285
 40
0.4285714285714285
 40
0.4285714285714285
 40
0.4285714285714285
 40
0.5
 40
0.5
 40
0.5
 40
0.5
 40
0.5714285714285714
 40
0.5714285714285714
 40
0.5714285714285714
 40
0.5714285714285714
 40
0.6428571428571429
 40
0.6428571428571429
 40
0.6428571428571429
 40
0.6428571428571429
 40
0.7142857142857143
 40
0.7142857142857143
 40
0.7142857142857143
 40
0.7142857142857143
 40
0.7857142857142857
 40
0.7857142857142857
 40
0.7857142857142857
 40
0.7857142857142857
 40
0.8571428571428571
 40
0.8571428571428571
 40
0.8571428571428571
 40
0.8571428571428571
 40
1.0
 40
1.0
 40
1.0
 40
1.0
 10
-4.3371
 20
-16.0765
 30
0.0
 10
-4.2478
 20
-16.0772
 30
0.0
 10
-4.1709
 20
-16.1011
 30
0.0
 10
-4.1062
 20
-16.1496
 30
0.0
 10
-4.1062
 20
-16.1496
 30
0.0
 10
-4.0415
 20
-16.1981
 30
0.0
 10
-3.9885
 20
-16.2673
 30
0.0
 10
-3.9471
 20
-16.3578
 30
0.0
 10
-3.9471
 20
-16.3578
 30
0.0
 10
-3.9057
 20
-16.4477
 30
0.0
 10
-3.8746
 20
-16.5564
 30
0.0
 10
-3.8546
 20
-16.6819
 30
0.0
 10
-3.8546
 20
-16.6819
 30
0.0
 10
-3.8345
 20
-16.808
 30
0.0
 10
-3.8248
 20
-16.949
 30
0.0
 10
-3.8248
 20
-17.1049
 30
0.0
 10
-3.8248
 20
-17.1049
 30
0.0
 10
-3.8248
 20
-17.3209
 30
0.0
 10
-3.8436
 20
-17.5072
 30
0.0
 10
-3.8811
 20
-17.6637
 30
0.0
 10
-3.8811
 20
-17.6637
 30
0.0
 10
-3.918
 20
-17.8208
 30
0.0
 10
-3.9749
 20
-17.9418
 30
0.0
 10
-4.0506
 20
-18.0272
 30
0.0
 10
-4.0506
 20
-18.0272
 30
0.0
 10
-4.1262
 20
-18.1125
 30
0.0
 10
-4.222
 20
-18.1552
 30
0.0
 10
-4.3371
 20
-18.1565
 30
0.0
 10
-4.3371
 20
-18.1565
 30
0.0
 10
-4.4412
 20
-18.1559
 30
0.0
 10
-4.5311
 20
-18.1158
 30
0.0
 10
-4.6081
 20
-18.0356
 30
0.0
 10
-4.6081
 20
-18.0356
 30
0.0
 10
-4.6844
 20
-17.9554
 30
0.0
 10
-4.7433
 20
-17.8389
 30
0.0
 10
-4.7853
 20
-17.6863
 30
0.0
 10
-4.7853
 20
-17.6863
 30
0.0
 10
-4.8273
 20
-17.533
 30
0.0
 10
-4.8487
 20
-17.3474
 30
0.0
 10
-4.8493
 20
-17.1281
 30
0.0
 10
-4.8493
 20
-17.1281
 30
0.0
 10
-4.8487
 20
-16.8985
 30
0.0
 10
-4.826
 20
-16.7065
 30
0.0
 10
-4.7821
 20
-16.5499
 30
0.0
 10
-4.7821
 20
-16.5499
 30
0.0
 10
-4.7381
 20
-16.3941
 30
0.0
 10
-4.6779
 20
-16.2764
 30
0.0
 10
-4.601
 20
-16.1962
 30
0.0
 10
-4.601
 20
-16.1962
 30
0.0
 10
-4.524
 20
-16.1166
 30
0.0
 10
-4.436
 20
-16.0765
 30
0.0
 10
-4.3371
 20
-16.0765
 30
0.0
  0
SPLINE
  5
E9
330
1F
100
AcDbEntity
  8
Ilustrace
 62
   250
100
AcDbSpline
210
0.0
220
0.0
230
1.0
 70
    11
 71
     3
 72
   132
 73
   128
 74
     0
 42
0.0000000001
 43
0.0000000001
 40
0.0
 40
0.0
 40
0.0
 40
0.0
 40
0.0303030303030303
 40
0.0303030303030303
 40
0.0303030303030303
 40
0.0303030303030303
 40
0.0606060606060606
 40
0.0606060606060606
 40
0.0606060606060606
 40
0.0606060606060606
 40
0.0909090909090909
 40
0.0909090909090909
 40
0.0909090909090909
 40
0.0909090909090909
 40
0.1212121212121212
 40
0.1212121212121212
 40
0.1212121212121212
 40
0.1212121212121212
 40
0.1515151515151515
 40
0.1515151515151515
 40
0.1515151515151515
 40
0.1515151515151515
 40
0.1818181818181818
 40
0.1818181818181818
 40
0.1818181818181818
 40
0.1818181818181818
 40
0.2121212121212121
 40
0.2121212121212121
 40
0.2121212121212121
 40
0.2121212121212121
 40
0.2424242424242424
 40
0.2424242424242424
 40
0.2424242424242424
 40
0.2424242424242424
 40
0.2727272727272727
 40
0.2727272727272727
 40
0.2727272727272727
 40
0.2727272727272727
 40
0.303030303030303
 40
0.303030303030303
 40
0.303030303030303
 40
0.303030303030303
 40
0.3333333333333333
 40
0.3333333333333333
 40
0.3333333333333333
 40
0.3333333333333333
 40
0.3636363636363636
 40
0.3636363636363636
 40
0.3636363636363636
 40
0.3636363636363636
 40
0.3939393939393939
 40
0.3939393939393939
 40
0.3939393939393939
 40
0.3939393939393939
 40
0.4242424242424243
 40
0.4242424242424243
 40
0.4242424242424243
 40
0.4242424242424243
 40
0.4545454545454545
 40
0.4545454545454545
 40
0.4545454545454545
 40
0.4545454545454545
 40
0.4848484848484849
 40
0.4848484848484849
 40
0.4848484848484849
 40
0.4848484848484849
 40
0.5151515151515151
 40
0.5151515151515151
 40
0.5151515151515151
 40
0.5151515151515151
 40
0.5454545454545454
 40
0.5454545454545454
 40
0.5454545454545454
 40
0.5454545454545454
 40
0.5757575757575758
 40
0.5757575757575758
 40
0.5757575757575758
 40
0.5757575757575758
 40
0.6060606060606061
 40
0.6060606060606061
 40
0.6060606060606061
 40
0.6060606060606061
 40
0.6363636363636364
 40
0.6363636363636364
 40
0.6363636363636364
 40
0.6363636363636364
 40
0.6666666666666666
 40
0.6666666666666666
 40
0.6666666666666666
 40
0.6666666666666666
 40
0.696969696969697
 40
0.696969696969697
 40
0.696969696969697
 40
0.696969696969697
 40
0.7272727272727273
 40
0.7272727272727273
 40
0.7272727272727273
 40
0.7272727272727273
 40
0.7575757575757576
 40
0.7575757575757576
 40
0.7575757575757576
 40
0.7575757575757576
 40
0.7878787878787878
 40
0.7878787878787878
 40
0.7878787878787878
 40
0.7878787878787878
 40
0.8181818181818182
 40
0.8181818181818182
 40
0.8181818181818182
 40
0.8181818181818182
 40
0.8484848484848485
 40
0.8484848484848485
 40
0.8484848484848485
 40
0.8484848484848485
 40
0.8787878787878788
 40
0.8787878787878788
 40
0.8787878787878788
 40
0.8787878787878788
 40
0.9090909090909091
 40
0.9090909090909091
 40
0.9090909090909091
 40
0.9090909090909091
 40
0.9393939393939394
 40
0.9393939393939394
 40
0.9393939393939394
 40
0.9393939393939394
 40
1.0
 40
1.0
 40
1.0
 40
1.0
 10
-1.6634
 20
-15.8553
 30
0.0
 10
-1.6634
 20
-15.8553
 30
0.0
 10
-2.8703
 20
-15.8553
 30
0.0
 10
-2.8703
 20
-15.8553
 30
0.0
 10
-2.8703
 20
-15.8553
 30
0.0
 10
-2.8703
 20
-15.8553
 30
0.0
 10
-3.0333
 20
-17.0661
 30
0.0
 10
-3.0333
 20
-17.0661
 30
0.0
 10
-3.0333
 20
-17.0661
 30
0.0
 10
-2.9867
 20
-17.0596
 30
0.0
 10
-2.9349
 20
-17.0544
 30
0.0
 10
-2.8767
 20
-17.0499
 30
0.0
 10
-2.8767
 20
-17.0499
 30
0.0
 10
-2.8192
 20
-17.0454
 30
0.0
 10
-2.7532
 20
-17.0428
 30
0.0
 10
-2.6801
 20
-17.0428
 30
0.0
 10
-2.6801
 20
-17.0428
 30
0.0
 10
-2.5133
 20
-17.0434
 30
0.0
 10
-2.3768
 20
-17.0674
 30
0.0
 10
-2.2707
 20
-17.1139
 30
0.0
 10
-2.2707
 20
-17.1139
 30
0.0
 10
-2.164
 20
-17.1611
 30
0.0
 10
-2.0851
 20
-17.2258
 30
0.0
 10
-2.034
 20
-17.3086
 30
0.0
 10
-2.034
 20
-17.3086
 30
0.0
 10
-1.9829
 20
-17.392
 30
0.0
 10
-1.9577
 20
-17.4884
 30
0.0
 10
-1.9583
 20
-17.5977
 30
0.0
 10
-1.9583
 20
-17.5977
 30
0.0
 10
-1.9577
 20
-17.6824
 30
0.0
 10
-1.9732
 20
-17.7581
 30
0.0
 10
-2.0049
 20
-17.8254
 30
0.0
 10
-2.0049
 20
-17.8254
 30
0.0
 10
-2.0359
 20
-17.8933
 30
0.0
 10
-2.0793
 20
-17.9502
 30
0.0
 10
-2.1342
 20
-17.998
 30
0.0
 10
-2.1342
 20
-17.998
 30
0.0
 10
-2.1892
 20
-18.0453
 30
0.0
 10
-2.2526
 20
-18.0815
 30
0.0
 10
-2.3244
 20
-18.1067
 30
0.0
 10
-2.3244
 20
-18.1067
 30
0.0
 10
-2.3962
 20
-18.1319
 30
0.0
 10
-2.4719
 20
-18.1449
 30
0.0
 10
-2.5521
 20
-18.1449
 30
0.0
 10
-2.5521
 20
-18.1449
 30
0.0
 10
-2.6303
 20
-18.1442
 30
0.0
 10
-2.704
 20
-18.1371
 30
0.0
 10
-2.7733
 20
-18.1222
 30
0.0
 10
-2.7733
 20
-18.1222
 30
0.0
 10
-2.8425
 20
-18.108
 30
0.0
 10
-2.9045
 20
-18.0905
 30
0.0
 10
-2.9595
 20
-18.0692
 30
0.0
 10
-2.9595
 20
-18.0692
 30
0.0
 10
-3.0145
 20
-18.0478
 30
0.0
 10
-3.0598
 20
-18.0265
 30
0.0
 10
-3.0953
 20
-18.0052
 30
0.0
 10
-3.0953
 20
-18.0052
 30
0.0
 10
-3.0953
 20
-18.0052
 30
0.0
 10
-3.1807
 20
-18.2652
 30
0.0
 10
-3.1807
 20
-18.2652
 30
0.0
 10
-3.1807
 20
-18.2652
 30
0.0
 10
-3.1387
 20
-18.2917
 30
0.0
 10
-3.0863
 20
-18.3163
 30
0.0
 10
-3.0236
 20
-18.3402
 30
0.0
 10
-3.0236
 20
-18.3402
 30
0.0
 10
-2.9608
 20
-18.3635
 30
0.0
 10
-2.8897
 20
-18.3822
 30
0.0
 10
-2.8101
 20
-18.3971
 30
0.0
 10
-2.8101
 20
-18.3971
 30
0.0
 10
-2.7299
 20
-18.412
 30
0.0
 10
-2.6439
 20
-18.4197
 30
0.0
 10
-2.5521
 20
-18.4204
 30
0.0
 10
-2.5521
 20
-18.4204
 30
0.0
 10
-2.4143
 20
-18.4197
 30
0.0
 10
-2.2888
 20
-18.3977
 30
0.0
 10
-2.1743
 20
-18.3551
 30
0.0
 10
-2.1743
 20
-18.3551
 30
0.0
 10
-2.0599
 20
-18.3124
 30
0.0
 10
-1.9609
 20
-18.2522
 30
0.0
 10
-1.8775
 20
-18.1746
 30
0.0
 10
-1.8775
 20
-18.1746
 30
0.0
 10
-1.7934
 20
-18.097
 30
0.0
 10
-1.7287
 20
-18.0058
 30
0.0
 10
-1.6828
 20
-17.9017
 30
0.0
 10
-1.6828
 20
-17.9017
 30
0.0
 10
-1.6369
 20
-17.7969
 30
0.0
 10
-1.6136
 20
-17.6824
 30
0.0
 10
-1.613
 20
-17.5589
 30
0.0
 10
-1.613
 20
-17.5589
 30
0.0
 10
-1.6136
 20
-17.4541
 30
0.0
 10
-1.6304
 20
-17.3597
 30
0.0
 10
-1.6628
 20
-17.2763
 30
0.0
 10
-1.6628
 20
-17.2763
 30
0.0
 10
-1.6951
 20
-17.1928
 30
0.0
 10
-1.7378
 20
-17.121
 30
0.0
 10
-1.7921
 20
-17.0602
 30
0.0
 10
-1.7921
 20
-17.0602
 30
0.0
 10
-1.8464
 20
-16.9994
 30
0.0
 10
-1.9072
 20
-16.9509
 30
0.0
 10
-1.9738
 20
-16.9147
 30
0.0
 10
-1.9738
 20
-16.9147
 30
0.0
 10
-2.0521
 20
-16.8669
 30
0.0
 10
-2.1368
 20
-16.8319
 30
0.0
 10
-2.2293
 20
-16.8106
 30
0.0
 10
-2.2293
 20
-16.8106
 30
0.0
 10
-2.3218
 20
-16.7892
 30
0.0
 10
-2.4175
 20
-16.7782
 30
0.0
 10
-2.5171
 20
-16.7789
 30
0.0
 10
-2.5171
 20
-16.7789
 30
0.0
 10
-2.5624
 20
-16.7789
 30
0.0
 10
-2.6012
 20
-16.7795
 30
0.0
 10
-2.6329
 20
-16.7815
 30
0.0
 10
-2.6329
 20
-16.7815
 30
0.0
 10
-2.6646
 20
-16.7834
 30
0.0
 10
-2.6943
 20
-16.7867
 30
0.0
 10
-2.7228
 20
-16.7905
 30
0.0
 10
-2.7228
 20
-16.7905
 30
0.0
 10
-2.7228
 20
-16.7905
 30
0.0
 10
-2.6258
 20
-16.1425
 30
0.0
 10
-2.6258
 20
-16.1425
 30
0.0
 10
-2.6258
 20
-16.1425
 30
0.0
 10
-2.6258
 20
-16.1425
 30
0.0
 10
-1.6634
 20
-16.1425
 30
0.0
 10
-1.6634
 20
-16.1425
 30
0.0
 10
-1.6634
 20
-16.1425
 30
0.0
 10
-1.6634
 20
-16.1425
 30
0.0
 10
-1.6634
 20
-15.8553
 30
0.0
 10
-1.6634
 20
-15.8553
 30
0.0
  0
SPLINE
  5
EA
330
1F
100
AcDbEntity
  8
Ilustrace
 62
   250
370
     9
100
AcDbSpline
210
0.0
220
0.0
230
1.0
 70
    11
 71
     3
 72
    32
 73
    28
 74
     0
 42
0.0000000001
 43
0.0000000001
 40
0.0
 40
0.0
 40
0.0
 40
0.0
 40
0.125
 40
0.125
 40
0.125
 40
0.125
 40
0.25
 40
0.25
 40
0.25
 40
0.25
 40
0.375
 40
0.375
 40
0.375
 40
0.375
 40
0.5
 40
0.5
 40
0.5
 40
0.5
 40
0.625
 40
0.625
 40
0.625
 40
0.625
 40
0.75
 40
0.75
 40
0.75
 40
0.75
 40
1.0
 40
1.0
 40
1.0
 40
1.0
 10
2.8958
 20
-19.3605
 30
0.0
 10
2.8958
 20
-19.3605
 30
0.0
 10
2.8958
 20
-19.3605
 30
0.0
 10
2.8958
 20
-19.3605
 30
0.0
 10
2.8958
 20
-19.3605
 30
0.0
 10
2.8958
 20
-19.3605
 30
0.0
 10
2.8958
 20
-19.3605
 30
0.0
 10
2.8958
 20
-19.3605
 30
0.0
 10
2.8958
 20
-19.3605
 30
0.0
 10
2.8958
 20
-19.3605
 30
0.0
 10
4.1686
 20
-18.9171
 30
0.0
 10
4.1686
 20
-18.9171
 30
0.0
 10
4.1686
 20
-18.9171
 30
0.0
 10
4.1686
 20
-18.9171
 30
0.0
 10
2.8958
 20
-18.4737
 30
0.0
 10
2.8958
 20
-18.4737
 30
0.0
 10
2.8958
 20
-18.4737
 30
0.0
 10
2.8958
 20
-18.4737
 30
0.0
 10
2.8958
 20
-18.4737
 30
0.0
 10
2.8958
 20
-18.4737
 30
0.0
 10
2.8958
 20
-18.4737
 30
0.0
 10
2.8958
 20
-18.4737
 30
0.0
 10
2.8958
 20
-18.4737
 30
0.0
 10
2.8958
 20
-18.4737
 30
0.0
 10
2.8958
 20
-18.4737
 30
0.0
 10
2.8958
 20
-18.4737
 30
0.0
 10
2.8958
 20
-19.3605
 30
0.0
 10
2.8958
 20
-19.3605
 30
0.0
  0
SPLINE
  5
EB
330
1F
100
AcDbEntity
  8
Ilustrace
 62
   250
370
     9
100
AcDbSpline
210
0.0
220
0.0
230
1.0
 70
    11
 71
     3
 72
    32
 73
    28
 74
     0
 42
0.0000000001
 43
0.0000000001
 40
0.0
 40
0.0
 40
0.0
 40
0.0
 40
0.125
 40
0.125
 40
0.125
 40
0.125
 40
0.25
 40
0.25
 40
0.25
 40
0.25
 40
0.375
 40
0.375
 40
0.375
 40
0.375
 40
0.5
 40
0.5
 40
0.5
 40
0.5
 40
0.625
 40
0.625
 40
0.625
 40
0.625
 40
0.75
 40
0.75
 40
0.75
 40
0.75
 40
1.0
 40
1.0
 40
1.0
 40
1.0
 10
-13.3922
 20
-19.3726
 30
0.0
 10
-13.3922
 20
-19.3726
 30
0.0
 10
-13.3922
 20
-19.3726
 30
0.0
 10
-13.3922
 20
-19.3726
 30
0.0
 10
-13.3922
 20
-19.3726
 30
0.0
 10
-13.3922
 20
-19.3726
 30
0.0
 10
-13.3922
 20
-19.3726
 30
0.0
 10
-13.3922
 20
-19.3726
 30
0.0
 10
-13.3922
 20
-19.3726
 30
0.0
 10
-13.3922
 20
-19.3726
 30
0.0
 10
-14.6668
 20
-18.9292
 30
0.0
 10
-14.6668
 20
-18.9292
 30
0.0
 10
-14.6668
 20
-18.9292
 30
0.0
 10
-14.6668
 20
-18.9292
 30
0.0
 10
-13.3922
 20
-18.4858
 30
0.0
 10
-13.3922
 20
-18.4858
 30
0.0
 10
-13.3922
 20
-18.4858
 30
0.0
 10
-13.3922
 20
-18.4858
 30
0.0
 10
-13.3922
 20
-18.4858
 30
0.0
 10
-13.3922
 20
-18.4858
 30
0.0
 10
-13.3922
 20
-18.4858
 30
0.0
 10
-13.3922
 20
-18.4858
 30
0.0
 10
-13.3922
 20
-18.4858
 30
0.0
 10
-13.3922
 20
-18.4858
 30
0.0
 10
-13.3922
 20
-18.4858
 30
0.0
 10
-13.3922
 20
-18.4858
 30
0.0
 10
-13.3922
 20
-19.3726
 30
0.0
 10
-13.3922
 20
-19.3726
 30
0.0
  0
SPLINE
  5
EC
330
1F
100
AcDbEntity
  8
Ilustrace
 62
   250
370
    15
100
AcDbSpline
210
0.0
220
0.0
230
1.0
 70
    24
 71
     3
 72
     8
 73
     4
 74
     0
 42
0.0000000001
 43
0.0000000001
 40
0.0
 40
0.0
 40
0.0
 40
0.0
 40
1.0
 40
1.0
 40
1.0
 40
1.0
 10
-15.5136
 20
-22.939
 30
0.0
 10
-15.5136
 20
-22.939
 30
0.0
 10
4.9748
 20
-22.939
 30
0.0
 10
4.9748
 20
-22.939
 30
0.0
  0
SPLINE
  5
ED
330
1F
100
AcDbEntity
  8
Ilustrace
 62
   250
100
AcDbSpline
210
0.0
220
0.0
230
1.0
 70
    11
 71
     3
 72
   104
 73
   100
 74
     0
 42
0.0000000001
 43
0.0000000001
 40
0.0
 40
0.0
 40
0.0
 40
0.0
 40
0.0384615384615385
 40
0.0384615384615385
 40
0.0384615384615385
 40
0.0384615384615385
 40
0.0769230769230769
 40
0.0769230769230769
 40
0.0769230769230769
 40
0.0769230769230769
 40
0.1153846153846154
 40
0.1153846153846154
 40
0.1153846153846154
 40
0.1153846153846154
 40
0.1538461538461539
 40
0.1538461538461539
 40
0.1538461538461539
 40
0.1538461538461539
 40
0.1923076923076923
 40
0.1923076923076923
 40
0.1923076923076923
 40
0.1923076923076923
 40
0.2307692307692308
 40
0.2307692307692308
 40
0.2307692307692308
 40
0.2307692307692308
 40
0.2692307692307692
 40
0.2692307692307692
 40
0.2692307692307692
 40
0.2692307692307692
 40
0.3076923076923077
 40
0.3076923076923077
 40
0.3076923076923077
 40
0.3076923076923077
 40
0.3461538461538461
 40
0.3461538461538461
 40
0.3461538461538461
 40
0.3461538461538461
 40
0.3846153846153846
 40
0.3846153846153846
 40
0.3846153846153846
 40
0.3846153846153846
 40
0.4230769230769231
 40
0.4230769230769231
 40
0.4230769230769231
 40
0.4230769230769231
 40
0.4615384615384616
 40
0.4615384615384616
 40
0.4615384615384616
 40
0.4615384615384616
 40
0.5
 40
0.5
 40
0.5
 40
0.5
 40
0.5384615384615384
 40
0.5384615384615384
 40
0.5384615384615384
 40
0.5384615384615384
 40
0.5769230769230769
 40
0.5769230769230769
 40
0.5769230769230769
 40
0.5769230769230769
 40
0.6153846153846154
 40
0.6153846153846154
 40
0.6153846153846154
 40
0.6153846153846154
 40
0.6538461538461539
 40
0.6538461538461539
 40
0.6538461538461539
 40
0.6538461538461539
 40
0.6923076923076923
 40
0.6923076923076923
 40
0.6923076923076923
 40
0.6923076923076923
 40
0.7307692307692307
 40
0.7307692307692307
 40
0.7307692307692307
 40
0.7307692307692307
 40
0.7692307692307693
 40
0.7692307692307693
 40
0.7692307692307693
 40
0.7692307692307693
 40
0.8076923076923077
 40
0.8076923076923077
 40
0.8076923076923077
 40
0.8076923076923077
 40
0.8461538461538461
 40
0.8461538461538461
 40
0.8461538461538461
 40
0.8461538461538461
 40
0.8846153846153846
 40
0.8846153846153846
 40
0.8846153846153846
 40
0.8846153846153846
 40
0.9230769230769231
 40
0.9230769230769231
 40
0.9230769230769231
 40
0.9230769230769231
 40
1.0
 40
1.0
 40
1.0
 40
1.0
 10
-9.2997
 20
-22.7099
 30
0.0
 10
-9.2997
 20
-22.7099
 30
0.0
 10
-9.0552
 20
-22.3761
 30
0.0
 10
-9.0552
 20
-22.3761
 30
0.0
 10
-9.0552
 20
-22.3761
 30
0.0
 10
-8.9614
 20
-22.444
 30
0.0
 10
-8.8586
 20
-22.4964
 30
0.0
 10
-8.7473
 20
-22.532
 30
0.0
 10
-8.7473
 20
-22.532
 30
0.0
 10
-8.6354
 20
-22.5676
 30
0.0
 10
-8.5184
 20
-22.5857
 30
0.0
 10
-8.3955
 20
-22.5857
 30
0.0
 10
-8.3955
 20
-22.5857
 30
0.0
 10
-8.2694
 20
-22.5857
 30
0.0
 10
-8.1471
 20
-22.5669
 30
0.0
 10
-8.0301
 20
-22.5301
 30
0.0
 10
-8.0301
 20
-22.5301
 30
0.0
 10
-7.913
 20
-22.4932
 30
0.0
 10
-7.8043
 20
-22.4382
 30
0.0
 10
-7.7047
 20
-22.3645
 30
0.0
 10
-7.7047
 20
-22.3645
 30
0.0
 10
-7.6045
 20
-22.2914
 30
0.0
 10
-7.5172
 20
-22.1996
 30
0.0
 10
-7.4422
 20
-22.0896
 30
0.0
 10
-7.4422
 20
-22.0896
 30
0.0
 10
-7.3678
 20
-21.9797
 30
0.0
 10
-7.3096
 20
-21.8516
 30
0.0
 10
-7.2675
 20
-21.7048
 30
0.0
 10
-7.2675
 20
-21.7048
 30
0.0
 10
-7.2261
 20
-21.5586
 30
0.0
 10
-7.2048
 20
-21.3943
 30
0.0
 10
-7.2041
 20
-21.212
 30
0.0
 10
-7.2041
 20
-21.212
 30
0.0
 10
-7.2041
 20
-21.0832
 30
0.0
 10
-7.2171
 20
-20.961
 30
0.0
 10
-7.2436
 20
-20.8446
 30
0.0
 10
-7.2436
 20
-20.8446
 30
0.0
 10
-7.2695
 20
-20.7275
 30
0.0
 10
-7.3076
 20
-20.6189
 30
0.0
 10
-7.3574
 20
-20.5186
 30
0.0
 10
-7.3574
 20
-20.5186
 30
0.0
 10
-7.4079
 20
-20.4184
 30
0.0
 10
-7.4693
 20
-20.3291
 30
0.0
 10
-7.5418
 20
-20.2496
 30
0.0
 10
-7.5418
 20
-20.2496
 30
0.0
 10
-7.5418
 20
-20.2496
 30
0.0
 10
-7.3012
 20
-19.9158
 30
0.0
 10
-7.3012
 20
-19.9158
 30
0.0
 10
-7.3012
 20
-19.9158
 30
0.0
 10
-7.3012
 20
-19.9158
 30
0.0
 10
-7.5068
 20
-19.7761
 30
0.0
 10
-7.5068
 20
-19.7761
 30
0.0
 10
-7.5068
 20
-19.7761
 30
0.0
 10
-7.5068
 20
-19.7761
 30
0.0
 10
-7.7358
 20
-20.0905
 30
0.0
 10
-7.7358
 20
-20.0905
 30
0.0
 10
-7.7358
 20
-20.0905
 30
0.0
 10
-7.8296
 20
-20.0206
 30
0.0
 10
-7.9311
 20
-19.9682
 30
0.0
 10
-8.0411
 20
-19.9333
 30
0.0
 10
-8.0411
 20
-19.9333
 30
0.0
 10
-8.1517
 20
-19.8984
 30
0.0
 10
-8.2668
 20
-19.8809
 30
0.0
 10
-8.3877
 20
-19.8809
 30
0.0
 10
-8.3877
 20
-19.8809
 30
0.0
 10
-8.5604
 20
-19.8816
 30
0.0
 10
-8.7195
 20
-19.9139
 30
0.0
 10
-8.8663
 20
-19.9779
 30
0.0
 10
-8.8663
 20
-19.9779
 30
0.0
 10
-9.0125
 20
-20.042
 30
0.0
 10
-9.1399
 20
-20.1344
 30
0.0
 10
-9.2486
 20
-20.2541
 30
0.0
 10
-9.2486
 20
-20.2541
 30
0.0
 10
-9.3579
 20
-20.3737
 30
0.0
 10
-9.442
 20
-20.5173
 30
0.0
 10
-9.5028
 20
-20.6848
 30
0.0
 10
-9.5028
 20
-20.6848
 30
0.0
 10
-9.5629
 20
-20.8524
 30
0.0
 10
-9.594
 20
-21.0393
 30
0.0
 10
-9.5946
 20
-21.2469
 30
0.0
 10
-9.5946
 20
-21.2469
 30
0.0
 10
-9.5946
 20
-21.3775
 30
0.0
 10
-9.5804
 20
-21.5024
 30
0.0
 10
-9.5532
 20
-21.6201
 30
0.0
 10
-9.5532
 20
-21.6201
 30
0.0
 10
-9.526
 20
-21.7378
 30
0.0
 10
-9.4866
 20
-21.8471
 30
0.0
 10
-9.4355
 20
-21.9473
 30
0.0
 10
-9.4355
 20
-21.9473
 30
0.0
 10
-9.3838
 20
-22.0476
 30
0.0
 10
-9.3217
 20
-22.1375
 30
0.0
 10
-9.2492
 20
-22.217
 30
0.0
 10
-9.2492
 20
-22.217
 30
0.0
 10
-9.2492
 20
-22.217
 30
0.0
 10
-9.4898
 20
-22.5546
 30
0.0
 10
-9.4898
 20
-22.5546
 30
0.0
 10
-9.4898
 20
-22.5546
 30
0.0
 10
-9.4898
 20
-22.5546
 30
0.0
 10
-9.2997
 20
-22.7099
 30
0.0
 10
-9.2997
 20
-22.7099
 30
0.0
  0
SPLINE
  5
EE
330
1F
100
AcDbEntity
  8
Ilustrace
 62
   250
100
AcDbSpline
210
0.0
220
0.0
230
1.0
 70
    11
 71
     3
 72
    52
 73
    48
 74
     0
 42
0.0000000001
 43
0.0000000001
 40
0.0
 40
0.0
 40
0.0
 40
0.0
 40
0.0769230769230769
 40
0.0769230769230769
 40
0.0769230769230769
 40
0.0769230769230769
 40
0.1538461538461539
 40
0.1538461538461539
 40
0.1538461538461539
 40
0.1538461538461539
 40
0.2307692307692308
 40
0.2307692307692308
 40
0.2307692307692308
 40
0.2307692307692308
 40
0.3076923076923077
 40
0.3076923076923077
 40
0.3076923076923077
 40
0.3076923076923077
 40
0.3846153846153846
 40
0.3846153846153846
 40
0.3846153846153846
 40
0.3846153846153846
 40
0.4615384615384616
 40
0.4615384615384616
 40
0.4615384615384616
 40
0.4615384615384616
 40
0.5384615384615384
 40
0.5384615384615384
 40
0.5384615384615384
 40
0.5384615384615384
 40
0.6153846153846154
 40
0.6153846153846154
 40
0.6153846153846154
 40
0.6153846153846154
 40
0.6923076923076923
 40
0.6923076923076923
 40
0.6923076923076923
 40
0.6923076923076923
 40
0.7692307692307693
 40
0.7692307692307693
 40
0.7692307692307693
 40
0.7692307692307693
 40
0.8461538461538461
 40
0.8461538461538461
 40
0.8461538461538461
 40
0.8461538461538461
 40
1.0
 40
1.0
 40
1.0
 40
1.0
 10
-9.0513
 20
-21.9299
 30
0.0
 10
-9.0513
 20
-21.9299
 30
0.0
 10
-9.0591
 20
-21.9337
 30
0.0
 10
-9.0591
 20
-21.9337
 30
0.0
 10
-9.0591
 20
-21.9337
 30
0.0
 10
-9.0979
 20
-21.8671
 30
0.0
 10
-9.1315
 20
-21.7979
 30
0.0
 10
-9.16
 20
-21.7268
 30
0.0
 10
-9.16
 20
-21.7268
 30
0.0
 10
-9.1884
 20
-21.655
 30
0.0
 10
-9.2104
 20
-21.5793
 30
0.0
 10
-9.2259
 20
-21.4978
 30
0.0
 10
-9.2259
 20
-21.4978
 30
0.0
 10
-9.2415
 20
-21.417
 30
0.0
 10
-9.2492
 20
-21.3277
 30
0.0
 10
-9.2492
 20
-21.2314
 30
0.0
 10
-9.2492
 20
-21.2314
 30
0.0
 10
-9.2492
 20
-21.1201
 30
0.0
 10
-9.2376
 20
-21.0128
 30
0.0
 10
-9.2149
 20
-20.9073
 30
0.0
 10
-9.2149
 20
-20.9073
 30
0.0
 10
-9.1917
 20
-20.8026
 30
0.0
 10
-9.1574
 20
-20.7042
 30
0.0
 10
-9.1121
 20
-20.6137
 30
0.0
 10
-9.1121
 20
-20.6137
 30
0.0
 10
-9.0662
 20
-20.5225
 30
0.0
 10
-9.0093
 20
-20.4423
 30
0.0
 10
-8.9407
 20
-20.3737
 30
0.0
 10
-8.9407
 20
-20.3737
 30
0.0
 10
-8.8722
 20
-20.3045
 30
0.0
 10
-8.7926
 20
-20.2509
 30
0.0
 10
-8.7021
 20
-20.2121
 30
0.0
 10
-8.7021
 20
-20.2121
 30
0.0
 10
-8.6109
 20
-20.1726
 30
0.0
 10
-8.5087
 20
-20.1532
 30
0.0
 10
-8.3955
 20
-20.1526
 30
0.0
 10
-8.3955
 20
-20.1526
 30
0.0
 10
-8.2965
 20
-20.1532
 30
0.0
 10
-8.206
 20
-20.1694
 30
0.0
 10
-8.1245
 20
-20.2017
 30
0.0
 10
-8.1245
 20
-20.2017
 30
0.0
 10
-8.0424
 20
-20.2334
 30
0.0
 10
-7.9686
 20
-20.278
 30
0.0
 10
-7.9027
 20
-20.3349
 30
0.0
 10
-7.9027
 20
-20.3349
 30
0.0
 10
-7.9027
 20
-20.3349
 30
0.0
 10
-9.0513
 20
-21.9299
 30
0.0
 10
-9.0513
 20
-21.9299
 30
0.0
  0
SPLINE
  5
EF
330
1F
100
AcDbEntity
  8
Ilustrace
 62
   250
100
AcDbSpline
210
0.0
220
0.0
230
1.0
 70
    11
 71
     3
 72
    48
 73
    44
 74
     0
 42
0.0000000001
 43
0.0000000001
 40
0.0
 40
0.0
 40
0.0
 40
0.0
 40
0.0833333333333333
 40
0.0833333333333333
 40
0.0833333333333333
 40
0.0833333333333333
 40
0.1666666666666667
 40
0.1666666666666667
 40
0.1666666666666667
 40
0.1666666666666667
 40
0.25
 40
0.25
 40
0.25
 40
0.25
 40
0.3333333333333333
 40
0.3333333333333333
 40
0.3333333333333333
 40
0.3333333333333333
 40
0.4166666666666667
 40
0.4166666666666667
 40
0.4166666666666667
 40
0.4166666666666667
 40
0.5
 40
0.5
 40
0.5
 40
0.5
 40
0.5833333333333334
 40
0.5833333333333334
 40
0.5833333333333334
 40
0.5833333333333334
 40
0.6666666666666666
 40
0.6666666666666666
 40
0.6666666666666666
 40
0.6666666666666666
 40
0.75
 40
0.75
 40
0.75
 40
0.75
 40
0.8333333333333334
 40
0.8333333333333334
 40
0.8333333333333334
 40
0.8333333333333334
 40
1.0
 40
1.0
 40
1.0
 40
1.0
 10
-7.7436
 20
-20.5406
 30
0.0
 10
-7.7436
 20
-20.5406
 30
0.0
 10
-7.7319
 20
-20.5406
 30
0.0
 10
-7.7319
 20
-20.5406
 30
0.0
 10
-7.7319
 20
-20.5406
 30
0.0
 10
-7.6646
 20
-20.6531
 30
0.0
 10
-7.6174
 20
-20.767
 30
0.0
 10
-7.5896
 20
-20.8821
 30
0.0
 10
-7.5896
 20
-20.8821
 30
0.0
 10
-7.5618
 20
-20.9966
 30
0.0
 10
-7.5482
 20
-21.1104
 30
0.0
 10
-7.5495
 20
-21.2236
 30
0.0
 10
-7.5495
 20
-21.2236
 30
0.0
 10
-7.5495
 20
-21.3413
 30
0.0
 10
-7.5618
 20
-21.4538
 30
0.0
 10
-7.5857
 20
-21.5619
 30
0.0
 10
-7.5857
 20
-21.5619
 30
0.0
 10
-7.6097
 20
-21.6699
 30
0.0
 10
-7.6452
 20
-21.7695
 30
0.0
 10
-7.6918
 20
-21.8607
 30
0.0
 10
-7.6918
 20
-21.8607
 30
0.0
 10
-7.739
 20
-21.9519
 30
0.0
 10
-7.7966
 20
-22.0314
 30
0.0
 10
-7.8651
 20
-22.0987
 30
0.0
 10
-7.8651
 20
-22.0987
 30
0.0
 10
-7.9343
 20
-22.1666
 30
0.0
 10
-8.0133
 20
-22.2196
 30
0.0
 10
-8.1025
 20
-22.2571
 30
0.0
 10
-8.1025
 20
-22.2571
 30
0.0
 10
-8.1918
 20
-22.2946
 30
0.0
 10
-8.2907
 20
-22.3134
 30
0.0
 10
-8.3994
 20
-22.314
 30
0.0
 10
-8.3994
 20
-22.314
 30
0.0
 10
-8.5048
 20
-22.314
 30
0.0
 10
-8.5973
 20
-22.2979
 30
0.0
 10
-8.6755
 20
-22.2662
 30
0.0
 10
-8.6755
 20
-22.2662
 30
0.0
 10
-8.7544
 20
-22.2345
 30
0.0
 10
-8.8249
 20
-22.1879
 30
0.0
 10
-8.8883
 20
-22.1278
 30
0.0
 10
-8.8883
 20
-22.1278
 30
0.0
 10
-8.8883
 20
-22.1278
 30
0.0
 10
-7.7436
 20
-20.5406
 30
0.0
 10
-7.7436
 20
-20.5406
 30
0.0
  0
SPLINE
  5
F0
330
1F
100
AcDbEntity
  8
Ilustrace
 62
   250
100
AcDbSpline
210
0.0
220
0.0
230
1.0
 70
    11
 71
     3
 72
    36
 73
    32
 74
     0
 42
0.0000000001
 43
0.0000000001
 40
0.0
 40
0.0
 40
0.0
 40
0.0
 40
0.1111111111111111
 40
0.1111111111111111
 40
0.1111111111111111
 40
0.1111111111111111
 40
0.2222222222222222
 40
0.2222222222222222
 40
0.2222222222222222
 40
0.2222222222222222
 40
0.3333333333333333
 40
0.3333333333333333
 40
0.3333333333333333
 40
0.3333333333333333
 40
0.4444444444444444
 40
0.4444444444444444
 40
0.4444444444444444
 40
0.4444444444444444
 40
0.5555555555555556
 40
0.5555555555555556
 40
0.5555555555555556
 40
0.5555555555555556
 40
0.6666666666666666
 40
0.6666666666666666
 40
0.6666666666666666
 40
0.6666666666666666
 40
0.7777777777777778
 40
0.7777777777777778
 40
0.7777777777777778
 40
0.7777777777777778
 40
1.0
 40
1.0
 40
1.0
 40
1.0
 10
-6.1448
 20
-22.543
 30
0.0
 10
-6.1448
 20
-22.543
 30
0.0
 10
-5.8149
 20
-22.543
 30
0.0
 10
-5.8149
 20
-22.543
 30
0.0
 10
-5.8149
 20
-22.543
 30
0.0
 10
-5.8149
 20
-22.543
 30
0.0
 10
-5.8149
 20
-20.0206
 30
0.0
 10
-5.8149
 20
-20.0206
 30
0.0
 10
-5.8149
 20
-20.0206
 30
0.0
 10
-5.8149
 20
-20.0206
 30
0.0
 10
-6.106
 20
-20.0206
 30
0.0
 10
-6.106
 20
-20.0206
 30
0.0
 10
-6.106
 20
-20.0206
 30
0.0
 10
-6.106
 20
-20.0206
 30
0.0
 10
-6.657
 20
-20.3155
 30
0.0
 10
-6.657
 20
-20.3155
 30
0.0
 10
-6.657
 20
-20.3155
 30
0.0
 10
-6.657
 20
-20.3155
 30
0.0
 10
-6.591
 20
-20.5755
 30
0.0
 10
-6.591
 20
-20.5755
 30
0.0
 10
-6.591
 20
-20.5755
 30
0.0
 10
-6.591
 20
-20.5755
 30
0.0
 10
-6.1525
 20
-20.3388
 30
0.0
 10
-6.1525
 20
-20.3388
 30
0.0
 10
-6.1525
 20
-20.3388
 30
0.0
 10
-6.1525
 20
-20.3388
 30
0.0
 10
-6.1448
 20
-20.3388
 30
0.0
 10
-6.1448
 20
-20.3388
 30
0.0
 10
-6.1448
 20
-20.3388
 30
0.0
 10
-6.1448
 20
-20.3388
 30
0.0
 10
-6.1448
 20
-22.543
 30
0.0
 10
-6.1448
 20
-22.543
 30
0.0
  0
SPLINE
  5
F1
330
1F
100
AcDbEntity
  8
Ilustrace
 62
   250
100
AcDbSpline
210
0.0
220
0.0
230
1.0
 70
    11
 71
     3
 72
    36
 73
    32
 74
     0
 42
0.0000000001
 43
0.0000000001
 40
0.0
 40
0.0
 40
0.0
 40
0.0
 40
0.1111111111111111
 40
0.1111111111111111
 40
0.1111111111111111
 40
0.1111111111111111
 40
0.2222222222222222
 40
0.2222222222222222
 40
0.2222222222222222
 40
0.2222222222222222
 40
0.3333333333333333
 40
0.3333333333333333
 40
0.3333333333333333
 40
0.3333333333333333
 40
0.4444444444444444
 40
0.4444444444444444
 40
0.4444444444444444
 40
0.4444444444444444
 40
0.5555555555555556
 40
0.5555555555555556
 40
0.5555555555555556
 40
0.5555555555555556
 40
0.6666666666666666
 40
0.6666666666666666
 40
0.6666666666666666
 40
0.6666666666666666
 40
0.7777777777777778
 40
0.7777777777777778
 40
0.7777777777777778
 40
0.7777777777777778
 40
1.0
 40
1.0
 40
1.0
 40
1.0
 10
-4.1541
 20
-22.543
 30
0.0
 10
-4.1541
 20
-22.543
 30
0.0
 10
-3.8242
 20
-22.543
 30
0.0
 10
-3.8242
 20
-22.543
 30
0.0
 10
-3.8242
 20
-22.543
 30
0.0
 10
-3.8242
 20
-22.543
 30
0.0
 10
-3.8242
 20
-20.0206
 30
0.0
 10
-3.8242
 20
-20.0206
 30
0.0
 10
-3.8242
 20
-20.0206
 30
0.0
 10
-3.8242
 20
-20.0206
 30
0.0
 10
-4.1153
 20
-20.0206
 30
0.0
 10
-4.1153
 20
-20.0206
 30
0.0
 10
-4.1153
 20
-20.0206
 30
0.0
 10
-4.1153
 20
-20.0206
 30
0.0
 10
-4.6663
 20
-20.3155
 30
0.0
 10
-4.6663
 20
-20.3155
 30
0.0
 10
-4.6663
 20
-20.3155
 30
0.0
 10
-4.6663
 20
-20.3155
 30
0.0
 10
-4.6003
 20
-20.5755
 30
0.0
 10
-4.6003
 20
-20.5755
 30
0.0
 10
-4.6003
 20
-20.5755
 30
0.0
 10
-4.6003
 20
-20.5755
 30
0.0
 10
-4.1618
 20
-20.3388
 30
0.0
 10
-4.1618
 20
-20.3388
 30
0.0
 10
-4.1618
 20
-20.3388
 30
0.0
 10
-4.1618
 20
-20.3388
 30
0.0
 10
-4.1541
 20
-20.3388
 30
0.0
 10
-4.1541
 20
-20.3388
 30
0.0
 10
-4.1541
 20
-20.3388
 30
0.0
 10
-4.1541
 20
-20.3388
 30
0.0
 10
-4.1541
 20
-22.543
 30
0.0
 10
-4.1541
 20
-22.543
 30
0.0
  0
SPLINE
  5
F2
330
1F
100
AcDbEntity
  8
Ilustrace
 62
   250
100
AcDbSpline
210
0.0
220
0.0
230
1.0
 70
    11
 71
     3
 72
   132
 73
   128
 74
     0
 42
0.0000000001
 43
0.0000000001
 40
0.0
 40
0.0
 40
0.0
 40
0.0
 40
0.0303030303030303
 40
0.0303030303030303
 40
0.0303030303030303
 40
0.0303030303030303
 40
0.0606060606060606
 40
0.0606060606060606
 40
0.0606060606060606
 40
0.0606060606060606
 40
0.0909090909090909
 40
0.0909090909090909
 40
0.0909090909090909
 40
0.0909090909090909
 40
0.1212121212121212
 40
0.1212121212121212
 40
0.1212121212121212
 40
0.1212121212121212
 40
0.1515151515151515
 40
0.1515151515151515
 40
0.1515151515151515
 40
0.1515151515151515
 40
0.1818181818181818
 40
0.1818181818181818
 40
0.1818181818181818
 40
0.1818181818181818
 40
0.2121212121212121
 40
0.2121212121212121
 40
0.2121212121212121
 40
0.2121212121212121
 40
0.2424242424242424
 40
0.2424242424242424
 40
0.2424242424242424
 40
0.2424242424242424
 40
0.2727272727272727
 40
0.2727272727272727
 40
0.2727272727272727
 40
0.2727272727272727
 40
0.303030303030303
 40
0.303030303030303
 40
0.303030303030303
 40
0.303030303030303
 40
0.3333333333333333
 40
0.3333333333333333
 40
0.3333333333333333
 40
0.3333333333333333
 40
0.3636363636363636
 40
0.3636363636363636
 40
0.3636363636363636
 40
0.3636363636363636
 40
0.3939393939393939
 40
0.3939393939393939
 40
0.3939393939393939
 40
0.3939393939393939
 40
0.4242424242424243
 40
0.4242424242424243
 40
0.4242424242424243
 40
0.4242424242424243
 40
0.4545454545454545
 40
0.4545454545454545
 40
0.4545454545454545
 40
0.4545454545454545
 40
0.4848484848484849
 40
0.4848484848484849
 40
0.4848484848484849
 40
0.4848484848484849
 40
0.5151515151515151
 40
0.5151515151515151
 40
0.5151515151515151
 40
0.5151515151515151
 40
0.5454545454545454
 40
0.5454545454545454
 40
0.5454545454545454
 40
0.5454545454545454
 40
0.5757575757575758
 40
0.5757575757575758
 40
0.5757575757575758
 40
0.5757575757575758
 40
0.6060606060606061
 40
0.6060606060606061
 40
0.6060606060606061
 40
0.6060606060606061
 40
0.6363636363636364
 40
0.6363636363636364
 40
0.6363636363636364
 40
0.6363636363636364
 40
0.6666666666666666
 40
0.6666666666666666
 40
0.6666666666666666
 40
0.6666666666666666
 40
0.696969696969697
 40
0.696969696969697
 40
0.696969696969697
 40
0.696969696969697
 40
0.7272727272727273
 40
0.7272727272727273
 40
0.7272727272727273
 40
0.7272727272727273
 40
0.7575757575757576
 40
0.7575757575757576
 40
0.7575757575757576
 40
0.7575757575757576
 40
0.7878787878787878
 40
0.7878787878787878
 40
0.7878787878787878
 40
0.7878787878787878
 40
0.8181818181818182
 40
0.8181818181818182
 40
0.8181818181818182
 40
0.8181818181818182
 40
0.8484848484848485
 40
0.8484848484848485
 40
0.8484848484848485
 40
0.8484848484848485
 40
0.8787878787878788
 40
0.8787878787878788
 40
0.8787878787878788
 40
0.8787878787878788
 40
0.9090909090909091
 40
0.9090909090909091
 40
0.9090909090909091
 40
0.9090909090909091
 40
0.9393939393939394
 40
0.9393939393939394
 40
0.9393939393939394
 40
0.9393939393939394
 40
1.0
 40
1.0
 40
1.0
 40
1.0
 10
-1.3989
 20
-20.0206
 30
0.0
 10
-1.3989
 20
-20.0206
 30
0.0
 10
-2.6058
 20
-20.0206
 30
0.0
 10
-2.6058
 20
-20.0206
 30
0.0
 10
-2.6058
 20
-20.0206
 30
0.0
 10
-2.6058
 20
-20.0206
 30
0.0
 10
-2.7688
 20
-21.2314
 30
0.0
 10
-2.7688
 20
-21.2314
 30
0.0
 10
-2.7688
 20
-21.2314
 30
0.0
 10
-2.7222
 20
-21.2249
 30
0.0
 10
-2.6704
 20
-21.2197
 30
0.0
 10
-2.6122
 20
-21.2152
 30
0.0
 10
-2.6122
 20
-21.2152
 30
0.0
 10
-2.5547
 20
-21.2107
 30
0.0
 10
-2.4887
 20
-21.2081
 30
0.0
 10
-2.4156
 20
-21.2081
 30
0.0
 10
-2.4156
 20
-21.2081
 30
0.0
 10
-2.2488
 20
-21.2087
 30
0.0
 10
-2.1123
 20
-21.2327
 30
0.0
 10
-2.0062
 20
-21.2792
 30
0.0
 10
-2.0062
 20
-21.2792
 30
0.0
 10
-1.8995
 20
-21.3264
 30
0.0
 10
-1.8206
 20
-21.3911
 30
0.0
 10
-1.7695
 20
-21.4739
 30
0.0
 10
-1.7695
 20
-21.4739
 30
0.0
 10
-1.7184
 20
-21.5573
 30
0.0
 10
-1.6932
 20
-21.6537
 30
0.0
 10
-1.6938
 20
-21.763
 30
0.0
 10
-1.6938
 20
-21.763
 30
0.0
 10
-1.6932
 20
-21.8477
 30
0.0
 10
-1.7087
 20
-21.9234
 30
0.0
 10
-1.7404
 20
-21.9907
 30
0.0
 10
-1.7404
 20
-21.9907
 30
0.0
 10
-1.7714
 20
-22.0586
 30
0.0
 10
-1.8148
 20
-22.1155
 30
0.0
 10
-1.8697
 20
-22.1633
 30
0.0
 10
-1.8697
 20
-22.1633
 30
0.0
 10
-1.9247
 20
-22.2106
 30
0.0
 10
-1.9881
 20
-22.2468
 30
0.0
 10
-2.0599
 20
-22.272
 30
0.0
 10
-2.0599
 20
-22.272
 30
0.0
 10
-2.1317
 20
-22.2972
 30
0.0
 10
-2.2074
 20
-22.3102
 30
0.0
 10
-2.2876
 20
-22.3102
 30
0.0
 10
-2.2876
 20
-22.3102
 30
0.0
 10
-2.3658
 20
-22.3095
 30
0.0
 10
-2.4395
 20
-22.3024
 30
0.0
 10
-2.5088
 20
-22.2875
 30
0.0
 10
-2.5088
 20
-22.2875
 30
0.0
 10
-2.578
 20
-22.2733
 30
0.0
 10
-2.64
 20
-22.2558
 30
0.0
 10
-2.695
 20
-22.2345
 30
0.0
 10
-2.695
 20
-22.2345
 30
0.0
 10
-2.75
 20
-22.2131
 30
0.0
 10
-2.7953
 20
-22.1918
 30
0.0
 10
-2.8308
 20
-22.1705
 30
0.0
 10
-2.8308
 20
-22.1705
 30
0.0
 10
-2.8308
 20
-22.1705
 30
0.0
 10
-2.9162
 20
-22.4305
 30
0.0
 10
-2.9162
 20
-22.4305
 30
0.0
 10
-2.9162
 20
-22.4305
 30
0.0
 10
-2.8742
 20
-22.457
 30
0.0
 10
-2.8218
 20
-22.4816
 30
0.0
 10
-2.7591
 20
-22.5055
 30
0.0
 10
-2.7591
 20
-22.5055
 30
0.0
 10
-2.6963
 20
-22.5288
 30
0.0
 10
-2.6252
 20
-22.5475
 30
0.0
 10
-2.5456
 20
-22.5624
 30
0.0
 10
-2.5456
 20
-22.5624
 30
0.0
 10
-2.4654
 20
-22.5773
 30
0.0
 10
-2.3794
 20
-22.585
 30
0.0
 10
-2.2876
 20
-22.5857
 30
0.0
 10
-2.2876
 20
-22.5857
 30
0.0
 10
-2.1498
 20
-22.585
 30
0.0
 10
-2.0243
 20
-22.563
 30
0.0
 10
-1.9098
 20
-22.5204
 30
0.0
 10
-1.9098
 20
-22.5204
 30
0.0
 10
-1.7954
 20
-22.4777
 30
0.0
 10
-1.6964
 20
-22.4175
 30
0.0
 10
-1.613
 20
-22.3399
 30
0.0
 10
-1.613
 20
-22.3399
 30
0.0
 10
-1.5289
 20
-22.2623
 30
0.0
 10
-1.4642
 20
-22.1711
 30
0.0
 10
-1.4183
 20
-22.067
 30
0.0
 10
-1.4183
 20
-22.067
 30
0.0
 10
-1.3724
 20
-21.9622
 30
0.0
 10
-1.3491
 20
-21.8477
 30
0.0
 10
-1.3485
 20
-21.7242
 30
0.0
 10
-1.3485
 20
-21.7242
 30
0.0
 10
-1.3491
 20
-21.6194
 30
0.0
 10
-1.3659
 20
-21.525
 30
0.0
 10
-1.3983
 20
-21.4416
 30
0.0
 10
-1.3983
 20
-21.4416
 30
0.0
 10
-1.4306
 20
-21.3581
 30
0.0
 10
-1.4733
 20
-21.2863
 30
0.0
 10
-1.5276
 20
-21.2255
 30
0.0
 10
-1.5276
 20
-21.2255
 30
0.0
 10
-1.5819
 20
-21.1647
 30
0.0
 10
-1.6427
 20
-21.1162
 30
0.0
 10
-1.7093
 20
-21.08
 30
0.0
 10
-1.7093
 20
-21.08
 30
0.0
 10
-1.7876
 20
-21.0322
 30
0.0
 10
-1.8723
 20
-20.9972
 30
0.0
 10
-1.9648
 20
-20.9759
 30
0.0
 10
-1.9648
 20
-20.9759
 30
0.0
 10
-2.0573
 20
-20.9545
 30
0.0
 10
-2.153
 20
-20.9435
 30
0.0
 10
-2.2526
 20
-20.9442
 30
0.0
 10
-2.2526
 20
-20.9442
 30
0.0
 10
-2.2979
 20
-20.9442
 30
0.0
 10
-2.3367
 20
-20.9448
 30
0.0
 10
-2.3684
 20
-20.9468
 30
0.0
 10
-2.3684
 20
-20.9468
 30
0.0
 10
-2.4001
 20
-20.9487
 30
0.0
 10
-2.4298
 20
-20.952
 30
0.0
 10
-2.4583
 20
-20.9558
 30
0.0
 10
-2.4583
 20
-20.9558
 30
0.0
 10
-2.4583
 20
-20.9558
 30
0.0
 10
-2.3613
 20
-20.3078
 30
0.0
 10
-2.3613
 20
-20.3078
 30
0.0
 10
-2.3613
 20
-20.3078
 30
0.0
 10
-2.3613
 20
-20.3078
 30
0.0
 10
-1.3989
 20
-20.3078
 30
0.0
 10
-1.3989
 20
-20.3078
 30
0.0
 10
-1.3989
 20
-20.3078
 30
0.0
 10
-1.3989
 20
-20.3078
 30
0.0
 10
-1.3989
 20
-20.0206
 30
0.0
 10
-1.3989
 20
-20.0206
 30
0.0
  0
SPLINE
  5
F3
330
1F
100
AcDbEntity
  8
Ilustrace
 62
   250
370
     9
100
AcDbSpline
210
0.0
220
0.0
230
1.0
 70
    11
 71
     3
 72
    32
 73
    28
 74
     0
 42
0.0000000001
 43
0.0000000001
 40
0.0
 40
0.0
 40
0.0
 40
0.0
 40
0.125
 40
0.125
 40
0.125
 40
0.125
 40
0.25
 40
0.25
 40
0.25
 40
0.25
 40
0.375
 40
0.375
 40
0.375
 40
0.375
 40
0.5
 40
0.5
 40
0.5
 40
0.5
 40
0.625
 40
0.625
 40
0.625
 40
0.625
 40
0.75
 40
0.75
 40
0.75
 40
0.75
 40
1.0
 40
1.0
 40
1.0
 40
1.0
 10
3.888
 20
-23.3687
 30
0.0
 10
3.888
 20
-23.3687
 30
0.0
 10
3.888
 20
-23.3687
 30
0.0
 10
3.888
 20
-23.3687
 30
0.0
 10
3.888
 20
-23.3687
 30
0.0
 10
3.888
 20
-23.3687
 30
0.0
 10
3.888
 20
-23.3687
 30
0.0
 10
3.888
 20
-23.3687
 30
0.0
 10
3.888
 20
-23.3687
 30
0.0
 10
3.888
 20
-23.3687
 30
0.0
 10
5.1608
 20
-22.9253
 30
0.0
 10
5.1608
 20
-22.9253
 30
0.0
 10
5.1608
 20
-22.9253
 30
0.0
 10
5.1608
 20
-22.9253
 30
0.0
 10
3.888
 20
-22.4819
 30
0.0
 10
3.888
 20
-22.4819
 30
0.0
 10
3.888
 20
-22.4819
 30
0.0
 10
3.888
 20
-22.4819
 30
0.0
 10
3.888
 20
-22.4819
 30
0.0
 10
3.888
 20
-22.4819
 30
0.0
 10
3.888
 20
-22.4819
 30
0.0
 10
3.888
 20
-22.4819
 30
0.0
 10
3.888
 20
-22.4819
 30
0.0
 10
3.888
 20
-22.4819
 30
0.0
 10
3.888
 20
-22.4819
 30
0.0
 10
3.888
 20
-22.4819
 30
0.0
 10
3.888
 20
-23.3687
 30
0.0
 10
3.888
 20
-23.3687
 30
0.0
  0
SPLINE
  5
F4
330
1F
100
AcDbEntity
  8
Ilustrace
 62
   250
370
     9
100
AcDbSpline
210
0.0
220
0.0
230
1.0
 70
    11
 71
     3
 72
    32
 73
    28
 74
     0
 42
0.0000000001
 43
0.0000000001
 40
0.0
 40
0.0
 40
0.0
 40
0.0
 40
0.125
 40
0.125
 40
0.125
 40
0.125
 40
0.25
 40
0.25
 40
0.25
 40
0.25
 40
0.375
 40
0.375
 40
0.375
 40
0.375
 40
0.5
 40
0.5
 40
0.5
 40
0.5
 40
0.625
 40
0.625
 40
0.625
 40
0.625
 40
0.75
 40
0.75
 40
0.75
 40
0.75
 40
1.0
 40
1.0
 40
1.0
 40
1.0
 10
-14.4919
 20
-23.3726
 30
0.0
 10
-14.4919
 20
-23.3726
 30
0.0
 10
-14.4919
 20
-23.3726
 30
0.0
 10
-14.4919
 20
-23.3726
 30
0.0
 10
-14.4919
 20
-23.3726
 30
0.0
 10
-14.4919
 20
-23.3726
 30
0.0
 10
-14.4919
 20
-23.3726
 30
0.0
 10
-14.4919
 20
-23.3726
 30
0.0
 10
-14.4919
 20
-23.3726
 30
0.0
 10
-14.4919
 20
-23.3726
 30
0.0
 10
-15.7665
 20
-22.9292
 30
0.0
 10
-15.7665
 20
-22.9292
 30
0.0
 10
-15.7665
 20
-22.9292
 30
0.0
 10
-15.7665
 20
-22.9292
 30
0.0
 10
-14.4919
 20
-22.4858
 30
0.0
 10
-14.4919
 20
-22.4858
 30
0.0
 10
-14.4919
 20
-22.4858
 30
0.0
 10
-14.4919
 20
-22.4858
 30
0.0
 10
-14.4919
 20
-22.4858
 30
0.0
 10
-14.4919
 20
-22.4858
 30
0.0
 10
-14.4919
 20
-22.4858
 30
0.0
 10
-14.4919
 20
-22.4858
 30
0.0
 10
-14.4919
 20
-22.4858
 30
0.0
 10
-14.4919
 20
-22.4858
 30
0.0
 10
-14.4919
 20
-22.4858
 30
0.0
 10
-14.4919
 20
-22.4858
 30
0.0
 10
-14.4919
 20
-23.3726
 30
0.0
 10
-14.4919
 20
-23.3726
 30
0.0
  0
ENDSEC
  0
SECTION
  2
OBJECTS
  0
DICTIONARY
  5
C
330
0
100
AcDbDictionary
281
     1
  3
ACAD_GROUP
350
D
  3
ACAD_LAYOUT
350
1A
  3
ACAD_MATERIAL
350
3B
  3
ACAD_MLEADERSTYLE
350
F7
  3
ACAD_MLINESTYLE
350
17
  3
ACAD_PLOTSETTINGS
350
19
  3
ACAD_PLOTSTYLENAME
350
E
  3
ACAD_VISUALSTYLE
350
2A
  3
AcDbVariableDictionary
350
F5
  0
DICTIONARY
  5
D
102
{ACAD_REACTORS
330
C
102
}
330
C
100
AcDbDictionary
281
     1
  0
DICTIONARY
  5
1A
102
{ACAD_REACTORS
330
C
102
}
330
C
100
AcDbDictionary
281
     1
  3
Layout1
350
1E
  3
Layout2
350
26
  3
Model
350
22
  0
DICTIONARY
  5
3B
102
{ACAD_REACTORS
330
C
102
}
330
C
100
AcDbDictionary
281
     1
  3
ByBlock
350
3D
  3
ByLayer
350
3C
  3
Global
350
3E
  0
DICTIONARY
  5
F7
102
{ACAD_REACTORS
330
C
102
}
330
C
100
AcDbDictionary
281
     1
  0
DICTIONARY
  5
17
102
{ACAD_REACTORS
330
C
102
}
330
C
100
AcDbDictionary
281
     1
  3
Standard
350
18
  0
DICTIONARY
  5
19
102
{ACAD_REACTORS
330
C
102
}
330
C
100
AcDbDictionary
281
     1
  0
ACDBDICTIONARYWDFLT
  5
E
102
{ACAD_REACTORS
330
C
102
}
330
C
100
AcDbDictionary
281
     1
  3
Normal
350
F
100
AcDbDictionaryWithDefault
340
F
  0
DICTIONARY
  5
2A
102
{ACAD_REACTORS
330
C
102
}
330
C
100
AcDbDictionary
281
     1
  3
2dWireframe
350
2F
  3
3D Hidden
350
31
  3
3dWireframe
350
30
  3
Basic
350
32
  3
Brighten
350
36
  3
ColorChange
350
3A
  3
Conceptual
350
34
  3
Dim
350
35
  3
Facepattern
350
39
  3
Flat
350
2B
  3
FlatWithEdges
350
2C
  3
Gouraud
350
2D
  3
GouraudWithEdges
350
2E
  3
Linepattern
350
38
  3
Realistic
350
33
  3
Thicken
350
37
  0
DICTIONARY
  5
F5
102
{ACAD_REACTORS
330
C
102
}
330
C
100
AcDbDictionary
281
     1
  3
DIMASSOC
350
F8
  3
HIDETEXT
350
F9
  0
LAYOUT
  5
1E
102
{ACAD_REACTORS
330
1A
102
}
330
1A
100
AcDbPlotSettings
  1

  2
none_device
  4

  6

 40
0.0
 41
0.0
 42
0.0
 43
0.0
 44
0.0
 45
0.0
 46
0.0
 47
0.0
 48
0.0
 49
0.0
140
0.0
141
0.0
142
1.0
143
1.0
 70
   688
 72
     0
 73
     0
 74
     5
  7

 75
    16
147
1.0
148
0.0
149
0.0
100
AcDbLayout
  1
Layout1
 70
     1
 71
     1
 10
0.0
 20
0.0
 11
12.0
 21
9.0
 12
0.0
 22
0.0
 32
0.0
 14
1.000000000000000E+20
 24
1.000000000000000E+20
 34
1.000000000000000E+20
 15
-1.000000000000000E+20
 25
-1.000000000000000E+20
 35
-1.000000000000000E+20
146
0.0
 13
0.0
 23
0.0
 33
0.0
 16
1.0
 26
0.0
 36
0.0
 17
0.0
 27
1.0
 37
0.0
 76
     0
330
1B
  0
LAYOUT
  5
26
102
{ACAD_REACTORS
330
1A
102
}
330
1A
100
AcDbPlotSettings
  1

  2
none_device
  4

  6

 40
0.0
 41
0.0
 42
0.0
 43
0.0
 44
0.0
 45
0.0
 46
0.0
 47
0.0
 48
0.0
 49
0.0
140
0.0
141
0.0
142
1.0
143
1.0
 70
   688
 72
     0
 73
     0
 74
     5
  7

 75
    16
147
1.0
148
0.0
149
0.0
100
AcDbLayout
  1
Layout2
 70
     1
 71
     2
 10
0.0
 20
0.0
 11
0.0
 21
0.0
 12
0.0
 22
0.0
 32
0.0
 14
0.0
 24
0.0
 34
0.0
 15
0.0
 25
0.0
 35
0.0
146
0.0
 13
0.0
 23
0.0
 33
0.0
 16
1.0
 26
0.0
 36
0.0
 17
0.0
 27
1.0
 37
0.0
 76
     0
330
23
  0
LAYOUT
  5
22
102
{ACAD_REACTORS
330
1A
102
}
330
1A
100
AcDbPlotSettings
  1

  2
none_device
  4

  6

 40
0.0
 41
0.0
 42
0.0
 43
0.0
 44
0.0
 45
0.0
 46
0.0
 47
0.0
 48
0.0
 49
0.0
140
0.0
141
0.0
142
1.0
143
1.0
 70
  1712
 72
     0
 73
     0
 74
     0
  7

 75
     0
147
1.0
148
0.0
149
0.0
100
AcDbLayout
  1
Model
 70
     1
 71
     0
 10
0.0
 20
0.0
 11
12.0
 21
9.0
 12
0.0
 22
0.0
 32
0.0
 14
-17.8121
 24
-23.4262
 34
0.0
 15
17.6786
 25
23.3725
 35
0.0
146
0.0
 13
0.0
 23
0.0
 33
0.0
 16
1.0
 26
0.0
 36
0.0
 17
0.0
 27
1.0
 37
0.0
 76
     0
330
1F
331
29
  0
MATERIAL
  5
3D
102
{ACAD_REACTORS
330
3B
102
}
102
{ACAD_XDICTIONARY
360
11C
102
}
330
3B
100
AcDbMaterial
  1
ByBlock
  0
MATERIAL
  5
3C
102
{ACAD_REACTORS
330
3B
102
}
102
{ACAD_XDICTIONARY
360
11A
102
}
330
3B
100
AcDbMaterial
  1
ByLayer
  0
MATERIAL
  5
3E
102
{ACAD_REACTORS
330
3B
102
}
102
{ACAD_XDICTIONARY
360
11E
102
}
330
3B
100
AcDbMaterial
  1
Global
  0
MLINESTYLE
  5
18
102
{ACAD_REACTORS
330
17
102
}
330
17
100
AcDbMlineStyle
  2
Standard
 70
     0
  3

 62
   256
 51
90.0
 52
90.0
 71
     2
 49
0.5
 62
   256
  6
BYLAYER
 49
-0.5
 62
   256
  6
BYLAYER
  0
ACDBPLACEHOLDER
  5
F
102
{ACAD_REACTORS
330
E
102
}
330
E
  0
VISUALSTYLE
  5
2F
102
{ACAD_REACTORS
330
2A
102
}
102
{ACAD_XDICTIONARY
360
102
102
}
330
2A
100
AcDbVisualStyle
  2
2dWireframe
 70
     4
 71
     0
 72
     2
 73
     0
 90
        0
 40
-0.6
 41
-30.0
 62
     5
 63
     7
 74
     1
 91
        4
 64
     7
 65
   257
 75
     1
175
     1
 42
1.0
 92
        0
 66
   257
 43
1.0
 76
     1
 77
     6
 78
     2
 67
     7
 79
     5
170
     0
171
     0
290
     0
174
     0
 93
        1
 44
0.0
173
     0
291
     0
 45
0.0
1001
ACAD
1000
AcDbSavedByObjectVersion
1070
     0
  0
VISUALSTYLE
  5
31
102
{ACAD_REACTORS
330
2A
102
}
102
{ACAD_XDICTIONARY
360
106
102
}
330
2A
100
AcDbVisualStyle
  2
3D Hidden
 70
     6
 71
     1
 72
     2
 73
     2
 90
        0
 40
-0.6
 41
-30.0
 62
     5
 63
     7
 74
     2
 91
        2
 64
     7
 65
   257
 75
     2
175
     1
 42
40.0
 92
        0
 66
   257
 43
1.0
 76
     1
 77
     6
 78
     2
 67
     7
 79
     3
170
     0
171
     0
290
     0
174
     0
 93
        1
 44
0.0
173
     0
291
     0
 45
0.0
1001
ACAD
1000
AcDbSavedByObjectVersion
1070
     0
  0
VISUALSTYLE
  5
30
102
{ACAD_REACTORS
330
2A
102
}
102
{ACAD_XDICTIONARY
360
104
102
}
330
2A
100
AcDbVisualStyle
  2
3dWireframe
 70
     5
 71
     0
 72
     2
 73
     0
 90
        0
 40
-0.6
 41
-30.0
 62
     5
 63
     7
 74
     1
 91
        4
 64
     7
 65
   257
 75
     1
175
     1
 42
1.0
 92
        0
 66
   257
 43
1.0
 76
     1
 77
     6
 78
     2
 67
     7
 79
     5
170
     0
171
     0
290
     0
174
     0
 93
        1
 44
0.0
173
     0
291
     0
 45
0.0
1001
ACAD
1000
AcDbSavedByObjectVersion
1070
     0
  0
VISUALSTYLE
  5
32
102
{ACAD_REACTORS
330
2A
102
}
102
{ACAD_XDICTIONARY
360
108
102
}
330
2A
100
AcDbVisualStyle
  2
Basic
 70
     7
 71
     1
 72
     0
 73
     1
 90
        0
 40
-0.6
 41
-30.0
 62
     5
 63
     7
 74
     0
 91
        4
 64
     7
 65
   257
 75
     1
175
     1
 42
1.0
 92
        8
 66
     7
 43
1.0
 76
     1
 77
     6
 78
     2
 67
     7
 79
     5
170
     0
171
     0
290
     0
174
     0
 93
        1
 44
0.0
173
     0
291
     1
 45
0.0
1001
ACAD
1000
AcDbSavedByObjectVersion
1070
     0
  0
VISUALSTYLE
  5
36
102
{ACAD_REACTORS
330
2A
102
}
102
{ACAD_XDICTIONARY
360
110
102
}
330
2A
100
AcDbVisualStyle
  2
Brighten
 70
    12
 71
     2
 72
     2
 73
     0
 90
        0
 40
-0.6
 41
-30.0
 62
     5
 63
     7
 74
     1
 91
        4
 64
     7
 65
   257
 75
     1
175
     1
 42
1.0
 92
        8
 66
     7
 43
1.0
 76
     1
 77
     6
 78
     2
 67
     7
 79
     5
170
     0
171
     0
290
     0
174
     0
 93
        1
 44
50.0
173
     0
291
     1
 45
0.0
1001
ACAD
1000
AcDbSavedByObjectVersion
1070
     0
  0
VISUALSTYLE
  5
3A
102
{ACAD_REACTORS
330
2A
102
}
102
{ACAD_XDICTIONARY
360
118
102
}
330
2A
100
AcDbVisualStyle
  2
ColorChange
 70
    16
 71
     2
 72
     2
 73
     3
 90
        0
 40
-0.6
 41
-30.0
 62
     5
 63
     8
 74
     1
 91
        4
 64
     7
 65
   257
 75
     1
175
     1
 42
1.0
 92
        8
 66
     8
 43
1.0
 76
     1
 77
     6
 78
     2
 67
     7
 79
     5
170
     0
171
     0
290
     0
174
     0
 93
        1
 44
0.0
173
     0
291
     1
 45
0.0
1001
ACAD
1000
AcDbSavedByObjectVersion
1070
     0
  0
VISUALSTYLE
  5
34
102
{ACAD_REACTORS
330
2A
102
}
102
{ACAD_XDICTIONARY
360
10C
102
}
330
2A
100
AcDbVisualStyle
  2
Conceptual
 70
     9
 71
     3
 72
     2
 73
     0
 90
        0
 40
-0.6
 41
-30.0
 62
     5
 63
     7
 74
     2
 91
        2
 64
     7
 65
   257
 75
     1
175
     1
 42
40.0
 92
        8
 66
     7
 43
1.0
 76
     1
 77
     6
 78
     2
 67
     7
 79
     3
170
     0
171
     0
290
     0
174
     0
 93
        1
 44
0.0
173
     0
291
     0
 45
0.0
1001
ACAD
1000
AcDbSavedByObjectVersion
1070
     0
  0
VISUALSTYLE
  5
35
102
{ACAD_REACTORS
330
2A
102
}
102
{ACAD_XDICTIONARY
360
10E
102
}
330
2A
100
AcDbVisualStyle
  2
Dim
 70
    11
 71
     2
 72
     2
 73
     0
 90
        0
 40
-0.6
 41
-30.0
 62
     5
 63
     7
 74
     1
 91
        4
 64
     7
 65
   257
 75
     1
175
     1
 42
1.0
 92
        8
 66
     7
 43
1.0
 76
     1
 77
     6
 78
     2
 67
     7
 79
     5
170
     0
171
     0
290
     0
174
     0
 93
        1
 44
-50.0
173
     0
291
     1
 45
0.0
1001
ACAD
1000
AcDbSavedByObjectVersion
1070
     0
  0
VISUALSTYLE
  5
39
102
{ACAD_REACTORS
330
2A
102
}
102
{ACAD_XDICTIONARY
360
116
102
}
330
2A
100
AcDbVisualStyle
  2
Facepattern
 70
    15
 71
     2
 72
     2
 73
     0
 90
        0
 40
-0.6
 41
-30.0
 62
     5
 63
     7
 74
     1
 91
        4
 64
     7
 65
   257
 75
     1
175
     1
 42
1.0
 92
        8
 66
     7
 43
1.0
 76
     1
 77
     6
 78
     2
 67
     7
 79
     5
170
     0
171
     0
290
     0
174
     0
 93
        1
 44
0.0
173
     0
291
     1
 45
0.0
1001
ACAD
1000
AcDbSavedByObjectVersion
1070
     0
  0
VISUALSTYLE
  5
2B
102
{ACAD_REACTORS
330
2A
102
}
102
{ACAD_XDICTIONARY
360
FA
102
}
330
2A
100
AcDbVisualStyle
  2
Flat
 70
     0
 71
     2
 72
     1
 73
     1
 90
        2
 40
-0.6
 41
30.0
 62
     5
 63
     7
 74
     0
 91
        4
 64
     7
 65
   257
 75
     1
175
     1
 42
1.0
 92
        8
 66
     7
 43
1.0
 76
     1
 77
     6
 78
     2
 67
     7
 79
     5
170
     0
171
     0
290
     0
174
     0
 93
       13
 44
0.0
173
     0
291
     1
 45
0.0
1001
ACAD
1000
AcDbSavedByObjectVersion
1070
     0
  0
VISUALSTYLE
  5
2C
102
{ACAD_REACTORS
330
2A
102
}
102
{ACAD_XDICTIONARY
360
FC
102
}
330
2A
100
AcDbVisualStyle
  2
FlatWithEdges
 70
     1
 71
     2
 72
     1
 73
     1
 90
        2
 40
-0.6
 41
30.0
 62
     5
 63
     7
 74
     1
 91
        4
 64
     7
 65
   257
 75
     1
175
     1
 42
1.0
 92
        0
 66
   257
 43
1.0
 76
     1
 77
     6
 78
     2
 67
     7
 79
     5
170
     0
171
     0
290
     0
174
     0
 93
       13
 44
0.0
173
     0
291
     1
 45
0.0
1001
ACAD
1000
AcDbSavedByObjectVersion
1070
     0
  0
VISUALSTYLE
  5
2D
102
{ACAD_REACTORS
330
2A
102
}
102
{ACAD_XDICTIONARY
360
FE
102
}
330
2A
100
AcDbVisualStyle
  2
Gouraud
 70
     2
 71
     2
 72
     2
 73
     1
 90
        2
 40
-0.6
 41
30.0
 62
     5
 63
     7
 74
     0
 91
        4
 64
     7
 65
   257
 75
     1
175
     1
 42
1.0
 92
        0
 66
     7
 43
1.0
 76
     1
 77
     6
 78
     2
 67
     7
 79
     5
170
     0
171
     0
290
     0
174
     0
 93
       13
 44
0.0
173
     0
291
     1
 45
0.0
1001
ACAD
1000
AcDbSavedByObjectVersion
1070
     0
  0
VISUALSTYLE
  5
2E
102
{ACAD_REACTORS
330
2A
102
}
102
{ACAD_XDICTIONARY
360
100
102
}
330
2A
100
AcDbVisualStyle
  2
GouraudWithEdges
 70
     3
 71
     2
 72
     2
 73
     1
 90
        2
 40
-0.6
 41
30.0
 62
     5
 63
     7
 74
     1
 91
        4
 64
     7
 65
   257
 75
     1
175
     1
 42
1.0
 92
        0
 66
   257
 43
1.0
 76
     1
 77
     6
 78
     2
 67
     7
 79
     5
170
     0
171
     0
290
     0
174
     0
 93
       13
 44
0.0
173
     0
291
     1
 45
0.0
1001
ACAD
1000
AcDbSavedByObjectVersion
1070
     0
  0
VISUALSTYLE
  5
38
102
{ACAD_REACTORS
330
2A
102
}
102
{ACAD_XDICTIONARY
360
114
102
}
330
2A
100
AcDbVisualStyle
  2
Linepattern
 70
    14
 71
     2
 72
     2
 73
     0
 90
        0
 40
-0.6
 41
-30.0
 62
     5
 63
     7
 74
     1
 91
        4
 64
     7
 65
   257
 75
     7
175
     7
 42
1.0
 92
        8
 66
     7
 43
1.0
 76
     1
 77
     6
 78
     2
 67
     7
 79
     5
170
     0
171
     0
290
     0
174
     0
 93
        1
 44
0.0
173
     0
291
     1
 45
0.0
1001
ACAD
1000
AcDbSavedByObjectVersion
1070
     0
  0
VISUALSTYLE
  5
33
102
{ACAD_REACTORS
330
2A
102
}
102
{ACAD_XDICTIONARY
360
10A
102
}
330
2A
100
AcDbVisualStyle
  2
Realistic
 70
     8
 71
     2
 72
     2
 73
     0
 90
        0
 40
-0.6
 41
-30.0
 62
     5
 63
     7
 74
     1
 91
        0
 64
     7
 65
   257
 75
     1
175
     1
 42
1.0
 92
        8
 66
     8
 43
1.0
 76
     1
 77
     6
 78
     2
 67
     7
 79
     5
170
     0
171
     0
290
     0
174
     0
 93
       13
 44
0.0
173
     0
291
     0
 45
0.0
1001
ACAD
1000
AcDbSavedByObjectVersion
1070
     0
  0
VISUALSTYLE
  5
37
102
{ACAD_REACTORS
330
2A
102
}
102
{ACAD_XDICTIONARY
360
112
102
}
330
2A
100
AcDbVisualStyle
  2
Thicken
 70
    13
 71
     2
 72
     2
 73
     0
 90
        0
 40
-0.6
 41
-30.0
 62
     5
 63
     7
 74
     1
 91
        4
 64
     7
 65
   257
 75
     1
175
     1
 42
1.0
 92
       12
 66
     7
 43
1.0
 76
     1
 77
     6
 78
     2
 67
     7
 79
     5
170
     0
171
     0
290
     0
174
     0
 93
        1
 44
0.0
173
     0
291
     1
 45
0.0
1001
ACAD
1000
AcDbSavedByObjectVersion
1070
     0
  0
DICTIONARYVAR
  5
F8
102
{ACAD_REACTORS
330
F5
102
}
330
F5
100
DictionaryVariables
280
     0
  1
2
  0
DICTIONARYVAR
  5
F9
102
{ACAD_REACTORS
330
F5
102
}
330
F5
100
DictionaryVariables
280
     0
  1
1
  0
DICTIONARY
  5
11C
330
3D
100
AcDbDictionary
280
     1
281
     1
  3
ACAD_XREC_ROUNDTRIP
360
11D
  0
DICTIONARY
  5
11A
330
3C
100
AcDbDictionary
280
     1
281
     1
  3
ACAD_XREC_ROUNDTRIP
360
11B
  0
DICTIONARY
  5
11E
330
3E
100
AcDbDictionary
280
     1
281
     1
  3
ACAD_XREC_ROUNDTRIP
360
11F
  0
DICTIONARY
  5
102
330
2F
100
AcDbDictionary
280
     1
281
     1
  3
ACAD_XREC_ROUNDTRIP
360
103
  0
DICTIONARY
  5
106
330
31
100
AcDbDictionary
280
     1
281
     1
  3
ACAD_XREC_ROUNDTRIP
360
107
  0
DICTIONARY
  5
104
330
30
100
AcDbDictionary
280
     1
281
     1
  3
ACAD_XREC_ROUNDTRIP
360
105
  0
DICTIONARY
  5
108
330
32
100
AcDbDictionary
280
     1
281
     1
  3
ACAD_XREC_ROUNDTRIP
360
109
  0
DICTIONARY
  5
110
330
36
100
AcDbDictionary
280
     1
281
     1
  3
ACAD_XREC_ROUNDTRIP
360
111
  0
DICTIONARY
  5
118
330
3A
100
AcDbDictionary
280
     1
281
     1
  3
ACAD_XREC_ROUNDTRIP
360
119
  0
DICTIONARY
  5
10C
330
34
100
AcDbDictionary
280
     1
281
     1
  3
ACAD_XREC_ROUNDTRIP
360
10D
  0
DICTIONARY
  5
10E
330
35
100
AcDbDictionary
280
     1
281
     1
  3
ACAD_XREC_ROUNDTRIP
360
10F
  0
DICTIONARY
  5
116
330
39
100
AcDbDictionary
280
     1
281
     1
  3
ACAD_XREC_ROUNDTRIP
360
117
  0
DICTIONARY
  5
FA
330
2B
100
AcDbDictionary
280
     1
281
     1
  3
ACAD_XREC_ROUNDTRIP
360
FB
  0
DICTIONARY
  5
FC
330
2C
100
AcDbDictionary
280
     1
281
     1
  3
ACAD_XREC_ROUNDTRIP
360
FD
  0
DICTIONARY
  5
FE
330
2D
100
AcDbDictionary
280
     1
281
     1
  3
ACAD_XREC_ROUNDTRIP
360
FF
  0
DICTIONARY
  5
100
330
2E
100
AcDbDictionary
280
     1
281
     1
  3
ACAD_XREC_ROUNDTRIP
360
101
  0
DICTIONARY
  5
114
330
38
100
AcDbDictionary
280
     1
281
     1
  3
ACAD_XREC_ROUNDTRIP
360
115
  0
DICTIONARY
  5
10A
330
33
100
AcDbDictionary
280
     1
281
     1
  3
ACAD_XREC_ROUNDTRIP
360
10B
  0
DICTIONARY
  5
112
330
37
100
AcDbDictionary
280
     1
281
     1
  3
ACAD_XREC_ROUNDTRIP
360
113
  0
XRECORD
  5
11D
102
{ACAD_REACTORS
330
11C
102
}
330
11C
100
AcDbXrecord
280
     1
102
MATERIAL
148
0.0
149
0.0
149
0.0
 93
        0
 94
      127
282
     0
 72
     1
 77
     1
171
     1
175
     1
179
     1
273
     0
  0
XRECORD
  5
11B
102
{ACAD_REACTORS
330
11A
102
}
330
11A
100
AcDbXrecord
280
     1
102
MATERIAL
148
0.0
149
0.0
149
0.0
 93
        0
 94
      127
282
     0
 72
     1
 77
     1
171
     1
175
     1
179
     1
273
     0
  0
XRECORD
  5
11F
102
{ACAD_REACTORS
330
11E
102
}
330
11E
100
AcDbXrecord
280
     1
102
MATERIAL
148
0.0
149
0.0
149
0.0
 93
        0
 94
      127
282
     0
 72
     1
 77
     1
171
     1
175
     1
179
     1
273
     0
  0
XRECORD
  5
103
102
{ACAD_REACTORS
330
102
102
}
330
102
100
AcDbXrecord
280
     1
102
RTVSPropertyOp0
 70
     1
102
RTVSPropertyOp1
 70
     1
102
RTVSPropertyOp2
 70
     1
102
RTVSPropertyOp3
 70
     1
102
RTVSPropertyOp4
 70
     1
102
RTVSPropertyOp5
 70
     1
102
RTVSPropertyOp6
 70
     1
102
RTVSPropertyOp7
 70
     1
102
RTVSPropertyOp8
 70
     1
102
RTVSPropertyOp9
 70
     1
102
RTVSPropertyOp10
 70
     1
102
RTVSPropertyOp11
 70
     1
102
RTVSPropertyOp12
 70
     1
102
RTVSPropertyOp13
 70
     1
102
RTVSPropertyOp14
 70
     1
102
RTVSPropertyOp15
 70
     1
102
RTVSPropertyOp16
 70
     1
102
RTVSPropertyOp17
 70
     1
102
RTVSPropertyOp18
 70
     1
102
RTVSPropertyOp19
 70
     1
102
RTVSPropertyOp20
 70
     1
102
RTVSPropertyOp21
 70
     1
102
RTVSPropertyOp22
 70
     1
102
RTVSPropertyOp23
 70
     1
102
RTVSPropertyOp24
 70
     1
102
RTVSPropertyOp25
 70
     1
102
RTVSPropertyOp26
 70
     1
102
RTVSPropertyOp27
 70
     1
  0
XRECORD
  5
107
102
{ACAD_REACTORS
330
106
102
}
330
106
100
AcDbXrecord
280
     1
102
RTVSPropertyOp0
 70
     1
102
RTVSPropertyOp1
 70
     1
102
RTVSPropertyOp2
 70
     1
102
RTVSPropertyOp3
 70
     1
102
RTVSPropertyOp4
 70
     1
102
RTVSPropertyOp5
 70
     1
102
RTVSPropertyOp6
 70
     1
102
RTVSPropertyOp7
 70
     1
102
RTVSPropertyOp8
 70
     1
102
RTVSPropertyOp9
 70
     1
102
RTVSPropertyOp10
 70
     1
102
RTVSPropertyOp11
 70
     1
102
RTVSPropertyOp12
 70
     1
102
RTVSPropertyOp13
 70
     1
102
RTVSPropertyOp14
 70
     1
102
RTVSPropertyOp15
 70
     1
102
RTVSPropertyOp16
 70
     1
102
RTVSPropertyOp17
 70
     1
102
RTVSPropertyOp18
 70
     1
102
RTVSPropertyOp19
 70
     1
102
RTVSPropertyOp20
 70
     1
102
RTVSPropertyOp21
 70
     1
102
RTVSPropertyOp22
 70
     1
102
RTVSPropertyOp23
 70
     1
102
RTVSPropertyOp24
 70
     1
102
RTVSPropertyOp25
 70
     1
102
RTVSPropertyOp26
 70
     1
102
RTVSPropertyOp27
 70
     1
  0
XRECORD
  5
105
102
{ACAD_REACTORS
330
104
102
}
330
104
100
AcDbXrecord
280
     1
102
RTVSPropertyOp0
 70
     1
102
RTVSPropertyOp1
 70
     1
102
RTVSPropertyOp2
 70
     1
102
RTVSPropertyOp3
 70
     1
102
RTVSPropertyOp4
 70
     1
102
RTVSPropertyOp5
 70
     1
102
RTVSPropertyOp6
 70
     1
102
RTVSPropertyOp7
 70
     1
102
RTVSPropertyOp8
 70
     1
102
RTVSPropertyOp9
 70
     1
102
RTVSPropertyOp10
 70
     1
102
RTVSPropertyOp11
 70
     1
102
RTVSPropertyOp12
 70
     1
102
RTVSPropertyOp13
 70
     1
102
RTVSPropertyOp14
 70
     1
102
RTVSPropertyOp15
 70
     1
102
RTVSPropertyOp16
 70
     1
102
RTVSPropertyOp17
 70
     1
102
RTVSPropertyOp18
 70
     1
102
RTVSPropertyOp19
 70
     1
102
RTVSPropertyOp20
 70
     1
102
RTVSPropertyOp21
 70
     1
102
RTVSPropertyOp22
 70
     1
102
RTVSPropertyOp23
 70
     1
102
RTVSPropertyOp24
 70
     1
102
RTVSPropertyOp25
 70
     1
102
RTVSPropertyOp26
 70
     1
102
RTVSPropertyOp27
 70
     1
  0
XRECORD
  5
109
102
{ACAD_REACTORS
330
108
102
}
330
108
100
AcDbXrecord
280
     1
102
RTVSPropertyOp0
 70
     1
102
RTVSPropertyOp1
 70
     1
102
RTVSPropertyOp2
 70
     1
102
RTVSPropertyOp3
 70
     1
102
RTVSPropertyOp4
 70
     1
102
RTVSPropertyOp5
 70
     1
102
RTVSPropertyOp6
 70
     1
102
RTVSPropertyOp7
 70
     1
102
RTVSPropertyOp8
 70
     1
102
RTVSPropertyOp9
 70
     1
102
RTVSPropertyOp10
 70
     1
102
RTVSPropertyOp11
 70
     1
102
RTVSPropertyOp12
 70
     1
102
RTVSPropertyOp13
 70
     1
102
RTVSPropertyOp14
 70
     1
102
RTVSPropertyOp15
 70
     1
102
RTVSPropertyOp16
 70
     1
102
RTVSPropertyOp17
 70
     1
102
RTVSPropertyOp18
 70
     1
102
RTVSPropertyOp19
 70
     1
102
RTVSPropertyOp20
 70
     1
102
RTVSPropertyOp21
 70
     1
102
RTVSPropertyOp22
 70
     1
102
RTVSPropertyOp23
 70
     1
102
RTVSPropertyOp24
 70
     1
102
RTVSPropertyOp25
 70
     1
102
RTVSPropertyOp26
 70
     1
102
RTVSPropertyOp27
 70
     1
  0
XRECORD
  5
111
102
{ACAD_REACTORS
330
110
102
}
330
110
100
AcDbXrecord
280
     1
102
RTVSPropertyOp0
 70
     1
102
RTVSPropertyOp1
 70
     1
102
RTVSPropertyOp2
 70
     1
102
RTVSPropertyOp3
 70
     1
102
RTVSPropertyOp4
 70
     1
102
RTVSPropertyOp5
 70
     1
102
RTVSPropertyOp6
 70
     1
102
RTVSPropertyOp7
 70
     1
102
RTVSPropertyOp8
 70
     1
102
RTVSPropertyOp9
 70
     1
102
RTVSPropertyOp10
 70
     1
102
RTVSPropertyOp11
 70
     1
102
RTVSPropertyOp12
 70
     1
102
RTVSPropertyOp13
 70
     1
102
RTVSPropertyOp14
 70
     1
102
RTVSPropertyOp15
 70
     1
102
RTVSPropertyOp16
 70
     1
102
RTVSPropertyOp17
 70
     1
102
RTVSPropertyOp18
 70
     1
102
RTVSPropertyOp19
 70
     1
102
RTVSPropertyOp20
 70
     1
102
RTVSPropertyOp21
 70
     1
102
RTVSPropertyOp22
 70
     1
102
RTVSPropertyOp23
 70
     1
102
RTVSPropertyOp24
 70
     1
102
RTVSPropertyOp25
 70
     1
102
RTVSPropertyOp26
 70
     1
102
RTVSPropertyOp27
 70
     1
  0
XRECORD
  5
119
102
{ACAD_REACTORS
330
118
102
}
330
118
100
AcDbXrecord
280
     1
102
RTVSPropertyOp0
 70
     1
102
RTVSPropertyOp1
 70
     1
102
RTVSPropertyOp2
 70
     1
102
RTVSPropertyOp3
 70
     1
102
RTVSPropertyOp4
 70
     1
102
RTVSPropertyOp5
 70
     1
102
RTVSPropertyOp6
 70
     1
102
RTVSPropertyOp7
 70
     1
102
RTVSPropertyOp8
 70
     1
102
RTVSPropertyOp9
 70
     1
102
RTVSPropertyOp10
 70
     1
102
RTVSPropertyOp11
 70
     1
102
RTVSPropertyOp12
 70
     1
102
RTVSPropertyOp13
 70
     1
102
RTVSPropertyOp14
 70
     1
102
RTVSPropertyOp15
 70
     1
102
RTVSPropertyOp16
 70
     1
102
RTVSPropertyOp17
 70
     1
102
RTVSPropertyOp18
 70
     1
102
RTVSPropertyOp19
 70
     1
102
RTVSPropertyOp20
 70
     1
102
RTVSPropertyOp21
 70
     1
102
RTVSPropertyOp22
 70
     1
102
RTVSPropertyOp23
 70
     1
102
RTVSPropertyOp24
 70
     1
102
RTVSPropertyOp25
 70
     1
102
RTVSPropertyOp26
 70
     1
102
RTVSPropertyOp27
 70
     1
  0
XRECORD
  5
10D
102
{ACAD_REACTORS
330
10C
102
}
330
10C
100
AcDbXrecord
280
     1
102
RTVSPropertyOp0
 70
     1
102
RTVSPropertyOp1
 70
     1
102
RTVSPropertyOp2
 70
     1
102
RTVSPropertyOp3
 70
     1
102
RTVSPropertyOp4
 70
     1
102
RTVSPropertyOp5
 70
     1
102
RTVSPropertyOp6
 70
     1
102
RTVSPropertyOp7
 70
     1
102
RTVSPropertyOp8
 70
     1
102
RTVSPropertyOp9
 70
     1
102
RTVSPropertyOp10
 70
     1
102
RTVSPropertyOp11
 70
     1
102
RTVSPropertyOp12
 70
     1
102
RTVSPropertyOp13
 70
     1
102
RTVSPropertyOp14
 70
     1
102
RTVSPropertyOp15
 70
     1
102
RTVSPropertyOp16
 70
     1
102
RTVSPropertyOp17
 70
     1
102
RTVSPropertyOp18
 70
     1
102
RTVSPropertyOp19
 70
     1
102
RTVSPropertyOp20
 70
     1
102
RTVSPropertyOp21
 70
     1
102
RTVSPropertyOp22
 70
     1
102
RTVSPropertyOp23
 70
     1
102
RTVSPropertyOp24
 70
     1
102
RTVSPropertyOp25
 70
     1
102
RTVSPropertyOp26
 70
     1
102
RTVSPropertyOp27
 70
     1
  0
XRECORD
  5
10F
102
{ACAD_REACTORS
330
10E
102
}
330
10E
100
AcDbXrecord
280
     1
102
RTVSPropertyOp0
 70
     1
102
RTVSPropertyOp1
 70
     1
102
RTVSPropertyOp2
 70
     1
102
RTVSPropertyOp3
 70
     1
102
RTVSPropertyOp4
 70
     1
102
RTVSPropertyOp5
 70
     1
102
RTVSPropertyOp6
 70
     1
102
RTVSPropertyOp7
 70
     1
102
RTVSPropertyOp8
 70
     1
102
RTVSPropertyOp9
 70
     1
102
RTVSPropertyOp10
 70
     1
102
RTVSPropertyOp11
 70
     1
102
RTVSPropertyOp12
 70
     1
102
RTVSPropertyOp13
 70
     1
102
RTVSPropertyOp14
 70
     1
102
RTVSPropertyOp15
 70
     1
102
RTVSPropertyOp16
 70
     1
102
RTVSPropertyOp17
 70
     1
102
RTVSPropertyOp18
 70
     1
102
RTVSPropertyOp19
 70
     1
102
RTVSPropertyOp20
 70
     1
102
RTVSPropertyOp21
 70
     1
102
RTVSPropertyOp22
 70
     1
102
RTVSPropertyOp23
 70
     1
102
RTVSPropertyOp24
 70
     1
102
RTVSPropertyOp25
 70
     1
102
RTVSPropertyOp26
 70
     1
102
RTVSPropertyOp27
 70
     1
  0
XRECORD
  5
117
102
{ACAD_REACTORS
330
116
102
}
330
116
100
AcDbXrecord
280
     1
102
RTVSPropertyOp0
 70
     1
102
RTVSPropertyOp1
 70
     1
102
RTVSPropertyOp2
 70
     1
102
RTVSPropertyOp3
 70
     1
102
RTVSPropertyOp4
 70
     1
102
RTVSPropertyOp5
 70
     1
102
RTVSPropertyOp6
 70
     1
102
RTVSPropertyOp7
 70
     1
102
RTVSPropertyOp8
 70
     1
102
RTVSPropertyOp9
 70
     1
102
RTVSPropertyOp10
 70
     1
102
RTVSPropertyOp11
 70
     1
102
RTVSPropertyOp12
 70
     1
102
RTVSPropertyOp13
 70
     1
102
RTVSPropertyOp14
 70
     1
102
RTVSPropertyOp15
 70
     1
102
RTVSPropertyOp16
 70
     1
102
RTVSPropertyOp17
 70
     1
102
RTVSPropertyOp18
 70
     1
102
RTVSPropertyOp19
 70
     1
102
RTVSPropertyOp20
 70
     1
102
RTVSPropertyOp21
 70
     1
102
RTVSPropertyOp22
 70
     1
102
RTVSPropertyOp23
 70
     1
102
RTVSPropertyOp24
 70
     1
102
RTVSPropertyOp25
 70
     1
102
RTVSPropertyOp26
 70
     1
102
RTVSPropertyOp27
 70
     1
  0
XRECORD
  5
FB
102
{ACAD_REACTORS
330
FA
102
}
330
FA
100
AcDbXrecord
280
     1
102
RTVSPropertyOp0
 70
     1
102
RTVSPropertyOp1
 70
     1
102
RTVSPropertyOp2
 70
     1
102
RTVSPropertyOp3
 70
     1
102
RTVSPropertyOp4
 70
     1
102
RTVSPropertyOp5
 70
     1
102
RTVSPropertyOp6
 70
     1
102
RTVSPropertyOp7
 70
     1
102
RTVSPropertyOp8
 70
     1
102
RTVSPropertyOp9
 70
     1
102
RTVSPropertyOp10
 70
     1
102
RTVSPropertyOp11
 70
     1
102
RTVSPropertyOp12
 70
     1
102
RTVSPropertyOp13
 70
     1
102
RTVSPropertyOp14
 70
     1
102
RTVSPropertyOp15
 70
     1
102
RTVSPropertyOp16
 70
     1
102
RTVSPropertyOp17
 70
     1
102
RTVSPropertyOp18
 70
     1
102
RTVSPropertyOp19
 70
     1
102
RTVSPropertyOp20
 70
     1
102
RTVSPropertyOp21
 70
     1
102
RTVSPropertyOp22
 70
     1
102
RTVSPropertyOp23
 70
     1
102
RTVSPropertyOp24
 70
     1
102
RTVSPropertyOp25
 70
     1
102
RTVSPropertyOp26
 70
     1
102
RTVSPropertyOp27
 70
     1
  0
XRECORD
  5
FD
102
{ACAD_REACTORS
330
FC
102
}
330
FC
100
AcDbXrecord
280
     1
102
RTVSPropertyOp0
 70
     1
102
RTVSPropertyOp1
 70
     1
102
RTVSPropertyOp2
 70
     1
102
RTVSPropertyOp3
 70
     1
102
RTVSPropertyOp4
 70
     1
102
RTVSPropertyOp5
 70
     1
102
RTVSPropertyOp6
 70
     1
102
RTVSPropertyOp7
 70
     1
102
RTVSPropertyOp8
 70
     1
102
RTVSPropertyOp9
 70
     1
102
RTVSPropertyOp10
 70
     1
102
RTVSPropertyOp11
 70
     1
102
RTVSPropertyOp12
 70
     1
102
RTVSPropertyOp13
 70
     1
102
RTVSPropertyOp14
 70
     1
102
RTVSPropertyOp15
 70
     1
102
RTVSPropertyOp16
 70
     1
102
RTVSPropertyOp17
 70
     1
102
RTVSPropertyOp18
 70
     1
102
RTVSPropertyOp19
 70
     1
102
RTVSPropertyOp20
 70
     1
102
RTVSPropertyOp21
 70
     1
102
RTVSPropertyOp22
 70
     1
102
RTVSPropertyOp23
 70
     1
102
RTVSPropertyOp24
 70
     1
102
RTVSPropertyOp25
 70
     1
102
RTVSPropertyOp26
 70
     1
102
RTVSPropertyOp27
 70
     1
  0
XRECORD
  5
FF
102
{ACAD_REACTORS
330
FE
102
}
330
FE
100
AcDbXrecord
280
     1
102
RTVSPropertyOp0
 70
     1
102
RTVSPropertyOp1
 70
     1
102
RTVSPropertyOp2
 70
     1
102
RTVSPropertyOp3
 70
     1
102
RTVSPropertyOp4
 70
     1
102
RTVSPropertyOp5
 70
     1
102
RTVSPropertyOp6
 70
     1
102
RTVSPropertyOp7
 70
     1
102
RTVSPropertyOp8
 70
     1
102
RTVSPropertyOp9
 70
     1
102
RTVSPropertyOp10
 70
     1
102
RTVSPropertyOp11
 70
     1
102
RTVSPropertyOp12
 70
     1
102
RTVSPropertyOp13
 70
     1
102
RTVSPropertyOp14
 70
     1
102
RTVSPropertyOp15
 70
     1
102
RTVSPropertyOp16
 70
     1
102
RTVSPropertyOp17
 70
     1
102
RTVSPropertyOp18
 70
     1
102
RTVSPropertyOp19
 70
     1
102
RTVSPropertyOp20
 70
     1
102
RTVSPropertyOp21
 70
     1
102
RTVSPropertyOp22
 70
     1
102
RTVSPropertyOp23
 70
     1
102
RTVSPropertyOp24
 70
     1
102
RTVSPropertyOp25
 70
     1
102
RTVSPropertyOp26
 70
     1
102
RTVSPropertyOp27
 70
     1
  0
XRECORD
  5
101
102
{ACAD_REACTORS
330
100
102
}
330
100
100
AcDbXrecord
280
     1
102
RTVSPropertyOp0
 70
     1
102
RTVSPropertyOp1
 70
     1
102
RTVSPropertyOp2
 70
     1
102
RTVSPropertyOp3
 70
     1
102
RTVSPropertyOp4
 70
     1
102
RTVSPropertyOp5
 70
     1
102
RTVSPropertyOp6
 70
     1
102
RTVSPropertyOp7
 70
     1
102
RTVSPropertyOp8
 70
     1
102
RTVSPropertyOp9
 70
     1
102
RTVSPropertyOp10
 70
     1
102
RTVSPropertyOp11
 70
     1
102
RTVSPropertyOp12
 70
     1
102
RTVSPropertyOp13
 70
     1
102
RTVSPropertyOp14
 70
     1
102
RTVSPropertyOp15
 70
     1
102
RTVSPropertyOp16
 70
     1
102
RTVSPropertyOp17
 70
     1
102
RTVSPropertyOp18
 70
     1
102
RTVSPropertyOp19
 70
     1
102
RTVSPropertyOp20
 70
     1
102
RTVSPropertyOp21
 70
     1
102
RTVSPropertyOp22
 70
     1
102
RTVSPropertyOp23
 70
     1
102
RTVSPropertyOp24
 70
     1
102
RTVSPropertyOp25
 70
     1
102
RTVSPropertyOp26
 70
     1
102
RTVSPropertyOp27
 70
     1
  0
XRECORD
  5
115
102
{ACAD_REACTORS
330
114
102
}
330
114
100
AcDbXrecord
280
     1
102
RTVSPropertyOp0
 70
     1
102
RTVSPropertyOp1
 70
     1
102
RTVSPropertyOp2
 70
     1
102
RTVSPropertyOp3
 70
     1
102
RTVSPropertyOp4
 70
     1
102
RTVSPropertyOp5
 70
     1
102
RTVSPropertyOp6
 70
     1
102
RTVSPropertyOp7
 70
     1
102
RTVSPropertyOp8
 70
     1
102
RTVSPropertyOp9
 70
     1
102
RTVSPropertyOp10
 70
     1
102
RTVSPropertyOp11
 70
     1
102
RTVSPropertyOp12
 70
     1
102
RTVSPropertyOp13
 70
     1
102
RTVSPropertyOp14
 70
     1
102
RTVSPropertyOp15
 70
     1
102
RTVSPropertyOp16
 70
     1
102
RTVSPropertyOp17
 70
     1
102
RTVSPropertyOp18
 70
     1
102
RTVSPropertyOp19
 70
     1
102
RTVSPropertyOp20
 70
     1
102
RTVSPropertyOp21
 70
     1
102
RTVSPropertyOp22
 70
     1
102
RTVSPropertyOp23
 70
     1
102
RTVSPropertyOp24
 70
     1
102
RTVSPropertyOp25
 70
     1
102
RTVSPropertyOp26
 70
     1
102
RTVSPropertyOp27
 70
     1
  0
XRECORD
  5
10B
102
{ACAD_REACTORS
330
10A
102
}
330
10A
100
AcDbXrecord
280
     1
102
RTVSPropertyOp0
 70
     1
102
RTVSPropertyOp1
 70
     1
102
RTVSPropertyOp2
 70
     1
102
RTVSPropertyOp3
 70
     1
102
RTVSPropertyOp4
 70
     1
102
RTVSPropertyOp5
 70
     1
102
RTVSPropertyOp6
 70
     1
102
RTVSPropertyOp7
 70
     1
102
RTVSPropertyOp8
 70
     1
102
RTVSPropertyOp9
 70
     1
102
RTVSPropertyOp10
 70
     1
102
RTVSPropertyOp11
 70
     1
102
RTVSPropertyOp12
 70
     1
102
RTVSPropertyOp13
 70
     1
102
RTVSPropertyOp14
 70
     1
102
RTVSPropertyOp15
 70
     1
102
RTVSPropertyOp16
 70
     1
102
RTVSPropertyOp17
 70
     1
102
RTVSPropertyOp18
 70
     1
102
RTVSPropertyOp19
 70
     1
102
RTVSPropertyOp20
 70
     1
102
RTVSPropertyOp21
 70
     1
102
RTVSPropertyOp22
 70
     1
102
RTVSPropertyOp23
 70
     1
102
RTVSPropertyOp24
 70
     1
102
RTVSPropertyOp25
 70
     1
102
RTVSPropertyOp26
 70
     1
102
RTVSPropertyOp27
 70
     1
  0
XRECORD
  5
113
102
{ACAD_REACTORS
330
112
102
}
330
112
100
AcDbXrecord
280
     1
102
RTVSPropertyOp0
 70
     1
102
RTVSPropertyOp1
 70
     1
102
RTVSPropertyOp2
 70
     1
102
RTVSPropertyOp3
 70
     1
102
RTVSPropertyOp4
 70
     1
102
RTVSPropertyOp5
 70
     1
102
RTVSPropertyOp6
 70
     1
102
RTVSPropertyOp7
 70
     1
102
RTVSPropertyOp8
 70
     1
102
RTVSPropertyOp9
 70
     1
102
RTVSPropertyOp10
 70
     1
102
RTVSPropertyOp11
 70
     1
102
RTVSPropertyOp12
 70
     1
102
RTVSPropertyOp13
 70
     1
102
RTVSPropertyOp14
 70
     1
102
RTVSPropertyOp15
 70
     1
102
RTVSPropertyOp16
 70
     1
102
RTVSPropertyOp17
 70
     1
102
RTVSPropertyOp18
 70
     1
102
RTVSPropertyOp19
 70
     1
102
RTVSPropertyOp20
 70
     1
102
RTVSPropertyOp21
 70
     1
102
RTVSPropertyOp22
 70
     1
102
RTVSPropertyOp23
 70
     1
102
RTVSPropertyOp24
 70
     1
102
RTVSPropertyOp25
 70
     1
102
RTVSPropertyOp26
 70
     1
102
RTVSPropertyOp27
 70
     1
  0
ENDSEC
  0
EOF
