  0
SECTION
  2
HEADER
  9
$ACADVER
  1
AC1015
  9
$ACADMAINTVER
 70
     6
  9
$DWGCODEPAGE
  3
ANSI_1250
  9
$INSBASE
 10
0.0
 20
0.0
 30
0.0
  9
$EXTMIN
 10
-16.8381
 20
-24.9261
 30
0.0
  9
$EXTMAX
 10
16.7752
 20
24.8726
 30
0.0
  9
$LIMMIN
 10
0.0
 20
0.0
  9
$LIMMAX
 10
12.0
 20
9.0
  9
$ORTHOMODE
 70
     0
  9
$REGENMODE
 70
     1
  9
$FILLMODE
 70
     1
  9
$QTEXTMODE
 70
     0
  9
$MIRRTEXT
 70
     1
  9
$LTSCALE
 40
1.0
  9
$ATTMODE
 70
     1
  9
$TEXTSIZE
 40
0.2
  9
$TRACEWID
 40
0.05
  9
$TEXTSTYLE
  7
Standard
  9
$CLAYER
  8
0
  9
$CELTYPE
  6
ByLayer
  9
$CECOLOR
 62
   256
  9
$CELTSCALE
 40
1.0
  9
$DISPSILH
 70
     0
  9
$DIMSCALE
 40
1.0
  9
$DIMASZ
 40
0.18
  9
$DIMEXO
 40
0.0625
  9
$DIMDLI
 40
0.38
  9
$DIMRND
 40
0.0
  9
$DIMDLE
 40
0.0
  9
$DIMEXE
 40
0.18
  9
$DIMTP
 40
0.0
  9
$DIMTM
 40
0.0
  9
$DIMTXT
 40
0.18
  9
$DIMCEN
 40
0.09
  9
$DIMTSZ
 40
0.0
  9
$DIMTOL
 70
     0
  9
$DIMLIM
 70
     0
  9
$DIMTIH
 70
     1
  9
$DIMTOH
 70
     1
  9
$DIMSE1
 70
     0
  9
$DIMSE2
 70
     0
  9
$DIMTAD
 70
     0
  9
$DIMZIN
 70
     0
  9
$DIMBLK
  1

  9
$DIMASO
 70
     1
  9
$DIMSHO
 70
     1
  9
$DIMPOST
  1

  9
$DIMAPOST
  1

  9
$DIMALT
 70
     0
  9
$DIMALTD
 70
     2
  9
$DIMALTF
 40
25.4
  9
$DIMLFAC
 40
1.0
  9
$DIMTOFL
 70
     0
  9
$DIMTVP
 40
0.0
  9
$DIMTIX
 70
     0
  9
$DIMSOXD
 70
     0
  9
$DIMSAH
 70
     0
  9
$DIMBLK1
  1

  9
$DIMBLK2
  1

  9
$DIMSTYLE
  2
Standard
  9
$DIMCLRD
 70
     0
  9
$DIMCLRE
 70
     0
  9
$DIMCLRT
 70
     0
  9
$DIMTFAC
 40
1.0
  9
$DIMGAP
 40
0.09
  9
$DIMJUST
 70
     0
  9
$DIMSD1
 70
     0
  9
$DIMSD2
 70
     0
  9
$DIMTOLJ
 70
     1
  9
$DIMTZIN
 70
     0
  9
$DIMALTZ
 70
     0
  9
$DIMALTTZ
 70
     0
  9
$DIMUPT
 70
     0
  9
$DIMDEC
 70
     4
  9
$DIMTDEC
 70
     4
  9
$DIMALTU
 70
     2
  9
$DIMALTTD
 70
     2
  9
$DIMTXSTY
  7
Standard
  9
$DIMAUNIT
 70
     0
  9
$DIMADEC
 70
     0
  9
$DIMALTRND
 40
0.0
  9
$DIMAZIN
 70
     0
  9
$DIMDSEP
 70
    46
  9
$DIMATFIT
 70
     3
  9
$DIMFRAC
 70
     0
  9
$DIMLDRBLK
  1

  9
$DIMLUNIT
 70
     2
  9
$DIMLWD
 70
    -2
  9
$DIMLWE
 70
    -2
  9
$DIMTMOVE
 70
     0
  9
$LUNITS
 70
     2
  9
$LUPREC
 70
     4
  9
$SKETCHINC
 40
0.1
  9
$FILLETRAD
 40
0.5
  9
$AUNITS
 70
     0
  9
$AUPREC
 70
     0
  9
$MENU
  1
.
  9
$ELEVATION
 40
0.0
  9
$PELEVATION
 40
0.0
  9
$THICKNESS
 40
0.0
  9
$LIMCHECK
 70
     0
  9
$CHAMFERA
 40
0.5
  9
$CHAMFERB
 40
0.5
  9
$CHAMFERC
 40
1.0
  9
$CHAMFERD
 40
0.0
  9
$SKPOLY
 70
     0
  9
$TDCREATE
 40
2457637.366581887
  9
$TDUCREATE
 40
2457637.283248553
  9
$TDUPDATE
 40
2457637.366581898
  9
$TDUUPDATE
 40
2457637.283248565
  9
$TDINDWG
 40
0.0000000116
  9
$TDUSRTIMER
 40
0.0000000116
  9
$USRTIMER
 70
     1
  9
$ANGBASE
 50
0.0
  9
$ANGDIR
 70
     0
  9
$PDMODE
 70
     0
  9
$PDSIZE
 40
0.0
  9
$PLINEWID
 40
0.0
  9
$SPLFRAME
 70
     0
  9
$SPLINETYPE
 70
     6
  9
$SPLINESEGS
 70
     8
  9
$HANDSEED
  5
133
  9
$SURFTAB1
 70
     6
  9
$SURFTAB2
 70
     6
  9
$SURFTYPE
 70
     6
  9
$SURFU
 70
     6
  9
$SURFV
 70
     6
  9
$UCSBASE
  2

  9
$UCSNAME
  2

  9
$UCSORG
 10
0.0
 20
0.0
 30
0.0
  9
$UCSXDIR
 10
1.0
 20
0.0
 30
0.0
  9
$UCSYDIR
 10
0.0
 20
1.0
 30
0.0
  9
$UCSORTHOREF
  2

  9
$UCSORTHOVIEW
 70
     0
  9
$UCSORGTOP
 10
0.0
 20
0.0
 30
0.0
  9
$UCSORGBOTTOM
 10
0.0
 20
0.0
 30
0.0
  9
$UCSORGLEFT
 10
0.0
 20
0.0
 30
0.0
  9
$UCSORGRIGHT
 10
0.0
 20
0.0
 30
0.0
  9
$UCSORGFRONT
 10
0.0
 20
0.0
 30
0.0
  9
$UCSORGBACK
 10
0.0
 20
0.0
 30
0.0
  9
$PUCSBASE
  2

  9
$PUCSNAME
  2

  9
$PUCSORG
 10
0.0
 20
0.0
 30
0.0
  9
$PUCSXDIR
 10
1.0
 20
0.0
 30
0.0
  9
$PUCSYDIR
 10
0.0
 20
1.0
 30
0.0
  9
$PUCSORTHOREF
  2

  9
$PUCSORTHOVIEW
 70
     0
  9
$PUCSORGTOP
 10
0.0
 20
0.0
 30
0.0
  9
$PUCSORGBOTTOM
 10
0.0
 20
0.0
 30
0.0
  9
$PUCSORGLEFT
 10
0.0
 20
0.0
 30
0.0
  9
$PUCSORGRIGHT
 10
0.0
 20
0.0
 30
0.0
  9
$PUCSORGFRONT
 10
0.0
 20
0.0
 30
0.0
  9
$PUCSORGBACK
 10
0.0
 20
0.0
 30
0.0
  9
$USERI1
 70
     0
  9
$USERI2
 70
     0
  9
$USERI3
 70
     0
  9
$USERI4
 70
     0
  9
$USERI5
 70
     0
  9
$USERR1
 40
0.0
  9
$USERR2
 40
0.0
  9
$USERR3
 40
0.0
  9
$USERR4
 40
0.0
  9
$USERR5
 40
0.0
  9
$WORLDVIEW
 70
     1
  9
$SHADEDGE
 70
     3
  9
$SHADEDIF
 70
    70
  9
$TILEMODE
 70
     1
  9
$MAXACTVP
 70
    64
  9
$PINSBASE
 10
0.0
 20
0.0
 30
0.0
  9
$PLIMCHECK
 70
     0
  9
$PEXTMIN
 10
1.000000000000000E+20
 20
1.000000000000000E+20
 30
1.000000000000000E+20
  9
$PEXTMAX
 10
-1.000000000000000E+20
 20
-1.000000000000000E+20
 30
-1.000000000000000E+20
  9
$PLIMMIN
 10
0.0
 20
0.0
  9
$PLIMMAX
 10
12.0
 20
9.0
  9
$UNITMODE
 70
     0
  9
$VISRETAIN
 70
     1
  9
$PLINEGEN
 70
     0
  9
$PSLTSCALE
 70
     1
  9
$TREEDEPTH
 70
  3020
  9
$CMLSTYLE
  2
Standard
  9
$CMLJUST
 70
     0
  9
$CMLSCALE
 40
1.0
  9
$PROXYGRAPHICS
 70
     1
  9
$MEASUREMENT
 70
     0
  9
$CELWEIGHT
370
    -1
  9
$ENDCAPS
280
     0
  9
$JOINSTYLE
280
     0
  9
$LWDISPLAY
290
     0
  9
$INSUNITS
 70
     4
  9
$HYPERLINKBASE
  1

  9
$STYLESHEET
  1

  9
$XEDIT
290
     1
  9
$CEPSNTYPE
380
     0
  9
$PSTYLEMODE
290
     1
  9
$FINGERPRINTGUID
  2
{B7037675-C622-4621-8FB4-5BE1CD56F678}
  9
$VERSIONGUID
  2
{FAEB1C32-E019-11D5-929B-00C0DF256EC4}
  9
$EXTNAMES
290
     1
  9
$PSVPSCALE
 40
0.0
  9
$OLESTARTUP
290
     0
  0
ENDSEC
  0
SECTION
  2
CLASSES
  0
CLASS
  1
ACDBDICTIONARYWDFLT
  2
AcDbDictionaryWithDefault
  3
ObjectDBX Classes
 90
        0
280
     0
281
     0
  0
CLASS
  1
VISUALSTYLE
  2
AcDbVisualStyle
  3
ObjectDBX Classes
 90
     4095
280
     0
281
     0
  0
CLASS
  1
MATERIAL
  2
AcDbMaterial
  3
ObjectDBX Classes
 90
     1153
280
     0
281
     0
  0
CLASS
  1
DICTIONARYVAR
  2
AcDbDictionaryVar
  3
ObjectDBX Classes
 90
        0
280
     0
281
     0
  0
CLASS
  1
ACDBPLACEHOLDER
  2
AcDbPlaceHolder
  3
ObjectDBX Classes
 90
        0
280
     0
281
     0
  0
CLASS
  1
LAYOUT
  2
AcDbLayout
  3
ObjectDBX Classes
 90
        0
280
     0
281
     0
  0
ENDSEC
  0
SECTION
  2
TABLES
  0
TABLE
  2
VPORT
  5
8
330
0
100
AcDbSymbolTable
 70
     1
  0
VPORT
  5
29
330
8
100
AcDbSymbolTableRecord
100
AcDbViewportTableRecord
  2
*Active
 70
     0
 10
0.0
 20
0.0
 11
1.0
 21
1.0
 12
10.42990654205607
 22
4.5
 13
0.0
 23
0.0
 14
0.5
 24
0.5
 15
0.5
 25
0.5
 16
0.0
 26
0.0
 36
1.0
 17
0.0
 27
0.0
 37
0.0
 40
9.0
 41
1.972972972850329
 42
50.0
 43
0.0
 44
0.0
 50
0.0
 51
0.0
 71
     0
 72
   100
 73
     1
 74
     3
 75
     0
 76
     0
 77
     0
 78
     0
281
     0
 65
     1
110
0.0
120
0.0
130
0.0
111
1.0
121
0.0
131
0.0
112
0.0
122
1.0
132
0.0
 79
     0
146
0.0
  0
ENDTAB
  0
TABLE
  2
LTYPE
  5
5
330
0
100
AcDbSymbolTable
 70
     3
  0
LTYPE
  5
14
330
5
100
AcDbSymbolTableRecord
100
AcDbLinetypeTableRecord
  2
ByBlock
 70
     0
  3

 72
    65
 73
     0
 40
0.0
  0
LTYPE
  5
15
330
5
100
AcDbSymbolTableRecord
100
AcDbLinetypeTableRecord
  2
ByLayer
 70
     0
  3

 72
    65
 73
     0
 40
0.0
  0
LTYPE
  5
16
330
5
100
AcDbSymbolTableRecord
100
AcDbLinetypeTableRecord
  2
Continuous
 70
     0
  3
Solid line
 72
    65
 73
     0
 40
0.0
  0
LTYPE
  5
6C
330
5
100
AcDbSymbolTableRecord
100
AcDbLinetypeTableRecord
  2
New Line1
 70
     0
  3

 72
    65
 73
     4
 40
1.2
 49
0.5
 74
     4
 75
     0
340
0
 46
1.0
 50
0.0
 44
0.0
 45
0.0
 49
-0.3
 74
     4
 75
     0
340
0
 46
1.0
 50
0.0
 44
0.0
 45
0.0
 49
0.1
 74
     4
 75
     0
340
0
 46
1.0
 50
0.0
 44
0.0
 45
0.0
 49
-0.3
 74
     4
 75
     0
340
0
 46
1.0
 50
0.0
 44
0.0
 45
0.0
  0
LTYPE
  5
6E
330
5
100
AcDbSymbolTableRecord
100
AcDbLinetypeTableRecord
  2
New Line2
 70
     0
  3

 72
    65
 73
     4
 40
1.2
 49
0.5
 74
     4
 75
     0
340
0
 46
1.0
 50
0.0
 44
0.0
 45
0.0
 49
-0.3
 74
     4
 75
     0
340
0
 46
1.0
 50
0.0
 44
0.0
 45
0.0
 49
0.1
 74
     4
 75
     0
340
0
 46
1.0
 50
0.0
 44
0.0
 45
0.0
 49
-0.3
 74
     4
 75
     0
340
0
 46
1.0
 50
0.0
 44
0.0
 45
0.0
  0
ENDTAB
  0
TABLE
  2
LAYER
  5
2
330
0
100
AcDbSymbolTable
 70
     2
  0
LAYER
  5
10
330
2
100
AcDbSymbolTableRecord
100
AcDbLayerTableRecord
  2
0
 70
     0
 62
     7
  6
Continuous
370
    -3
390
F
  0
LAYER
  5
40
330
2
100
AcDbSymbolTableRecord
100
AcDbLayerTableRecord
  2
Ilustrace
 70
     0
 62
     7
  6
Continuous
370
    -3
390
F
  0
ENDTAB
  0
TABLE
  2
STYLE
  5
3
330
0
100
AcDbSymbolTable
 70
     1
  0
STYLE
  5
11
330
3
100
AcDbSymbolTableRecord
100
AcDbTextStyleTableRecord
  2
Standard
 70
     0
 40
0.0
 41
1.0
 50
0.0
 71
     0
 42
0.2
  3
txt
  4

  0
ENDTAB
  0
TABLE
  2
VIEW
  5
6
330
0
100
AcDbSymbolTable
 70
     0
  0
ENDTAB
  0
TABLE
  2
UCS
  5
7
330
0
100
AcDbSymbolTable
 70
     0
  0
ENDTAB
  0
TABLE
  2
APPID
  5
9
330
0
100
AcDbSymbolTable
 70
     2
  0
APPID
  5
12
330
9
100
AcDbSymbolTableRecord
100
AcDbRegAppTableRecord
  2
ACAD
 70
     0
  0
APPID
  5
3F
330
9
100
AcDbSymbolTableRecord
100
AcDbRegAppTableRecord
  2
ODA
 70
     0
  0
ENDTAB
  0
TABLE
  2
DIMSTYLE
  5
A
330
0
100
AcDbSymbolTable
 70
     1
100
AcDbDimStyleTable
  0
DIMSTYLE
105
27
330
A
100
AcDbSymbolTableRecord
100
AcDbDimStyleTableRecord
  2
Standard
 70
     0
340
11
  0
ENDTAB
  0
TABLE
  2
BLOCK_RECORD
  5
1
330
0
100
AcDbSymbolTable
 70
     1
  0
BLOCK_RECORD
  5
1F
330
1
100
AcDbSymbolTableRecord
100
AcDbBlockTableRecord
  2
*Model_Space
340
22
  0
BLOCK_RECORD
  5
1B
330
1
100
AcDbSymbolTableRecord
100
AcDbBlockTableRecord
  2
*Paper_Space
340
1E
  0
BLOCK_RECORD
  5
23
330
1
100
AcDbSymbolTableRecord
100
AcDbBlockTableRecord
  2
*Paper_Space0
340
26
  0
ENDTAB
  0
ENDSEC
  0
SECTION
  2
BLOCKS
  0
BLOCK
  5
20
330
1F
100
AcDbEntity
  8
0
100
AcDbBlockBegin
  2
*Model_Space
 70
     0
 10
0.0
 20
0.0
 30
0.0
  3
*Model_Space
  1

  0
ENDBLK
  5
21
330
1F
100
AcDbEntity
  8
0
100
AcDbBlockEnd
  0
BLOCK
  5
1C
330
1B
100
AcDbEntity
 67
     1
  8
0
100
AcDbBlockBegin
  2
*Paper_Space
 70
     0
 10
0.0
 20
0.0
 30
0.0
  3
*Paper_Space
  1

  0
ENDBLK
  5
1D
330
1B
100
AcDbEntity
 67
     1
  8
0
100
AcDbBlockEnd
  0
BLOCK
  5
24
330
23
100
AcDbEntity
  8
0
100
AcDbBlockBegin
  2
*Paper_Space0
 70
     0
 10
0.0
 20
0.0
 30
0.0
  3
*Paper_Space0
  1

  0
ENDBLK
  5
25
330
23
100
AcDbEntity
  8
0
100
AcDbBlockEnd
  0
ENDSEC
  0
SECTION
  2
ENTITIES
  0
SPLINE
  5
41
330
1F
100
AcDbEntity
  8
Ilustrace
 62
   250
370
    15
100
AcDbSpline
210
0.0
220
0.0
230
1.0
 70
    24
 71
     3
 72
     8
 73
     4
 74
     0
 42
0.0000000001
 43
0.0000000001
 40
0.0
 40
0.0
 40
0.0
 40
0.0
 40
1.0
 40
1.0
 40
1.0
 40
1.0
 10
7.5611
 20
11.4331
 30
0.0
 10
7.5611
 20
11.4331
 30
0.0
 10
7.5611
 20
17.9432
 30
0.0
 10
7.5611
 20
17.9432
 30
0.0
  0
SPLINE
  5
42
330
1F
100
AcDbEntity
  8
Ilustrace
 62
   250
370
    15
100
AcDbSpline
210
0.0
220
0.0
230
1.0
 70
    24
 71
     3
 72
     8
 73
     4
 74
     0
 42
0.0000000001
 43
0.0000000001
 40
0.0
 40
0.0
 40
0.0
 40
0.0
 40
1.0
 40
1.0
 40
1.0
 40
1.0
 10
3.338
 20
-20.9716
 30
0.0
 10
3.338
 20
-20.9716
 30
0.0
 10
3.338
 20
-11.6083
 30
0.0
 10
3.338
 20
-11.6083
 30
0.0
  0
SPLINE
  5
43
330
1F
100
AcDbEntity
  8
Ilustrace
 62
   250
370
    15
100
AcDbSpline
210
0.0
220
0.0
230
1.0
 70
    24
 71
     3
 72
     8
 73
     4
 74
     0
 42
0.0000000001
 43
0.0000000001
 40
0.0
 40
0.0
 40
0.0
 40
0.0
 40
1.0
 40
1.0
 40
1.0
 40
1.0
 10
4.3362
 20
-24.8323
 30
0.0
 10
4.3362
 20
-24.8323
 30
0.0
 10
4.3362
 20
-6.9391
 30
0.0
 10
4.3362
 20
-6.9391
 30
0.0
  0
SPLINE
  5
44
330
1F
100
AcDbEntity
  8
Ilustrace
 62
   250
370
    15
100
AcDbSpline
210
0.0
220
0.0
230
1.0
 70
    24
 71
     3
 72
     8
 73
     4
 74
     0
 42
0.0000000001
 43
0.0000000001
 40
0.0
 40
0.0
 40
0.0
 40
0.0
 40
1.0
 40
1.0
 40
1.0
 40
1.0
 10
-6.2742
 20
1.2632
 30
0.0
 10
-6.2742
 20
1.2632
 30
0.0
 10
-6.2742
 20
13.5497
 30
0.0
 10
-6.2742
 20
13.5497
 30
0.0
  0
SPLINE
  5
45
330
1F
100
AcDbEntity
  8
Ilustrace
 62
   250
370
    15
100
AcDbSpline
210
0.0
220
0.0
230
1.0
 70
    24
 71
     3
 72
     8
 73
     4
 74
     0
 42
0.0000000001
 43
0.0000000001
 40
0.0
 40
0.0
 40
0.0
 40
0.0
 40
1.0
 40
1.0
 40
1.0
 40
1.0
 10
-2.349
 20
11.7967
 30
0.0
 10
-2.349
 20
11.7967
 30
0.0
 10
-2.349
 20
13.7646
 30
0.0
 10
-2.349
 20
13.7646
 30
0.0
  0
SPLINE
  5
46
330
1F
100
AcDbEntity
  8
Ilustrace
 62
   250
370
    15
100
AcDbSpline
210
0.0
220
0.0
230
1.0
 70
    24
 71
     3
 72
     8
 73
     4
 74
     0
 42
0.0000000001
 43
0.0000000001
 40
0.0
 40
0.0
 40
0.0
 40
0.0
 40
1.0
 40
1.0
 40
1.0
 40
1.0
 10
2.1863
 20
-16.7961
 30
0.0
 10
2.1863
 20
-16.7961
 30
0.0
 10
2.1863
 20
-12.0984
 30
0.0
 10
2.1863
 20
-12.0984
 30
0.0
  0
SPLINE
  5
47
330
1F
100
AcDbEntity
  8
Ilustrace
 62
   250
370
    15
100
AcDbSpline
210
0.0
220
0.0
230
1.0
 70
    24
 71
     3
 72
     8
 73
     4
 74
     0
 42
0.0000000001
 43
0.0000000001
 40
0.0
 40
0.0
 40
0.0
 40
0.0
 40
1.0
 40
1.0
 40
1.0
 40
1.0
 10
-12.3187
 20
11.2346
 30
0.0
 10
-12.3187
 20
11.2346
 30
0.0
 10
-12.3187
 20
17.9888
 30
0.0
 10
-12.3187
 20
17.9888
 30
0.0
  0
SPLINE
  5
48
330
1F
100
AcDbEntity
  8
Ilustrace
 62
   250
370
    15
100
AcDbSpline
210
0.0
220
0.0
230
1.0
 70
    24
 71
     3
 72
     8
 73
     4
 74
     0
 42
0.0000000001
 43
0.0000000001
 40
0.0
 40
0.0
 40
0.0
 40
0.0
 40
1.0
 40
1.0
 40
1.0
 40
1.0
 10
-15.649
 20
-20.7401
 30
0.0
 10
-15.649
 20
-20.7401
 30
0.0
 10
-15.649
 20
-11.8273
 30
0.0
 10
-15.649
 20
-11.8273
 30
0.0
  0
SPLINE
  5
49
330
1F
100
AcDbEntity
  8
Ilustrace
 62
   250
370
    15
100
AcDbSpline
210
0.0
220
0.0
230
1.0
 70
    24
 71
     3
 72
     8
 73
     4
 74
     0
 42
0.0000000001
 43
0.0000000001
 40
0.0
 40
0.0
 40
0.0
 40
0.0
 40
1.0
 40
1.0
 40
1.0
 40
1.0
 10
-16.7675
 20
-24.7004
 30
0.0
 10
-16.7675
 20
-24.7004
 30
0.0
 10
-16.7675
 20
-6.6618
 30
0.0
 10
-16.7675
 20
-6.6618
 30
0.0
  0
SPLINE
  5
4A
330
1F
100
AcDbEntity
  8
Ilustrace
 62
   250
370
    15
100
AcDbSpline
210
0.0
220
0.0
230
1.0
 70
    24
 71
     3
 72
     8
 73
     4
 74
     0
 42
0.0000000001
 43
0.0000000001
 40
0.0
 40
0.0
 40
0.0
 40
0.0
 40
1.0
 40
1.0
 40
1.0
 40
1.0
 10
-14.6179
 20
-16.788
 30
0.0
 10
-14.6179
 20
-16.788
 30
0.0
 10
-14.6179
 20
-12.1189
 30
0.0
 10
-14.6179
 20
-12.1189
 30
0.0
  0
SPLINE
  5
4B
330
1F
100
AcDbEntity
  8
Ilustrace
 62
   250
370
    15
100
AcDbSpline
210
0.0
220
0.0
230
1.0
 70
    24
 71
     3
 72
     8
 73
     4
 74
     0
 42
0.0000000001
 43
0.0000000001
 40
0.0
 40
0.0
 40
0.0
 40
0.0
 40
1.0
 40
1.0
 40
1.0
 40
1.0
 10
-11.6855
 20
17.6436
 30
0.0
 10
-11.6855
 20
17.6436
 30
0.0
 10
7.034
 20
17.6436
 30
0.0
 10
7.034
 20
17.6436
 30
0.0
  0
SPLINE
  5
4C
330
1F
100
AcDbEntity
  8
Ilustrace
 62
   250
370
    15
100
AcDbSpline
210
0.0
220
0.0
230
1.0
 70
    24
 71
     3
 72
     8
 73
     4
 74
     0
 42
0.0000000001
 43
0.0000000001
 40
0.0
 40
0.0
 40
0.0
 40
0.0
 40
1.0
 40
1.0
 40
1.0
 40
1.0
 10
-14.1349
 20
-16.4389
 30
0.0
 10
-14.1349
 20
-16.4389
 30
0.0
 10
1.4009
 20
-16.4389
 30
0.0
 10
1.4009
 20
-16.4389
 30
0.0
  0
SPLINE
  5
4D
330
1F
100
AcDbEntity
  8
Ilustrace
 62
   250
370
    15
100
AcDbSpline
210
0.0
220
0.0
230
1.0
 70
    24
 71
     3
 72
     8
 73
     4
 74
     0
 42
0.0000000001
 43
0.0000000001
 40
0.0
 40
0.0
 40
0.0
 40
0.0
 40
1.0
 40
1.0
 40
1.0
 40
1.0
 10
-8.5917
 20
13.3117
 30
0.0
 10
-8.5917
 20
13.3117
 30
0.0
 10
0.0401
 20
13.3117
 30
0.0
 10
0.0401
 20
13.3117
 30
0.0
  0
SPLINE
  5
4E
330
1F
100
AcDbEntity
  8
Ilustrace
 62
   250
370
    15
100
AcDbSpline
210
0.0
220
0.0
230
1.0
 70
    24
 71
     3
 72
     8
 73
     4
 74
     0
 42
0.0000000001
 43
0.0000000001
 40
0.0
 40
0.0
 40
0.0
 40
0.0
 40
1.0
 40
1.0
 40
1.0
 40
1.0
 10
10.3686
 20
10.7176
 30
0.0
 10
10.3686
 20
10.7176
 30
0.0
 10
16.7677
 20
10.6831
 30
0.0
 10
16.7677
 20
10.6831
 30
0.0
  0
SPLINE
  5
4F
330
1F
100
AcDbEntity
  8
Ilustrace
 62
   250
370
    15
100
AcDbSpline
210
0.0
220
0.0
230
1.0
 70
    24
 71
     3
 72
     8
 73
     4
 74
     0
 42
0.0000000001
 43
0.0000000001
 40
0.0
 40
0.0
 40
0.0
 40
0.0
 40
1.0
 40
1.0
 40
1.0
 40
1.0
 10
4.5474
 20
-4.6884
 30
0.0
 10
4.5474
 20
-4.6884
 30
0.0
 10
11.8983
 20
-4.7229
 30
0.0
 10
11.8983
 20
-4.7229
 30
0.0
  0
SPLINE
  5
50
330
1F
100
AcDbEntity
  8
Ilustrace
 62
   250
370
    15
100
AcDbSpline
210
0.0
220
0.0
230
1.0
 70
    24
 71
     3
 72
     8
 73
     4
 74
     0
 42
0.0000000001
 43
0.0000000001
 40
0.0
 40
0.0
 40
0.0
 40
0.0
 40
1.0
 40
1.0
 40
1.0
 40
1.0
 10
2.4568
 20
-11.8738
 30
0.0
 10
2.4568
 20
-11.8738
 30
0.0
 10
16.7678
 20
-11.8738
 30
0.0
 10
16.7678
 20
-11.8738
 30
0.0
  0
SPLINE
  5
51
330
1F
100
AcDbEntity
  8
Ilustrace
 62
   250
370
    15
100
AcDbSpline
210
0.0
220
0.0
230
1.0
 70
    24
 71
     3
 72
     8
 73
     4
 74
     0
 42
0.0000000001
 43
0.0000000001
 40
0.0
 40
0.0
 40
0.0
 40
0.0
 40
1.0
 40
1.0
 40
1.0
 40
1.0
 10
16.2695
 20
-11.214
 30
0.0
 10
16.2695
 20
-11.214
 30
0.0
 10
16.2695
 20
10.2562
 30
0.0
 10
16.2695
 20
10.2562
 30
0.0
  0
SPLINE
  5
52
330
1F
100
AcDbEntity
  8
Ilustrace
 62
   250
100
AcDbSpline
210
0.0
220
0.0
230
1.0
 70
    11
 71
     3
 72
   104
 73
   100
 74
     0
 42
0.0000000001
 43
0.0000000001
 40
0.0
 40
0.0
 40
0.0
 40
0.0
 40
0.0384615384615385
 40
0.0384615384615385
 40
0.0384615384615385
 40
0.0384615384615385
 40
0.0769230769230769
 40
0.0769230769230769
 40
0.0769230769230769
 40
0.0769230769230769
 40
0.1153846153846154
 40
0.1153846153846154
 40
0.1153846153846154
 40
0.1153846153846154
 40
0.1538461538461539
 40
0.1538461538461539
 40
0.1538461538461539
 40
0.1538461538461539
 40
0.1923076923076923
 40
0.1923076923076923
 40
0.1923076923076923
 40
0.1923076923076923
 40
0.2307692307692308
 40
0.2307692307692308
 40
0.2307692307692308
 40
0.2307692307692308
 40
0.2692307692307692
 40
0.2692307692307692
 40
0.2692307692307692
 40
0.2692307692307692
 40
0.3076923076923077
 40
0.3076923076923077
 40
0.3076923076923077
 40
0.3076923076923077
 40
0.3461538461538461
 40
0.3461538461538461
 40
0.3461538461538461
 40
0.3461538461538461
 40
0.3846153846153846
 40
0.3846153846153846
 40
0.3846153846153846
 40
0.3846153846153846
 40
0.4230769230769231
 40
0.4230769230769231
 40
0.4230769230769231
 40
0.4230769230769231
 40
0.4615384615384616
 40
0.4615384615384616
 40
0.4615384615384616
 40
0.4615384615384616
 40
0.5
 40
0.5
 40
0.5
 40
0.5
 40
0.5384615384615384
 40
0.5384615384615384
 40
0.5384615384615384
 40
0.5384615384615384
 40
0.5769230769230769
 40
0.5769230769230769
 40
0.5769230769230769
 40
0.5769230769230769
 40
0.6153846153846154
 40
0.6153846153846154
 40
0.6153846153846154
 40
0.6153846153846154
 40
0.6538461538461539
 40
0.6538461538461539
 40
0.6538461538461539
 40
0.6538461538461539
 40
0.6923076923076923
 40
0.6923076923076923
 40
0.6923076923076923
 40
0.6923076923076923
 40
0.7307692307692307
 40
0.7307692307692307
 40
0.7307692307692307
 40
0.7307692307692307
 40
0.7692307692307693
 40
0.7692307692307693
 40
0.7692307692307693
 40
0.7692307692307693
 40
0.8076923076923077
 40
0.8076923076923077
 40
0.8076923076923077
 40
0.8076923076923077
 40
0.8461538461538461
 40
0.8461538461538461
 40
0.8461538461538461
 40
0.8461538461538461
 40
0.8846153846153846
 40
0.8846153846153846
 40
0.8846153846153846
 40
0.8846153846153846
 40
0.9230769230769231
 40
0.9230769230769231
 40
0.9230769230769231
 40
0.9230769230769231
 40
1.0
 40
1.0
 40
1.0
 40
1.0
 10
-9.0224
 20
17.9057
 30
0.0
 10
-9.0224
 20
17.9057
 30
0.0
 10
-8.7779
 20
18.2395
 30
0.0
 10
-8.7779
 20
18.2395
 30
0.0
 10
-8.7779
 20
18.2395
 30
0.0
 10
-8.6841
 20
18.1716
 30
0.0
 10
-8.5813
 20
18.1192
 30
0.0
 10
-8.47
 20
18.0836
 30
0.0
 10
-8.47
 20
18.0836
 30
0.0
 10
-8.3581
 20
18.048
 30
0.0
 10
-8.2411
 20
18.0299
 30
0.0
 10
-8.1182
 20
18.0299
 30
0.0
 10
-8.1182
 20
18.0299
 30
0.0
 10
-7.9921
 20
18.0299
 30
0.0
 10
-7.8698
 20
18.0487
 30
0.0
 10
-7.7528
 20
18.0855
 30
0.0
 10
-7.7528
 20
18.0855
 30
0.0
 10
-7.6357
 20
18.1224
 30
0.0
 10
-7.527
 20
18.1774
 30
0.0
 10
-7.4274
 20
18.2511
 30
0.0
 10
-7.4274
 20
18.2511
 30
0.0
 10
-7.3272
 20
18.3242
 30
0.0
 10
-7.2399
 20
18.416
 30
0.0
 10
-7.1649
 20
18.526
 30
0.0
 10
-7.1649
 20
18.526
 30
0.0
 10
-7.0905
 20
18.6359
 30
0.0
 10
-7.0323
 20
18.764
 30
0.0
 10
-6.9902
 20
18.9108
 30
0.0
 10
-6.9902
 20
18.9108
 30
0.0
 10
-6.9488
 20
19.057
 30
0.0
 10
-6.9275
 20
19.2213
 30
0.0
 10
-6.9268
 20
19.4036
 30
0.0
 10
-6.9268
 20
19.4036
 30
0.0
 10
-6.9268
 20
19.5324
 30
0.0
 10
-6.9398
 20
19.6546
 30
0.0
 10
-6.9663
 20
19.771
 30
0.0
 10
-6.9663
 20
19.771
 30
0.0
 10
-6.9922
 20
19.8881
 30
0.0
 10
-7.0303
 20
19.9967
 30
0.0
 10
-7.0801
 20
20.097
 30
0.0
 10
-7.0801
 20
20.097
 30
0.0
 10
-7.1306
 20
20.1972
 30
0.0
 10
-7.192
 20
20.2865
 30
0.0
 10
-7.2645
 20
20.366
 30
0.0
 10
-7.2645
 20
20.366
 30
0.0
 10
-7.2645
 20
20.366
 30
0.0
 10
-7.0239
 20
20.6998
 30
0.0
 10
-7.0239
 20
20.6998
 30
0.0
 10
-7.0239
 20
20.6998
 30
0.0
 10
-7.0239
 20
20.6998
 30
0.0
 10
-7.2295
 20
20.8395
 30
0.0
 10
-7.2295
 20
20.8395
 30
0.0
 10
-7.2295
 20
20.8395
 30
0.0
 10
-7.2295
 20
20.8395
 30
0.0
 10
-7.4585
 20
20.5251
 30
0.0
 10
-7.4585
 20
20.5251
 30
0.0
 10
-7.4585
 20
20.5251
 30
0.0
 10
-7.5523
 20
20.595
 30
0.0
 10
-7.6538
 20
20.6474
 30
0.0
 10
-7.7638
 20
20.6823
 30
0.0
 10
-7.7638
 20
20.6823
 30
0.0
 10
-7.8744
 20
20.7172
 30
0.0
 10
-7.9895
 20
20.7347
 30
0.0
 10
-8.1104
 20
20.7347
 30
0.0
 10
-8.1104
 20
20.7347
 30
0.0
 10
-8.2831
 20
20.734
 30
0.0
 10
-8.4422
 20
20.7017
 30
0.0
 10
-8.589
 20
20.6377
 30
0.0
 10
-8.589
 20
20.6377
 30
0.0
 10
-8.7352
 20
20.5736
 30
0.0
 10
-8.8626
 20
20.4812
 30
0.0
 10
-8.9713
 20
20.3615
 30
0.0
 10
-8.9713
 20
20.3615
 30
0.0
 10
-9.0806
 20
20.2419
 30
0.0
 10
-9.1647
 20
20.0983
 30
0.0
 10
-9.2255
 20
19.9308
 30
0.0
 10
-9.2255
 20
19.9308
 30
0.0
 10
-9.2856
 20
19.7632
 30
0.0
 10
-9.3167
 20
19.5763
 30
0.0
 10
-9.3173
 20
19.3687
 30
0.0
 10
-9.3173
 20
19.3687
 30
0.0
 10
-9.3173
 20
19.2381
 30
0.0
 10
-9.3031
 20
19.1132
 30
0.0
 10
-9.2759
 20
18.9955
 30
0.0
 10
-9.2759
 20
18.9955
 30
0.0
 10
-9.2487
 20
18.8778
 30
0.0
 10
-9.2093
 20
18.7685
 30
0.0
 10
-9.1582
 20
18.6683
 30
0.0
 10
-9.1582
 20
18.6683
 30
0.0
 10
-9.1065
 20
18.568
 30
0.0
 10
-9.0444
 20
18.4781
 30
0.0
 10
-8.9719
 20
18.3986
 30
0.0
 10
-8.9719
 20
18.3986
 30
0.0
 10
-8.9719
 20
18.3986
 30
0.0
 10
-9.2125
 20
18.061
 30
0.0
 10
-9.2125
 20
18.061
 30
0.0
 10
-9.2125
 20
18.061
 30
0.0
 10
-9.2125
 20
18.061
 30
0.0
 10
-9.0224
 20
17.9057
 30
0.0
 10
-9.0224
 20
17.9057
 30
0.0
  0
SPLINE
  5
53
330
1F
100
AcDbEntity
  8
Ilustrace
 62
   250
100
AcDbSpline
210
0.0
220
0.0
230
1.0
 70
    11
 71
     3
 72
    52
 73
    48
 74
     0
 42
0.0000000001
 43
0.0000000001
 40
0.0
 40
0.0
 40
0.0
 40
0.0
 40
0.0769230769230769
 40
0.0769230769230769
 40
0.0769230769230769
 40
0.0769230769230769
 40
0.1538461538461539
 40
0.1538461538461539
 40
0.1538461538461539
 40
0.1538461538461539
 40
0.2307692307692308
 40
0.2307692307692308
 40
0.2307692307692308
 40
0.2307692307692308
 40
0.3076923076923077
 40
0.3076923076923077
 40
0.3076923076923077
 40
0.3076923076923077
 40
0.3846153846153846
 40
0.3846153846153846
 40
0.3846153846153846
 40
0.3846153846153846
 40
0.4615384615384616
 40
0.4615384615384616
 40
0.4615384615384616
 40
0.4615384615384616
 40
0.5384615384615384
 40
0.5384615384615384
 40
0.5384615384615384
 40
0.5384615384615384
 40
0.6153846153846154
 40
0.6153846153846154
 40
0.6153846153846154
 40
0.6153846153846154
 40
0.6923076923076923
 40
0.6923076923076923
 40
0.6923076923076923
 40
0.6923076923076923
 40
0.7692307692307693
 40
0.7692307692307693
 40
0.7692307692307693
 40
0.7692307692307693
 40
0.8461538461538461
 40
0.8461538461538461
 40
0.8461538461538461
 40
0.8461538461538461
 40
1.0
 40
1.0
 40
1.0
 40
1.0
 10
-8.774
 20
18.6857
 30
0.0
 10
-8.774
 20
18.6857
 30
0.0
 10
-8.7818
 20
18.6819
 30
0.0
 10
-8.7818
 20
18.6819
 30
0.0
 10
-8.7818
 20
18.6819
 30
0.0
 10
-8.8206
 20
18.7485
 30
0.0
 10
-8.8542
 20
18.8177
 30
0.0
 10
-8.8827
 20
18.8888
 30
0.0
 10
-8.8827
 20
18.8888
 30
0.0
 10
-8.9111
 20
18.9606
 30
0.0
 10
-8.9331
 20
19.0363
 30
0.0
 10
-8.9486
 20
19.1178
 30
0.0
 10
-8.9486
 20
19.1178
 30
0.0
 10
-8.9642
 20
19.1986
 30
0.0
 10
-8.9719
 20
19.2879
 30
0.0
 10
-8.9719
 20
19.3842
 30
0.0
 10
-8.9719
 20
19.3842
 30
0.0
 10
-8.9719
 20
19.4955
 30
0.0
 10
-8.9603
 20
19.6028
 30
0.0
 10
-8.9376
 20
19.7083
 30
0.0
 10
-8.9376
 20
19.7083
 30
0.0
 10
-8.9144
 20
19.813
 30
0.0
 10
-8.8801
 20
19.9114
 30
0.0
 10
-8.8348
 20
20.0019
 30
0.0
 10
-8.8348
 20
20.0019
 30
0.0
 10
-8.7889
 20
20.0931
 30
0.0
 10
-8.732
 20
20.1733
 30
0.0
 10
-8.6634
 20
20.2419
 30
0.0
 10
-8.6634
 20
20.2419
 30
0.0
 10
-8.5949
 20
20.3111
 30
0.0
 10
-8.5153
 20
20.3647
 30
0.0
 10
-8.4248
 20
20.4035
 30
0.0
 10
-8.4248
 20
20.4035
 30
0.0
 10
-8.3336
 20
20.443
 30
0.0
 10
-8.2314
 20
20.4624
 30
0.0
 10
-8.1182
 20
20.463
 30
0.0
 10
-8.1182
 20
20.463
 30
0.0
 10
-8.0192
 20
20.4624
 30
0.0
 10
-7.9287
 20
20.4462
 30
0.0
 10
-7.8472
 20
20.4139
 30
0.0
 10
-7.8472
 20
20.4139
 30
0.0
 10
-7.7651
 20
20.3822
 30
0.0
 10
-7.6913
 20
20.3376
 30
0.0
 10
-7.6254
 20
20.2807
 30
0.0
 10
-7.6254
 20
20.2807
 30
0.0
 10
-7.6254
 20
20.2807
 30
0.0
 10
-8.774
 20
18.6857
 30
0.0
 10
-8.774
 20
18.6857
 30
0.0
  0
SPLINE
  5
54
330
1F
100
AcDbEntity
  8
Ilustrace
 62
   250
100
AcDbSpline
210
0.0
220
0.0
230
1.0
 70
    11
 71
     3
 72
    48
 73
    44
 74
     0
 42
0.0000000001
 43
0.0000000001
 40
0.0
 40
0.0
 40
0.0
 40
0.0
 40
0.0833333333333333
 40
0.0833333333333333
 40
0.0833333333333333
 40
0.0833333333333333
 40
0.1666666666666667
 40
0.1666666666666667
 40
0.1666666666666667
 40
0.1666666666666667
 40
0.25
 40
0.25
 40
0.25
 40
0.25
 40
0.3333333333333333
 40
0.3333333333333333
 40
0.3333333333333333
 40
0.3333333333333333
 40
0.4166666666666667
 40
0.4166666666666667
 40
0.4166666666666667
 40
0.4166666666666667
 40
0.5
 40
0.5
 40
0.5
 40
0.5
 40
0.5833333333333334
 40
0.5833333333333334
 40
0.5833333333333334
 40
0.5833333333333334
 40
0.6666666666666666
 40
0.6666666666666666
 40
0.6666666666666666
 40
0.6666666666666666
 40
0.75
 40
0.75
 40
0.75
 40
0.75
 40
0.8333333333333334
 40
0.8333333333333334
 40
0.8333333333333334
 40
0.8333333333333334
 40
1.0
 40
1.0
 40
1.0
 40
1.0
 10
-7.4663
 20
20.075
 30
0.0
 10
-7.4663
 20
20.075
 30
0.0
 10
-7.4546
 20
20.075
 30
0.0
 10
-7.4546
 20
20.075
 30
0.0
 10
-7.4546
 20
20.075
 30
0.0
 10
-7.3873
 20
19.9625
 30
0.0
 10
-7.3401
 20
19.8486
 30
0.0
 10
-7.3123
 20
19.7335
 30
0.0
 10
-7.3123
 20
19.7335
 30
0.0
 10
-7.2845
 20
19.619
 30
0.0
 10
-7.2709
 20
19.5052
 30
0.0
 10
-7.2722
 20
19.392
 30
0.0
 10
-7.2722
 20
19.392
 30
0.0
 10
-7.2722
 20
19.2743
 30
0.0
 10
-7.2845
 20
19.1618
 30
0.0
 10
-7.3084
 20
19.0537
 30
0.0
 10
-7.3084
 20
19.0537
 30
0.0
 10
-7.3324
 20
18.9457
 30
0.0
 10
-7.3679
 20
18.8461
 30
0.0
 10
-7.4145
 20
18.7549
 30
0.0
 10
-7.4145
 20
18.7549
 30
0.0
 10
-7.4617
 20
18.6637
 30
0.0
 10
-7.5193
 20
18.5842
 30
0.0
 10
-7.5878
 20
18.5169
 30
0.0
 10
-7.5878
 20
18.5169
 30
0.0
 10
-7.657
 20
18.449
 30
0.0
 10
-7.736
 20
18.396
 30
0.0
 10
-7.8252
 20
18.3585
 30
0.0
 10
-7.8252
 20
18.3585
 30
0.0
 10
-7.9145
 20
18.321
 30
0.0
 10
-8.0134
 20
18.3022
 30
0.0
 10
-8.1221
 20
18.3016
 30
0.0
 10
-8.1221
 20
18.3016
 30
0.0
 10
-8.2275
 20
18.3016
 30
0.0
 10
-8.32
 20
18.3177
 30
0.0
 10
-8.3982
 20
18.3494
 30
0.0
 10
-8.3982
 20
18.3494
 30
0.0
 10
-8.4771
 20
18.3811
 30
0.0
 10
-8.5476
 20
18.4277
 30
0.0
 10
-8.611
 20
18.4878
 30
0.0
 10
-8.611
 20
18.4878
 30
0.0
 10
-8.611
 20
18.4878
 30
0.0
 10
-7.4663
 20
20.075
 30
0.0
 10
-7.4663
 20
20.075
 30
0.0
  0
SPLINE
  5
55
330
1F
100
AcDbEntity
  8
Ilustrace
 62
   250
100
AcDbSpline
210
0.0
220
0.0
230
1.0
 70
    11
 71
     3
 72
   124
 73
   120
 74
     0
 42
0.0000000001
 43
0.0000000001
 40
0.0
 40
0.0
 40
0.0
 40
0.0
 40
0.032258064516129
 40
0.032258064516129
 40
0.032258064516129
 40
0.032258064516129
 40
0.0645161290322581
 40
0.0645161290322581
 40
0.0645161290322581
 40
0.0645161290322581
 40
0.0967741935483871
 40
0.0967741935483871
 40
0.0967741935483871
 40
0.0967741935483871
 40
0.1290322580645161
 40
0.1290322580645161
 40
0.1290322580645161
 40
0.1290322580645161
 40
0.1612903225806452
 40
0.1612903225806452
 40
0.1612903225806452
 40
0.1612903225806452
 40
0.1935483870967742
 40
0.1935483870967742
 40
0.1935483870967742
 40
0.1935483870967742
 40
0.2258064516129032
 40
0.2258064516129032
 40
0.2258064516129032
 40
0.2258064516129032
 40
0.2580645161290323
 40
0.2580645161290323
 40
0.2580645161290323
 40
0.2580645161290323
 40
0.2903225806451613
 40
0.2903225806451613
 40
0.2903225806451613
 40
0.2903225806451613
 40
0.3225806451612903
 40
0.3225806451612903
 40
0.3225806451612903
 40
0.3225806451612903
 40
0.3548387096774194
 40
0.3548387096774194
 40
0.3548387096774194
 40
0.3548387096774194
 40
0.3870967741935484
 40
0.3870967741935484
 40
0.3870967741935484
 40
0.3870967741935484
 40
0.4193548387096774
 40
0.4193548387096774
 40
0.4193548387096774
 40
0.4193548387096774
 40
0.4516129032258064
 40
0.4516129032258064
 40
0.4516129032258064
 40
0.4516129032258064
 40
0.4838709677419355
 40
0.4838709677419355
 40
0.4838709677419355
 40
0.4838709677419355
 40
0.5161290322580645
 40
0.5161290322580645
 40
0.5161290322580645
 40
0.5161290322580645
 40
0.5483870967741935
 40
0.5483870967741935
 40
0.5483870967741935
 40
0.5483870967741935
 40
0.5806451612903226
 40
0.5806451612903226
 40
0.5806451612903226
 40
0.5806451612903226
 40
0.6129032258064516
 40
0.6129032258064516
 40
0.6129032258064516
 40
0.6129032258064516
 40
0.6451612903225806
 40
0.6451612903225806
 40
0.6451612903225806
 40
0.6451612903225806
 40
0.6774193548387096
 40
0.6774193548387096
 40
0.6774193548387096
 40
0.6774193548387096
 40
0.7096774193548387
 40
0.7096774193548387
 40
0.7096774193548387
 40
0.7096774193548387
 40
0.7419354838709677
 40
0.7419354838709677
 40
0.7419354838709677
 40
0.7419354838709677
 40
0.7741935483870968
 40
0.7741935483870968
 40
0.7741935483870968
 40
0.7741935483870968
 40
0.8064516129032258
 40
0.8064516129032258
 40
0.8064516129032258
 40
0.8064516129032258
 40
0.8387096774193549
 40
0.8387096774193549
 40
0.8387096774193549
 40
0.8387096774193549
 40
0.8709677419354839
 40
0.8709677419354839
 40
0.8709677419354839
 40
0.8709677419354839
 40
0.9032258064516129
 40
0.9032258064516129
 40
0.9032258064516129
 40
0.9032258064516129
 40
0.9354838709677419
 40
0.9354838709677419
 40
0.9354838709677419
 40
0.9354838709677419
 40
1.0
 40
1.0
 40
1.0
 40
1.0
 10
-6.1391
 20
19.3881
 30
0.0
 10
-6.2432
 20
19.3441
 30
0.0
 10
-6.3325
 20
19.2892
 30
0.0
 10
-6.4069
 20
19.2245
 30
0.0
 10
-6.4069
 20
19.2245
 30
0.0
 10
-6.4813
 20
19.1592
 30
0.0
 10
-6.5388
 20
19.0835
 30
0.0
 10
-6.5789
 20
18.9975
 30
0.0
 10
-6.5789
 20
18.9975
 30
0.0
 10
-6.619
 20
18.9115
 30
0.0
 10
-6.6391
 20
18.8151
 30
0.0
 10
-6.6397
 20
18.709
 30
0.0
 10
-6.6397
 20
18.709
 30
0.0
 10
-6.6391
 20
18.6159
 30
0.0
 10
-6.6203
 20
18.5292
 30
0.0
 10
-6.5815
 20
18.4471
 30
0.0
 10
-6.5815
 20
18.4471
 30
0.0
 10
-6.5433
 20
18.3656
 30
0.0
 10
-6.4877
 20
18.2938
 30
0.0
 10
-6.4146
 20
18.2311
 30
0.0
 10
-6.4146
 20
18.2311
 30
0.0
 10
-6.3416
 20
18.169
 30
0.0
 10
-6.253
 20
18.1198
 30
0.0
 10
-6.1488
 20
18.0842
 30
0.0
 10
-6.1488
 20
18.0842
 30
0.0
 10
-6.044
 20
18.0487
 30
0.0
 10
-5.9257
 20
18.0306
 30
0.0
 10
-5.7937
 20
18.0299
 30
0.0
 10
-5.7937
 20
18.0299
 30
0.0
 10
-5.6728
 20
18.0306
 30
0.0
 10
-5.5603
 20
18.048
 30
0.0
 10
-5.4568
 20
18.0823
 30
0.0
 10
-5.4568
 20
18.0823
 30
0.0
 10
-5.3533
 20
18.1166
 30
0.0
 10
-5.2621
 20
18.1664
 30
0.0
 10
-5.1845
 20
18.2311
 30
0.0
 10
-5.1845
 20
18.2311
 30
0.0
 10
-5.1069
 20
18.2951
 30
0.0
 10
-5.0461
 20
18.3721
 30
0.0
 10
-5.0028
 20
18.462
 30
0.0
 10
-5.0028
 20
18.462
 30
0.0
 10
-4.9588
 20
18.5519
 30
0.0
 10
-4.9368
 20
18.6521
 30
0.0
 10
-4.9361
 20
18.7633
 30
0.0
 10
-4.9361
 20
18.7633
 30
0.0
 10
-4.9368
 20
18.8642
 30
0.0
 10
-4.9575
 20
18.9561
 30
0.0
 10
-4.9982
 20
19.0395
 30
0.0
 10
-4.9982
 20
19.0395
 30
0.0
 10
-5.039
 20
19.1223
 30
0.0
 10
-5.0972
 20
19.1954
 30
0.0
 10
-5.1729
 20
19.2581
 30
0.0
 10
-5.1729
 20
19.2581
 30
0.0
 10
-5.2485
 20
19.3215
 30
0.0
 10
-5.3391
 20
19.3739
 30
0.0
 10
-5.4445
 20
19.4153
 30
0.0
 10
-5.4445
 20
19.4153
 30
0.0
 10
-5.4445
 20
19.4153
 30
0.0
 10
-5.4445
 20
19.4269
 30
0.0
 10
-5.4445
 20
19.4269
 30
0.0
 10
-5.4445
 20
19.4269
 30
0.0
 10
-5.3417
 20
19.4754
 30
0.0
 10
-5.2595
 20
19.5317
 30
0.0
 10
-5.1981
 20
19.5964
 30
0.0
 10
-5.1981
 20
19.5964
 30
0.0
 10
-5.1366
 20
19.6604
 30
0.0
 10
-5.092
 20
19.729
 30
0.0
 10
-5.0648
 20
19.8008
 30
0.0
 10
-5.0648
 20
19.8008
 30
0.0
 10
-5.0383
 20
19.8732
 30
0.0
 10
-5.0247
 20
19.945
 30
0.0
 10
-5.0254
 20
20.0168
 30
0.0
 10
-5.0254
 20
20.0168
 30
0.0
 10
-5.0254
 20
20.097
 30
0.0
 10
-5.0409
 20
20.1746
 30
0.0
 10
-5.072
 20
20.2483
 30
0.0
 10
-5.072
 20
20.2483
 30
0.0
 10
-5.103
 20
20.3221
 30
0.0
 10
-5.1489
 20
20.388
 30
0.0
 10
-5.2104
 20
20.4469
 30
0.0
 10
-5.2104
 20
20.4469
 30
0.0
 10
-5.2725
 20
20.5051
 30
0.0
 10
-5.3494
 20
20.5517
 30
0.0
 10
-5.4413
 20
20.5853
 30
0.0
 10
-5.4413
 20
20.5853
 30
0.0
 10
-5.5331
 20
20.6196
 30
0.0
 10
-5.6405
 20
20.637
 30
0.0
 10
-5.7627
 20
20.6377
 30
0.0
 10
-5.7627
 20
20.6377
 30
0.0
 10
-5.8746
 20
20.637
 30
0.0
 10
-5.9787
 20
20.6209
 30
0.0
 10
-6.0732
 20
20.5892
 30
0.0
 10
-6.0732
 20
20.5892
 30
0.0
 10
-6.1682
 20
20.5568
 30
0.0
 10
-6.251
 20
20.5116
 30
0.0
 10
-6.3222
 20
20.4521
 30
0.0
 10
-6.3222
 20
20.4521
 30
0.0
 10
-6.3927
 20
20.3926
 30
0.0
 10
-6.4476
 20
20.3221
 30
0.0
 10
-6.4871
 20
20.2399
 30
0.0
 10
-6.4871
 20
20.2399
 30
0.0
 10
-6.5259
 20
20.1578
 30
0.0
 10
-6.5459
 20
20.0666
 30
0.0
 10
-6.5466
 20
19.9663
 30
0.0
 10
-6.5466
 20
19.9663
 30
0.0
 10
-6.5466
 20
19.8932
 30
0.0
 10
-6.533
 20
19.8221
 30
0.0
 10
-6.5045
 20
19.7523
 30
0.0
 10
-6.5045
 20
19.7523
 30
0.0
 10
-6.4767
 20
19.6824
 30
0.0
 10
-6.4328
 20
19.6171
 30
0.0
 10
-6.3732
 20
19.5569
 30
0.0
 10
-6.3732
 20
19.5569
 30
0.0
 10
-6.3137
 20
19.4968
 30
0.0
 10
-6.2374
 20
19.4444
 30
0.0
 10
-6.143
 20
19.3998
 30
0.0
 10
-6.143
 20
19.3998
 30
0.0
 10
-6.143
 20
19.3998
 30
0.0
 10
-6.1391
 20
19.3881
 30
0.0
 10
-6.1391
 20
19.3881
 30
0.0
  0
SPLINE
  5
56
330
1F
100
AcDbEntity
  8
Ilustrace
 62
   250
100
AcDbSpline
210
0.0
220
0.0
230
1.0
 70
    11
 71
     3
 72
    56
 73
    52
 74
     0
 42
0.0000000001
 43
0.0000000001
 40
0.0
 40
0.0
 40
0.0
 40
0.0
 40
0.0714285714285714
 40
0.0714285714285714
 40
0.0714285714285714
 40
0.0714285714285714
 40
0.1428571428571428
 40
0.1428571428571428
 40
0.1428571428571428
 40
0.1428571428571428
 40
0.2142857142857143
 40
0.2142857142857143
 40
0.2142857142857143
 40
0.2142857142857143
 40
0.2857142857142857
 40
0.2857142857142857
 40
0.2857142857142857
 40
0.2857142857142857
 40
0.3571428571428572
 40
0.3571428571428572
 40
0.3571428571428572
 40
0.3571428571428572
 40
0.4285714285714285
 40
0.4285714285714285
 40
0.4285714285714285
 40
0.4285714285714285
 40
0.5
 40
0.5
 40
0.5
 40
0.5
 40
0.5714285714285714
 40
0.5714285714285714
 40
0.5714285714285714
 40
0.5714285714285714
 40
0.6428571428571429
 40
0.6428571428571429
 40
0.6428571428571429
 40
0.6428571428571429
 40
0.7142857142857143
 40
0.7142857142857143
 40
0.7142857142857143
 40
0.7142857142857143
 40
0.7857142857142857
 40
0.7857142857142857
 40
0.7857142857142857
 40
0.7857142857142857
 40
0.8571428571428571
 40
0.8571428571428571
 40
0.8571428571428571
 40
0.8571428571428571
 40
1.0
 40
1.0
 40
1.0
 40
1.0
 10
-5.786
 20
18.2783
 30
0.0
 10
-5.8668
 20
18.2789
 30
0.0
 10
-5.9386
 20
18.2919
 30
0.0
 10
-6.002
 20
18.3171
 30
0.0
 10
-6.002
 20
18.3171
 30
0.0
 10
-6.066
 20
18.3429
 30
0.0
 10
-6.1197
 20
18.3779
 30
0.0
 10
-6.1637
 20
18.4225
 30
0.0
 10
-6.1637
 20
18.4225
 30
0.0
 10
-6.207
 20
18.4665
 30
0.0
 10
-6.24
 20
18.5176
 30
0.0
 10
-6.262
 20
18.5745
 30
0.0
 10
-6.262
 20
18.5745
 30
0.0
 10
-6.2833
 20
18.6314
 30
0.0
 10
-6.2931
 20
18.6922
 30
0.0
 10
-6.2905
 20
18.7556
 30
0.0
 10
-6.2905
 20
18.7556
 30
0.0
 10
-6.2905
 20
18.8364
 30
0.0
 10
-6.273
 20
18.9108
 30
0.0
 10
-6.2381
 20
18.9794
 30
0.0
 10
-6.2381
 20
18.9794
 30
0.0
 10
-6.2038
 20
19.0479
 30
0.0
 10
-6.1527
 20
19.1081
 30
0.0
 10
-6.0854
 20
19.1592
 30
0.0
 10
-6.0854
 20
19.1592
 30
0.0
 10
-6.0175
 20
19.2103
 30
0.0
 10
-5.9347
 20
19.2504
 30
0.0
 10
-5.8364
 20
19.2795
 30
0.0
 10
-5.8364
 20
19.2795
 30
0.0
 10
-5.722
 20
19.2478
 30
0.0
 10
-5.6236
 20
19.2083
 30
0.0
 10
-5.5409
 20
19.1605
 30
0.0
 10
-5.5409
 20
19.1605
 30
0.0
 10
-5.4581
 20
19.1132
 30
0.0
 10
-5.394
 20
19.0544
 30
0.0
 10
-5.3494
 20
18.9845
 30
0.0
 10
-5.3494
 20
18.9845
 30
0.0
 10
-5.3048
 20
18.914
 30
0.0
 10
-5.2822
 20
18.8287
 30
0.0
 10
-5.2815
 20
18.7284
 30
0.0
 10
-5.2815
 20
18.7284
 30
0.0
 10
-5.2822
 20
18.6411
 30
0.0
 10
-5.3029
 20
18.5635
 30
0.0
 10
-5.3442
 20
18.4962
 30
0.0
 10
-5.3442
 20
18.4962
 30
0.0
 10
-5.3856
 20
18.429
 30
0.0
 10
-5.4438
 20
18.3759
 30
0.0
 10
-5.5189
 20
18.3371
 30
0.0
 10
-5.5189
 20
18.3371
 30
0.0
 10
-5.5939
 20
18.2983
 30
0.0
 10
-5.6831
 20
18.2789
 30
0.0
 10
-5.786
 20
18.2783
 30
0.0
  0
SPLINE
  5
57
330
1F
100
AcDbEntity
  8
Ilustrace
 62
   250
100
AcDbSpline
210
0.0
220
0.0
230
1.0
 70
    11
 71
     3
 72
    56
 73
    52
 74
     0
 42
0.0000000001
 43
0.0000000001
 40
0.0
 40
0.0
 40
0.0
 40
0.0
 40
0.0714285714285714
 40
0.0714285714285714
 40
0.0714285714285714
 40
0.0714285714285714
 40
0.1428571428571428
 40
0.1428571428571428
 40
0.1428571428571428
 40
0.1428571428571428
 40
0.2142857142857143
 40
0.2142857142857143
 40
0.2142857142857143
 40
0.2142857142857143
 40
0.2857142857142857
 40
0.2857142857142857
 40
0.2857142857142857
 40
0.2857142857142857
 40
0.3571428571428572
 40
0.3571428571428572
 40
0.3571428571428572
 40
0.3571428571428572
 40
0.4285714285714285
 40
0.4285714285714285
 40
0.4285714285714285
 40
0.4285714285714285
 40
0.5
 40
0.5
 40
0.5
 40
0.5
 40
0.5714285714285714
 40
0.5714285714285714
 40
0.5714285714285714
 40
0.5714285714285714
 40
0.6428571428571429
 40
0.6428571428571429
 40
0.6428571428571429
 40
0.6428571428571429
 40
0.7142857142857143
 40
0.7142857142857143
 40
0.7142857142857143
 40
0.7142857142857143
 40
0.7857142857142857
 40
0.7857142857142857
 40
0.7857142857142857
 40
0.7857142857142857
 40
0.8571428571428571
 40
0.8571428571428571
 40
0.8571428571428571
 40
0.8571428571428571
 40
1.0
 40
1.0
 40
1.0
 40
1.0
 10
-5.7821
 20
20.3932
 30
0.0
 10
-5.7058
 20
20.3926
 30
0.0
 10
-5.6405
 20
20.3809
 30
0.0
 10
-5.5861
 20
20.3576
 30
0.0
 10
-5.5861
 20
20.3576
 30
0.0
 10
-5.5318
 20
20.3343
 30
0.0
 10
-5.4878
 20
20.3027
 30
0.0
 10
-5.4535
 20
20.2632
 30
0.0
 10
-5.4535
 20
20.2632
 30
0.0
 10
-5.4199
 20
20.2237
 30
0.0
 10
-5.3947
 20
20.1798
 30
0.0
 10
-5.3785
 20
20.1313
 30
0.0
 10
-5.3785
 20
20.1313
 30
0.0
 10
-5.363
 20
20.0828
 30
0.0
 10
-5.3552
 20
20.0329
 30
0.0
 10
-5.3552
 20
19.9819
 30
0.0
 10
-5.3552
 20
19.9819
 30
0.0
 10
-5.3559
 20
19.9055
 30
0.0
 10
-5.3727
 20
19.8376
 30
0.0
 10
-5.4063
 20
19.7781
 30
0.0
 10
-5.4063
 20
19.7781
 30
0.0
 10
-5.44
 20
19.718
 30
0.0
 10
-5.4852
 20
19.6669
 30
0.0
 10
-5.5434
 20
19.6248
 30
0.0
 10
-5.5434
 20
19.6248
 30
0.0
 10
-5.601
 20
19.5822
 30
0.0
 10
-5.6663
 20
19.5485
 30
0.0
 10
-5.7394
 20
19.5239
 30
0.0
 10
-5.7394
 20
19.5239
 30
0.0
 10
-5.8371
 20
19.5498
 30
0.0
 10
-5.9218
 20
19.5828
 30
0.0
 10
-5.9942
 20
19.6229
 30
0.0
 10
-5.9942
 20
19.6229
 30
0.0
 10
-6.0667
 20
19.6636
 30
0.0
 10
-6.123
 20
19.7141
 30
0.0
 10
-6.1624
 20
19.7742
 30
0.0
 10
-6.1624
 20
19.7742
 30
0.0
 10
-6.2019
 20
19.8344
 30
0.0
 10
-6.2213
 20
19.9062
 30
0.0
 10
-6.2206
 20
19.9896
 30
0.0
 10
-6.2206
 20
19.9896
 30
0.0
 10
-6.2206
 20
20.0633
 30
0.0
 10
-6.2038
 20
20.13
 30
0.0
 10
-6.1702
 20
20.1908
 30
0.0
 10
-6.1702
 20
20.1908
 30
0.0
 10
-6.1365
 20
20.2516
 30
0.0
 10
-6.0867
 20
20.3001
 30
0.0
 10
-6.0214
 20
20.3369
 30
0.0
 10
-6.0214
 20
20.3369
 30
0.0
 10
-5.9567
 20
20.3738
 30
0.0
 10
-5.8765
 20
20.3926
 30
0.0
 10
-5.7821
 20
20.3932
 30
0.0
  0
SPLINE
  5
58
330
1F
100
AcDbEntity
  8
Ilustrace
 62
   250
100
AcDbSpline
210
0.0
220
0.0
230
1.0
 70
    11
 71
     3
 72
    56
 73
    52
 74
     0
 42
0.0000000001
 43
0.0000000001
 40
0.0
 40
0.0
 40
0.0
 40
0.0
 40
0.0714285714285714
 40
0.0714285714285714
 40
0.0714285714285714
 40
0.0714285714285714
 40
0.1428571428571428
 40
0.1428571428571428
 40
0.1428571428571428
 40
0.1428571428571428
 40
0.2142857142857143
 40
0.2142857142857143
 40
0.2142857142857143
 40
0.2142857142857143
 40
0.2857142857142857
 40
0.2857142857142857
 40
0.2857142857142857
 40
0.2857142857142857
 40
0.3571428571428572
 40
0.3571428571428572
 40
0.3571428571428572
 40
0.3571428571428572
 40
0.4285714285714285
 40
0.4285714285714285
 40
0.4285714285714285
 40
0.4285714285714285
 40
0.5
 40
0.5
 40
0.5
 40
0.5
 40
0.5714285714285714
 40
0.5714285714285714
 40
0.5714285714285714
 40
0.5714285714285714
 40
0.6428571428571429
 40
0.6428571428571429
 40
0.6428571428571429
 40
0.6428571428571429
 40
0.7142857142857143
 40
0.7142857142857143
 40
0.7142857142857143
 40
0.7142857142857143
 40
0.7857142857142857
 40
0.7857142857142857
 40
0.7857142857142857
 40
0.7857142857142857
 40
0.8571428571428571
 40
0.8571428571428571
 40
0.8571428571428571
 40
0.8571428571428571
 40
1.0
 40
1.0
 40
1.0
 40
1.0
 10
-3.772
 20
20.6377
 30
0.0
 10
-3.9007
 20
20.6377
 30
0.0
 10
-4.0184
 20
20.6092
 30
0.0
 10
-4.1258
 20
20.5523
 30
0.0
 10
-4.1258
 20
20.5523
 30
0.0
 10
-4.2331
 20
20.4954
 30
0.0
 10
-4.3256
 20
20.412
 30
0.0
 10
-4.4045
 20
20.3007
 30
0.0
 10
-4.4045
 20
20.3007
 30
0.0
 10
-4.4834
 20
20.1895
 30
0.0
 10
-4.5442
 20
20.0524
 30
0.0
 10
-4.5876
 20
19.8894
 30
0.0
 10
-4.5876
 20
19.8894
 30
0.0
 10
-4.6303
 20
19.7264
 30
0.0
 10
-4.6523
 20
19.5388
 30
0.0
 10
-4.6529
 20
19.326
 30
0.0
 10
-4.6529
 20
19.326
 30
0.0
 10
-4.649
 20
19.0473
 30
0.0
 10
-4.6122
 20
18.8119
 30
0.0
 10
-4.5417
 20
18.6191
 30
0.0
 10
-4.5417
 20
18.6191
 30
0.0
 10
-4.4712
 20
18.4264
 30
0.0
 10
-4.3735
 20
18.2802
 30
0.0
 10
-4.2493
 20
18.1806
 30
0.0
 10
-4.2493
 20
18.1806
 30
0.0
 10
-4.1251
 20
18.081
 30
0.0
 10
-3.9803
 20
18.0306
 30
0.0
 10
-3.8147
 20
18.0299
 30
0.0
 10
-3.8147
 20
18.0299
 30
0.0
 10
-3.6291
 20
18.0306
 30
0.0
 10
-3.4713
 20
18.0823
 30
0.0
 10
-3.3406
 20
18.1845
 30
0.0
 10
-3.3406
 20
18.1845
 30
0.0
 10
-3.21
 20
18.2867
 30
0.0
 10
-3.1104
 20
18.4367
 30
0.0
 10
-3.0418
 20
18.6346
 30
0.0
 10
-3.0418
 20
18.6346
 30
0.0
 10
-2.9726
 20
18.8326
 30
0.0
 10
-2.9383
 20
19.0744
 30
0.0
 10
-2.9377
 20
19.361
 30
0.0
 10
-2.9377
 20
19.361
 30
0.0
 10
-2.9383
 20
19.6294
 30
0.0
 10
-2.9713
 20
19.859
 30
0.0
 10
-3.0366
 20
20.0491
 30
0.0
 10
-3.0366
 20
20.0491
 30
0.0
 10
-3.102
 20
20.2393
 30
0.0
 10
-3.197
 20
20.3848
 30
0.0
 10
-3.3212
 20
20.485
 30
0.0
 10
-3.3212
 20
20.485
 30
0.0
 10
-3.4454
 20
20.5859
 30
0.0
 10
-3.5954
 20
20.637
 30
0.0
 10
-3.772
 20
20.6377
 30
0.0
  0
SPLINE
  5
59
330
1F
100
AcDbEntity
  8
Ilustrace
 62
   250
100
AcDbSpline
210
0.0
220
0.0
230
1.0
 70
    11
 71
     3
 72
    56
 73
    52
 74
     0
 42
0.0000000001
 43
0.0000000001
 40
0.0
 40
0.0
 40
0.0
 40
0.0
 40
0.0714285714285714
 40
0.0714285714285714
 40
0.0714285714285714
 40
0.0714285714285714
 40
0.1428571428571428
 40
0.1428571428571428
 40
0.1428571428571428
 40
0.1428571428571428
 40
0.2142857142857143
 40
0.2142857142857143
 40
0.2142857142857143
 40
0.2142857142857143
 40
0.2857142857142857
 40
0.2857142857142857
 40
0.2857142857142857
 40
0.2857142857142857
 40
0.3571428571428572
 40
0.3571428571428572
 40
0.3571428571428572
 40
0.3571428571428572
 40
0.4285714285714285
 40
0.4285714285714285
 40
0.4285714285714285
 40
0.4285714285714285
 40
0.5
 40
0.5
 40
0.5
 40
0.5
 40
0.5714285714285714
 40
0.5714285714285714
 40
0.5714285714285714
 40
0.5714285714285714
 40
0.6428571428571429
 40
0.6428571428571429
 40
0.6428571428571429
 40
0.6428571428571429
 40
0.7142857142857143
 40
0.7142857142857143
 40
0.7142857142857143
 40
0.7142857142857143
 40
0.7857142857142857
 40
0.7857142857142857
 40
0.7857142857142857
 40
0.7857142857142857
 40
0.8571428571428571
 40
0.8571428571428571
 40
0.8571428571428571
 40
0.8571428571428571
 40
1.0
 40
1.0
 40
1.0
 40
1.0
 10
-3.7953
 20
20.3738
 30
0.0
 10
-3.706
 20
20.3731
 30
0.0
 10
-3.6291
 20
20.3492
 30
0.0
 10
-3.5644
 20
20.3007
 30
0.0
 10
-3.5644
 20
20.3007
 30
0.0
 10
-3.4997
 20
20.2522
 30
0.0
 10
-3.4467
 20
20.183
 30
0.0
 10
-3.4053
 20
20.0925
 30
0.0
 10
-3.4053
 20
20.0925
 30
0.0
 10
-3.3639
 20
20.0026
 30
0.0
 10
-3.3328
 20
19.8939
 30
0.0
 10
-3.3128
 20
19.7684
 30
0.0
 10
-3.3128
 20
19.7684
 30
0.0
 10
-3.2927
 20
19.6423
 30
0.0
 10
-3.283
 20
19.5013
 30
0.0
 10
-3.283
 20
19.3454
 30
0.0
 10
-3.283
 20
19.3454
 30
0.0
 10
-3.283
 20
19.1294
 30
0.0
 10
-3.3018
 20
18.9431
 30
0.0
 10
-3.3393
 20
18.7866
 30
0.0
 10
-3.3393
 20
18.7866
 30
0.0
 10
-3.3762
 20
18.6295
 30
0.0
 10
-3.4331
 20
18.5085
 30
0.0
 10
-3.5088
 20
18.4231
 30
0.0
 10
-3.5088
 20
18.4231
 30
0.0
 10
-3.5844
 20
18.3378
 30
0.0
 10
-3.6802
 20
18.2951
 30
0.0
 10
-3.7953
 20
18.2938
 30
0.0
 10
-3.7953
 20
18.2938
 30
0.0
 10
-3.8994
 20
18.2944
 30
0.0
 10
-3.9893
 20
18.3345
 30
0.0
 10
-4.0663
 20
18.4147
 30
0.0
 10
-4.0663
 20
18.4147
 30
0.0
 10
-4.1426
 20
18.4949
 30
0.0
 10
-4.2015
 20
18.6114
 30
0.0
 10
-4.2435
 20
18.764
 30
0.0
 10
-4.2435
 20
18.764
 30
0.0
 10
-4.2855
 20
18.9173
 30
0.0
 10
-4.3069
 20
19.1029
 30
0.0
 10
-4.3075
 20
19.3222
 30
0.0
 10
-4.3075
 20
19.3222
 30
0.0
 10
-4.3069
 20
19.5518
 30
0.0
 10
-4.2842
 20
19.7438
 30
0.0
 10
-4.2403
 20
19.9004
 30
0.0
 10
-4.2403
 20
19.9004
 30
0.0
 10
-4.1963
 20
20.0562
 30
0.0
 10
-4.1361
 20
20.1739
 30
0.0
 10
-4.0592
 20
20.2541
 30
0.0
 10
-4.0592
 20
20.2541
 30
0.0
 10
-3.9822
 20
20.3337
 30
0.0
 10
-3.8942
 20
20.3738
 30
0.0
 10
-3.7953
 20
20.3738
 30
0.0
  0
SPLINE
  5
5A
330
1F
100
AcDbEntity
  8
Ilustrace
 62
   250
100
AcDbSpline
210
0.0
220
0.0
230
1.0
 70
    11
 71
     3
 72
    36
 73
    32
 74
     0
 42
0.0000000001
 43
0.0000000001
 40
0.0
 40
0.0
 40
0.0
 40
0.0
 40
0.1111111111111111
 40
0.1111111111111111
 40
0.1111111111111111
 40
0.1111111111111111
 40
0.2222222222222222
 40
0.2222222222222222
 40
0.2222222222222222
 40
0.2222222222222222
 40
0.3333333333333333
 40
0.3333333333333333
 40
0.3333333333333333
 40
0.3333333333333333
 40
0.4444444444444444
 40
0.4444444444444444
 40
0.4444444444444444
 40
0.4444444444444444
 40
0.5555555555555556
 40
0.5555555555555556
 40
0.5555555555555556
 40
0.5555555555555556
 40
0.6666666666666666
 40
0.6666666666666666
 40
0.6666666666666666
 40
0.6666666666666666
 40
0.7777777777777778
 40
0.7777777777777778
 40
0.7777777777777778
 40
0.7777777777777778
 40
1.0
 40
1.0
 40
1.0
 40
1.0
 10
0.0542
 20
18.0726
 30
0.0
 10
0.0542
 20
18.0726
 30
0.0
 10
0.3841
 20
18.0726
 30
0.0
 10
0.3841
 20
18.0726
 30
0.0
 10
0.3841
 20
18.0726
 30
0.0
 10
0.3841
 20
18.0726
 30
0.0
 10
0.3841
 20
20.595
 30
0.0
 10
0.3841
 20
20.595
 30
0.0
 10
0.3841
 20
20.595
 30
0.0
 10
0.3841
 20
20.595
 30
0.0
 10
0.093
 20
20.595
 30
0.0
 10
0.093
 20
20.595
 30
0.0
 10
0.093
 20
20.595
 30
0.0
 10
0.093
 20
20.595
 30
0.0
 10
-0.458
 20
20.3001
 30
0.0
 10
-0.458
 20
20.3001
 30
0.0
 10
-0.458
 20
20.3001
 30
0.0
 10
-0.458
 20
20.3001
 30
0.0
 10
-0.392
 20
20.0401
 30
0.0
 10
-0.392
 20
20.0401
 30
0.0
 10
-0.392
 20
20.0401
 30
0.0
 10
-0.392
 20
20.0401
 30
0.0
 10
0.0465
 20
20.2768
 30
0.0
 10
0.0465
 20
20.2768
 30
0.0
 10
0.0465
 20
20.2768
 30
0.0
 10
0.0465
 20
20.2768
 30
0.0
 10
0.0542
 20
20.2768
 30
0.0
 10
0.0542
 20
20.2768
 30
0.0
 10
0.0542
 20
20.2768
 30
0.0
 10
0.0542
 20
20.2768
 30
0.0
 10
0.0542
 20
18.0726
 30
0.0
 10
0.0542
 20
18.0726
 30
0.0
  0
SPLINE
  5
5B
330
1F
100
AcDbEntity
  8
Ilustrace
 62
   250
100
AcDbSpline
210
0.0
220
0.0
230
1.0
 70
    11
 71
     3
 72
    36
 73
    32
 74
     0
 42
0.0000000001
 43
0.0000000001
 40
0.0
 40
0.0
 40
0.0
 40
0.0
 40
0.1111111111111111
 40
0.1111111111111111
 40
0.1111111111111111
 40
0.1111111111111111
 40
0.2222222222222222
 40
0.2222222222222222
 40
0.2222222222222222
 40
0.2222222222222222
 40
0.3333333333333333
 40
0.3333333333333333
 40
0.3333333333333333
 40
0.3333333333333333
 40
0.4444444444444444
 40
0.4444444444444444
 40
0.4444444444444444
 40
0.4444444444444444
 40
0.5555555555555556
 40
0.5555555555555556
 40
0.5555555555555556
 40
0.5555555555555556
 40
0.6666666666666666
 40
0.6666666666666666
 40
0.6666666666666666
 40
0.6666666666666666
 40
0.7777777777777778
 40
0.7777777777777778
 40
0.7777777777777778
 40
0.7777777777777778
 40
1.0
 40
1.0
 40
1.0
 40
1.0
 10
2.0449
 20
18.0726
 30
0.0
 10
2.0449
 20
18.0726
 30
0.0
 10
2.3748
 20
18.0726
 30
0.0
 10
2.3748
 20
18.0726
 30
0.0
 10
2.3748
 20
18.0726
 30
0.0
 10
2.3748
 20
18.0726
 30
0.0
 10
2.3748
 20
20.595
 30
0.0
 10
2.3748
 20
20.595
 30
0.0
 10
2.3748
 20
20.595
 30
0.0
 10
2.3748
 20
20.595
 30
0.0
 10
2.0837
 20
20.595
 30
0.0
 10
2.0837
 20
20.595
 30
0.0
 10
2.0837
 20
20.595
 30
0.0
 10
2.0837
 20
20.595
 30
0.0
 10
1.5327
 20
20.3001
 30
0.0
 10
1.5327
 20
20.3001
 30
0.0
 10
1.5327
 20
20.3001
 30
0.0
 10
1.5327
 20
20.3001
 30
0.0
 10
1.5987
 20
20.0401
 30
0.0
 10
1.5987
 20
20.0401
 30
0.0
 10
1.5987
 20
20.0401
 30
0.0
 10
1.5987
 20
20.0401
 30
0.0
 10
2.0372
 20
20.2768
 30
0.0
 10
2.0372
 20
20.2768
 30
0.0
 10
2.0372
 20
20.2768
 30
0.0
 10
2.0372
 20
20.2768
 30
0.0
 10
2.0449
 20
20.2768
 30
0.0
 10
2.0449
 20
20.2768
 30
0.0
 10
2.0449
 20
20.2768
 30
0.0
 10
2.0449
 20
20.2768
 30
0.0
 10
2.0449
 20
18.0726
 30
0.0
 10
2.0449
 20
18.0726
 30
0.0
  0
SPLINE
  5
5C
330
1F
100
AcDbEntity
  8
Ilustrace
 62
   250
100
AcDbSpline
210
0.0
220
0.0
230
1.0
 70
    11
 71
     3
 72
    56
 73
    52
 74
     0
 42
0.0000000001
 43
0.0000000001
 40
0.0
 40
0.0
 40
0.0
 40
0.0
 40
0.0714285714285714
 40
0.0714285714285714
 40
0.0714285714285714
 40
0.0714285714285714
 40
0.1428571428571428
 40
0.1428571428571428
 40
0.1428571428571428
 40
0.1428571428571428
 40
0.2142857142857143
 40
0.2142857142857143
 40
0.2142857142857143
 40
0.2142857142857143
 40
0.2857142857142857
 40
0.2857142857142857
 40
0.2857142857142857
 40
0.2857142857142857
 40
0.3571428571428572
 40
0.3571428571428572
 40
0.3571428571428572
 40
0.3571428571428572
 40
0.4285714285714285
 40
0.4285714285714285
 40
0.4285714285714285
 40
0.4285714285714285
 40
0.5
 40
0.5
 40
0.5
 40
0.5
 40
0.5714285714285714
 40
0.5714285714285714
 40
0.5714285714285714
 40
0.5714285714285714
 40
0.6428571428571429
 40
0.6428571428571429
 40
0.6428571428571429
 40
0.6428571428571429
 40
0.7142857142857143
 40
0.7142857142857143
 40
0.7142857142857143
 40
0.7142857142857143
 40
0.7857142857142857
 40
0.7857142857142857
 40
0.7857142857142857
 40
0.7857142857142857
 40
0.8571428571428571
 40
0.8571428571428571
 40
0.8571428571428571
 40
0.8571428571428571
 40
1.0
 40
1.0
 40
1.0
 40
1.0
 10
4.1404
 20
20.6377
 30
0.0
 10
4.0117
 20
20.6377
 30
0.0
 10
3.894
 20
20.6092
 30
0.0
 10
3.7866
 20
20.5523
 30
0.0
 10
3.7866
 20
20.5523
 30
0.0
 10
3.6793
 20
20.4954
 30
0.0
 10
3.5868
 20
20.412
 30
0.0
 10
3.5079
 20
20.3007
 30
0.0
 10
3.5079
 20
20.3007
 30
0.0
 10
3.429
 20
20.1895
 30
0.0
 10
3.3682
 20
20.0524
 30
0.0
 10
3.3248
 20
19.8894
 30
0.0
 10
3.3248
 20
19.8894
 30
0.0
 10
3.2821
 20
19.7264
 30
0.0
 10
3.2601
 20
19.5388
 30
0.0
 10
3.2595
 20
19.326
 30
0.0
 10
3.2595
 20
19.326
 30
0.0
 10
3.2634
 20
19.0473
 30
0.0
 10
3.3002
 20
18.8119
 30
0.0
 10
3.3707
 20
18.6191
 30
0.0
 10
3.3707
 20
18.6191
 30
0.0
 10
3.4412
 20
18.4264
 30
0.0
 10
3.5389
 20
18.2802
 30
0.0
 10
3.6631
 20
18.1806
 30
0.0
 10
3.6631
 20
18.1806
 30
0.0
 10
3.7873
 20
18.081
 30
0.0
 10
3.9321
 20
18.0306
 30
0.0
 10
4.0977
 20
18.0299
 30
0.0
 10
4.0977
 20
18.0299
 30
0.0
 10
4.2833
 20
18.0306
 30
0.0
 10
4.4411
 20
18.0823
 30
0.0
 10
4.5718
 20
18.1845
 30
0.0
 10
4.5718
 20
18.1845
 30
0.0
 10
4.7024
 20
18.2867
 30
0.0
 10
4.802
 20
18.4367
 30
0.0
 10
4.8706
 20
18.6346
 30
0.0
 10
4.8706
 20
18.6346
 30
0.0
 10
4.9398
 20
18.8326
 30
0.0
 10
4.9741
 20
19.0744
 30
0.0
 10
4.9747
 20
19.361
 30
0.0
 10
4.9747
 20
19.361
 30
0.0
 10
4.9741
 20
19.6294
 30
0.0
 10
4.9411
 20
19.859
 30
0.0
 10
4.8758
 20
20.0491
 30
0.0
 10
4.8758
 20
20.0491
 30
0.0
 10
4.8104
 20
20.2393
 30
0.0
 10
4.7154
 20
20.3848
 30
0.0
 10
4.5912
 20
20.485
 30
0.0
 10
4.5912
 20
20.485
 30
0.0
 10
4.467
 20
20.5859
 30
0.0
 10
4.317
 20
20.637
 30
0.0
 10
4.1404
 20
20.6377
 30
0.0
  0
SPLINE
  5
5D
330
1F
100
AcDbEntity
  8
Ilustrace
 62
   250
100
AcDbSpline
210
0.0
220
0.0
230
1.0
 70
    11
 71
     3
 72
    56
 73
    52
 74
     0
 42
0.0000000001
 43
0.0000000001
 40
0.0
 40
0.0
 40
0.0
 40
0.0
 40
0.0714285714285714
 40
0.0714285714285714
 40
0.0714285714285714
 40
0.0714285714285714
 40
0.1428571428571428
 40
0.1428571428571428
 40
0.1428571428571428
 40
0.1428571428571428
 40
0.2142857142857143
 40
0.2142857142857143
 40
0.2142857142857143
 40
0.2142857142857143
 40
0.2857142857142857
 40
0.2857142857142857
 40
0.2857142857142857
 40
0.2857142857142857
 40
0.3571428571428572
 40
0.3571428571428572
 40
0.3571428571428572
 40
0.3571428571428572
 40
0.4285714285714285
 40
0.4285714285714285
 40
0.4285714285714285
 40
0.4285714285714285
 40
0.5
 40
0.5
 40
0.5
 40
0.5
 40
0.5714285714285714
 40
0.5714285714285714
 40
0.5714285714285714
 40
0.5714285714285714
 40
0.6428571428571429
 40
0.6428571428571429
 40
0.6428571428571429
 40
0.6428571428571429
 40
0.7142857142857143
 40
0.7142857142857143
 40
0.7142857142857143
 40
0.7142857142857143
 40
0.7857142857142857
 40
0.7857142857142857
 40
0.7857142857142857
 40
0.7857142857142857
 40
0.8571428571428571
 40
0.8571428571428571
 40
0.8571428571428571
 40
0.8571428571428571
 40
1.0
 40
1.0
 40
1.0
 40
1.0
 10
4.1171
 20
20.3738
 30
0.0
 10
4.2064
 20
20.3731
 30
0.0
 10
4.2833
 20
20.3492
 30
0.0
 10
4.348
 20
20.3007
 30
0.0
 10
4.348
 20
20.3007
 30
0.0
 10
4.4127
 20
20.2522
 30
0.0
 10
4.4657
 20
20.183
 30
0.0
 10
4.5071
 20
20.0925
 30
0.0
 10
4.5071
 20
20.0925
 30
0.0
 10
4.5485
 20
20.0026
 30
0.0
 10
4.5796
 20
19.8939
 30
0.0
 10
4.5996
 20
19.7684
 30
0.0
 10
4.5996
 20
19.7684
 30
0.0
 10
4.6197
 20
19.6423
 30
0.0
 10
4.6294
 20
19.5013
 30
0.0
 10
4.6294
 20
19.3454
 30
0.0
 10
4.6294
 20
19.3454
 30
0.0
 10
4.6294
 20
19.1294
 30
0.0
 10
4.6106
 20
18.9431
 30
0.0
 10
4.5731
 20
18.7866
 30
0.0
 10
4.5731
 20
18.7866
 30
0.0
 10
4.5362
 20
18.6295
 30
0.0
 10
4.4793
 20
18.5085
 30
0.0
 10
4.4036
 20
18.4231
 30
0.0
 10
4.4036
 20
18.4231
 30
0.0
 10
4.328
 20
18.3378
 30
0.0
 10
4.2322
 20
18.2951
 30
0.0
 10
4.1171
 20
18.2938
 30
0.0
 10
4.1171
 20
18.2938
 30
0.0
 10
4.013
 20
18.2944
 30
0.0
 10
3.9231
 20
18.3345
 30
0.0
 10
3.8461
 20
18.4147
 30
0.0
 10
3.8461
 20
18.4147
 30
0.0
 10
3.7698
 20
18.4949
 30
0.0
 10
3.7109
 20
18.6114
 30
0.0
 10
3.6689
 20
18.764
 30
0.0
 10
3.6689
 20
18.764
 30
0.0
 10
3.6269
 20
18.9173
 30
0.0
 10
3.6055
 20
19.1029
 30
0.0
 10
3.6049
 20
19.3222
 30
0.0
 10
3.6049
 20
19.3222
 30
0.0
 10
3.6055
 20
19.5518
 30
0.0
 10
3.6282
 20
19.7438
 30
0.0
 10
3.6721
 20
19.9004
 30
0.0
 10
3.6721
 20
19.9004
 30
0.0
 10
3.7161
 20
20.0562
 30
0.0
 10
3.7763
 20
20.1739
 30
0.0
 10
3.8532
 20
20.2541
 30
0.0
 10
3.8532
 20
20.2541
 30
0.0
 10
3.9302
 20
20.3337
 30
0.0
 10
4.0182
 20
20.3738
 30
0.0
 10
4.1171
 20
20.3738
 30
0.0
  0
SPLINE
  5
5E
330
1F
100
AcDbEntity
  8
Ilustrace
 62
   250
100
AcDbSpline
210
0.0
220
0.0
230
1.0
 70
    11
 71
     3
 72
    20
 73
    16
 74
     0
 42
0.0000000001
 43
0.0000000001
 40
0.0
 40
0.0
 40
0.0
 40
0.0
 40
0.2
 40
0.2
 40
0.2
 40
0.2
 40
0.4
 40
0.4
 40
0.4
 40
0.4
 40
0.6
 40
0.6
 40
0.6
 40
0.6
 40
1.0
 40
1.0
 40
1.0
 40
1.0
 10
-2.6855
 20
19.1747
 30
0.0
 10
-2.6855
 20
19.1747
 30
0.0
 10
-2.6855
 20
18.9419
 30
0.0
 10
-2.6855
 20
18.9419
 30
0.0
 10
-2.6855
 20
18.9419
 30
0.0
 10
-2.6855
 20
18.9419
 30
0.0
 10
-0.978
 20
18.9419
 30
0.0
 10
-0.978
 20
18.9419
 30
0.0
 10
-0.978
 20
18.9419
 30
0.0
 10
-0.978
 20
18.9419
 30
0.0
 10
-0.978
 20
19.1747
 30
0.0
 10
-0.978
 20
19.1747
 30
0.0
 10
-0.978
 20
19.1747
 30
0.0
 10
-0.978
 20
19.1747
 30
0.0
 10
-2.6855
 20
19.1747
 30
0.0
 10
-2.6855
 20
19.1747
 30
0.0
  0
SPLINE
  5
5F
330
1F
100
AcDbEntity
  8
Ilustrace
 62
   250
100
AcDbSpline
210
0.0
220
0.0
230
1.0
 70
    11
 71
     3
 72
    68
 73
    64
 74
     0
 42
0.0000000001
 43
0.0000000001
 40
0.0
 40
0.0
 40
0.0
 40
0.0
 40
0.0588235294117647
 40
0.0588235294117647
 40
0.0588235294117647
 40
0.0588235294117647
 40
0.1176470588235294
 40
0.1176470588235294
 40
0.1176470588235294
 40
0.1176470588235294
 40
0.1764705882352941
 40
0.1764705882352941
 40
0.1764705882352941
 40
0.1764705882352941
 40
0.2352941176470588
 40
0.2352941176470588
 40
0.2352941176470588
 40
0.2352941176470588
 40
0.2941176470588235
 40
0.2941176470588235
 40
0.2941176470588235
 40
0.2941176470588235
 40
0.3529411764705883
 40
0.3529411764705883
 40
0.3529411764705883
 40
0.3529411764705883
 40
0.4117647058823529
 40
0.4117647058823529
 40
0.4117647058823529
 40
0.4117647058823529
 40
0.4705882352941176
 40
0.4705882352941176
 40
0.4705882352941176
 40
0.4705882352941176
 40
0.5294117647058824
 40
0.5294117647058824
 40
0.5294117647058824
 40
0.5294117647058824
 40
0.5882352941176471
 40
0.5882352941176471
 40
0.5882352941176471
 40
0.5882352941176471
 40
0.6470588235294118
 40
0.6470588235294118
 40
0.6470588235294118
 40
0.6470588235294118
 40
0.7058823529411765
 40
0.7058823529411765
 40
0.7058823529411765
 40
0.7058823529411765
 40
0.7647058823529411
 40
0.7647058823529411
 40
0.7647058823529411
 40
0.7647058823529411
 40
0.8235294117647058
 40
0.8235294117647058
 40
0.8235294117647058
 40
0.8235294117647058
 40
0.8823529411764706
 40
0.8823529411764706
 40
0.8823529411764706
 40
0.8823529411764706
 40
1.0
 40
1.0
 40
1.0
 40
1.0
 10
-10.1786
 20
-12.953
 30
0.0
 10
-10.2407
 20
-13.0345
 30
0.0
 10
-10.3008
 20
-13.1269
 30
0.0
 10
-10.3603
 20
-13.2317
 30
0.0
 10
-10.3603
 20
-13.2317
 30
0.0
 10
-10.4198
 20
-13.3358
 30
0.0
 10
-10.4742
 20
-13.4536
 30
0.0
 10
-10.5227
 20
-13.5836
 30
0.0
 10
-10.5227
 20
-13.5836
 30
0.0
 10
-10.5718
 20
-13.7136
 30
0.0
 10
-10.6106
 20
-13.8584
 30
0.0
 10
-10.6404
 20
-14.0169
 30
0.0
 10
-10.6404
 20
-14.0169
 30
0.0
 10
-10.6695
 20
-14.176
 30
0.0
 10
-10.685
 20
-14.35
 30
0.0
 10
-10.6869
 20
-14.5401
 30
0.0
 10
-10.6869
 20
-14.5401
 30
0.0
 10
-10.6863
 20
-14.729
 30
0.0
 10
-10.6714
 20
-14.9023
 30
0.0
 10
-10.6417
 20
-15.0601
 30
0.0
 10
-10.6417
 20
-15.0601
 30
0.0
 10
-10.6126
 20
-15.2179
 30
0.0
 10
-10.5731
 20
-15.3615
 30
0.0
 10
-10.5246
 20
-15.4909
 30
0.0
 10
-10.5246
 20
-15.4909
 30
0.0
 10
-10.4754
 20
-15.6202
 30
0.0
 10
-10.4211
 20
-15.7366
 30
0.0
 10
-10.361
 20
-15.8401
 30
0.0
 10
-10.361
 20
-15.8401
 30
0.0
 10
-10.3015
 20
-15.9436
 30
0.0
 10
-10.2407
 20
-16.0355
 30
0.0
 10
-10.1786
 20
-16.1157
 30
0.0
 10
-10.1786
 20
-16.1157
 30
0.0
 10
-10.1786
 20
-16.1157
 30
0.0
 10
-9.9147
 20
-16.1157
 30
0.0
 10
-9.9147
 20
-16.1157
 30
0.0
 10
-9.9147
 20
-16.1157
 30
0.0
 10
-10.0065
 20
-15.9869
 30
0.0
 10
-10.0887
 20
-15.8447
 30
0.0
 10
-10.1611
 20
-15.6894
 30
0.0
 10
-10.1611
 20
-15.6894
 30
0.0
 10
-10.2342
 20
-15.5336
 30
0.0
 10
-10.2918
 20
-15.3615
 30
0.0
 10
-10.3345
 20
-15.172
 30
0.0
 10
-10.3345
 20
-15.172
 30
0.0
 10
-10.3771
 20
-14.9832
 30
0.0
 10
-10.3991
 20
-14.7736
 30
0.0
 10
-10.3998
 20
-14.544
 30
0.0
 10
-10.3998
 20
-14.544
 30
0.0
 10
-10.3991
 20
-14.3092
 30
0.0
 10
-10.3784
 20
-14.0952
 30
0.0
 10
-10.337
 20
-13.9031
 30
0.0
 10
-10.337
 20
-13.9031
 30
0.0
 10
-10.2956
 20
-13.7103
 30
0.0
 10
-10.2387
 20
-13.5357
 30
0.0
 10
-10.1663
 20
-13.3792
 30
0.0
 10
-10.1663
 20
-13.3792
 30
0.0
 10
-10.0939
 20
-13.2227
 30
0.0
 10
-10.0098
 20
-13.0804
 30
0.0
 10
-9.9147
 20
-12.953
 30
0.0
 10
-9.9147
 20
-12.953
 30
0.0
 10
-9.9147
 20
-12.953
 30
0.0
 10
-10.1786
 20
-12.953
 30
0.0
 10
-10.1786
 20
-12.953
 30
0.0
  0
SPLINE
  5
60
330
1F
100
AcDbEntity
  8
Ilustrace
 62
   250
100
AcDbSpline
210
0.0
220
0.0
230
1.0
 70
    11
 71
     3
 72
   104
 73
   100
 74
     0
 42
0.0000000001
 43
0.0000000001
 40
0.0
 40
0.0
 40
0.0
 40
0.0
 40
0.0384615384615385
 40
0.0384615384615385
 40
0.0384615384615385
 40
0.0384615384615385
 40
0.0769230769230769
 40
0.0769230769230769
 40
0.0769230769230769
 40
0.0769230769230769
 40
0.1153846153846154
 40
0.1153846153846154
 40
0.1153846153846154
 40
0.1153846153846154
 40
0.1538461538461539
 40
0.1538461538461539
 40
0.1538461538461539
 40
0.1538461538461539
 40
0.1923076923076923
 40
0.1923076923076923
 40
0.1923076923076923
 40
0.1923076923076923
 40
0.2307692307692308
 40
0.2307692307692308
 40
0.2307692307692308
 40
0.2307692307692308
 40
0.2692307692307692
 40
0.2692307692307692
 40
0.2692307692307692
 40
0.2692307692307692
 40
0.3076923076923077
 40
0.3076923076923077
 40
0.3076923076923077
 40
0.3076923076923077
 40
0.3461538461538461
 40
0.3461538461538461
 40
0.3461538461538461
 40
0.3461538461538461
 40
0.3846153846153846
 40
0.3846153846153846
 40
0.3846153846153846
 40
0.3846153846153846
 40
0.4230769230769231
 40
0.4230769230769231
 40
0.4230769230769231
 40
0.4230769230769231
 40
0.4615384615384616
 40
0.4615384615384616
 40
0.4615384615384616
 40
0.4615384615384616
 40
0.5
 40
0.5
 40
0.5
 40
0.5
 40
0.5384615384615384
 40
0.5384615384615384
 40
0.5384615384615384
 40
0.5384615384615384
 40
0.5769230769230769
 40
0.5769230769230769
 40
0.5769230769230769
 40
0.5769230769230769
 40
0.6153846153846154
 40
0.6153846153846154
 40
0.6153846153846154
 40
0.6153846153846154
 40
0.6538461538461539
 40
0.6538461538461539
 40
0.6538461538461539
 40
0.6538461538461539
 40
0.6923076923076923
 40
0.6923076923076923
 40
0.6923076923076923
 40
0.6923076923076923
 40
0.7307692307692307
 40
0.7307692307692307
 40
0.7307692307692307
 40
0.7307692307692307
 40
0.7692307692307693
 40
0.7692307692307693
 40
0.7692307692307693
 40
0.7692307692307693
 40
0.8076923076923077
 40
0.8076923076923077
 40
0.8076923076923077
 40
0.8076923076923077
 40
0.8461538461538461
 40
0.8461538461538461
 40
0.8461538461538461
 40
0.8461538461538461
 40
0.8846153846153846
 40
0.8846153846153846
 40
0.8846153846153846
 40
0.8846153846153846
 40
0.9230769230769231
 40
0.9230769230769231
 40
0.9230769230769231
 40
0.9230769230769231
 40
1.0
 40
1.0
 40
1.0
 40
1.0
 10
-9.4452
 20
-15.813
 30
0.0
 10
-9.4452
 20
-15.813
 30
0.0
 10
-9.2007
 20
-15.4792
 30
0.0
 10
-9.2007
 20
-15.4792
 30
0.0
 10
-9.2007
 20
-15.4792
 30
0.0
 10
-9.1069
 20
-15.5471
 30
0.0
 10
-9.0041
 20
-15.5995
 30
0.0
 10
-8.8928
 20
-15.6351
 30
0.0
 10
-8.8928
 20
-15.6351
 30
0.0
 10
-8.7809
 20
-15.6707
 30
0.0
 10
-8.6639
 20
-15.6888
 30
0.0
 10
-8.541
 20
-15.6888
 30
0.0
 10
-8.541
 20
-15.6888
 30
0.0
 10
-8.4149
 20
-15.6888
 30
0.0
 10
-8.2926
 20
-15.67
 30
0.0
 10
-8.1756
 20
-15.6332
 30
0.0
 10
-8.1756
 20
-15.6332
 30
0.0
 10
-8.0585
 20
-15.5963
 30
0.0
 10
-7.9498
 20
-15.5413
 30
0.0
 10
-7.8502
 20
-15.4676
 30
0.0
 10
-7.8502
 20
-15.4676
 30
0.0
 10
-7.75
 20
-15.3945
 30
0.0
 10
-7.6627
 20
-15.3027
 30
0.0
 10
-7.5877
 20
-15.1927
 30
0.0
 10
-7.5877
 20
-15.1927
 30
0.0
 10
-7.5133
 20
-15.0828
 30
0.0
 10
-7.4551
 20
-14.9547
 30
0.0
 10
-7.413
 20
-14.8079
 30
0.0
 10
-7.413
 20
-14.8079
 30
0.0
 10
-7.3716
 20
-14.6617
 30
0.0
 10
-7.3503
 20
-14.4974
 30
0.0
 10
-7.3496
 20
-14.3151
 30
0.0
 10
-7.3496
 20
-14.3151
 30
0.0
 10
-7.3496
 20
-14.1863
 30
0.0
 10
-7.3626
 20
-14.0641
 30
0.0
 10
-7.3891
 20
-13.9477
 30
0.0
 10
-7.3891
 20
-13.9477
 30
0.0
 10
-7.415
 20
-13.8306
 30
0.0
 10
-7.4531
 20
-13.722
 30
0.0
 10
-7.5029
 20
-13.6217
 30
0.0
 10
-7.5029
 20
-13.6217
 30
0.0
 10
-7.5534
 20
-13.5215
 30
0.0
 10
-7.6148
 20
-13.4322
 30
0.0
 10
-7.6873
 20
-13.3527
 30
0.0
 10
-7.6873
 20
-13.3527
 30
0.0
 10
-7.6873
 20
-13.3527
 30
0.0
 10
-7.4467
 20
-13.0189
 30
0.0
 10
-7.4467
 20
-13.0189
 30
0.0
 10
-7.4467
 20
-13.0189
 30
0.0
 10
-7.4467
 20
-13.0189
 30
0.0
 10
-7.6523
 20
-12.8792
 30
0.0
 10
-7.6523
 20
-12.8792
 30
0.0
 10
-7.6523
 20
-12.8792
 30
0.0
 10
-7.6523
 20
-12.8792
 30
0.0
 10
-7.8813
 20
-13.1936
 30
0.0
 10
-7.8813
 20
-13.1936
 30
0.0
 10
-7.8813
 20
-13.1936
 30
0.0
 10
-7.9751
 20
-13.1237
 30
0.0
 10
-8.0766
 20
-13.0713
 30
0.0
 10
-8.1866
 20
-13.0364
 30
0.0
 10
-8.1866
 20
-13.0364
 30
0.0
 10
-8.2972
 20
-13.0015
 30
0.0
 10
-8.4123
 20
-12.984
 30
0.0
 10
-8.5332
 20
-12.984
 30
0.0
 10
-8.5332
 20
-12.984
 30
0.0
 10
-8.7059
 20
-12.9847
 30
0.0
 10
-8.865
 20
-13.017
 30
0.0
 10
-9.0118
 20
-13.081
 30
0.0
 10
-9.0118
 20
-13.081
 30
0.0
 10
-9.158
 20
-13.1451
 30
0.0
 10
-9.2854
 20
-13.2375
 30
0.0
 10
-9.3941
 20
-13.3572
 30
0.0
 10
-9.3941
 20
-13.3572
 30
0.0
 10
-9.5034
 20
-13.4768
 30
0.0
 10
-9.5875
 20
-13.6204
 30
0.0
 10
-9.6483
 20
-13.7879
 30
0.0
 10
-9.6483
 20
-13.7879
 30
0.0
 10
-9.7084
 20
-13.9555
 30
0.0
 10
-9.7395
 20
-14.1424
 30
0.0
 10
-9.7401
 20
-14.35
 30
0.0
 10
-9.7401
 20
-14.35
 30
0.0
 10
-9.7401
 20
-14.4806
 30
0.0
 10
-9.7259
 20
-14.6055
 30
0.0
 10
-9.6987
 20
-14.7232
 30
0.0
 10
-9.6987
 20
-14.7232
 30
0.0
 10
-9.6715
 20
-14.8409
 30
0.0
 10
-9.6321
 20
-14.9502
 30
0.0
 10
-9.581
 20
-15.0504
 30
0.0
 10
-9.581
 20
-15.0504
 30
0.0
 10
-9.5293
 20
-15.1507
 30
0.0
 10
-9.4672
 20
-15.2406
 30
0.0
 10
-9.3947
 20
-15.3201
 30
0.0
 10
-9.3947
 20
-15.3201
 30
0.0
 10
-9.3947
 20
-15.3201
 30
0.0
 10
-9.6353
 20
-15.6577
 30
0.0
 10
-9.6353
 20
-15.6577
 30
0.0
 10
-9.6353
 20
-15.6577
 30
0.0
 10
-9.6353
 20
-15.6577
 30
0.0
 10
-9.4452
 20
-15.813
 30
0.0
 10
-9.4452
 20
-15.813
 30
0.0
  0
SPLINE
  5
61
330
1F
100
AcDbEntity
  8
Ilustrace
 62
   250
100
AcDbSpline
210
0.0
220
0.0
230
1.0
 70
    11
 71
     3
 72
    52
 73
    48
 74
     0
 42
0.0000000001
 43
0.0000000001
 40
0.0
 40
0.0
 40
0.0
 40
0.0
 40
0.0769230769230769
 40
0.0769230769230769
 40
0.0769230769230769
 40
0.0769230769230769
 40
0.1538461538461539
 40
0.1538461538461539
 40
0.1538461538461539
 40
0.1538461538461539
 40
0.2307692307692308
 40
0.2307692307692308
 40
0.2307692307692308
 40
0.2307692307692308
 40
0.3076923076923077
 40
0.3076923076923077
 40
0.3076923076923077
 40
0.3076923076923077
 40
0.3846153846153846
 40
0.3846153846153846
 40
0.3846153846153846
 40
0.3846153846153846
 40
0.4615384615384616
 40
0.4615384615384616
 40
0.4615384615384616
 40
0.4615384615384616
 40
0.5384615384615384
 40
0.5384615384615384
 40
0.5384615384615384
 40
0.5384615384615384
 40
0.6153846153846154
 40
0.6153846153846154
 40
0.6153846153846154
 40
0.6153846153846154
 40
0.6923076923076923
 40
0.6923076923076923
 40
0.6923076923076923
 40
0.6923076923076923
 40
0.7692307692307693
 40
0.7692307692307693
 40
0.7692307692307693
 40
0.7692307692307693
 40
0.8461538461538461
 40
0.8461538461538461
 40
0.8461538461538461
 40
0.8461538461538461
 40
1.0
 40
1.0
 40
1.0
 40
1.0
 10
-9.1968
 20
-15.033
 30
0.0
 10
-9.1968
 20
-15.033
 30
0.0
 10
-9.2046
 20
-15.0368
 30
0.0
 10
-9.2046
 20
-15.0368
 30
0.0
 10
-9.2046
 20
-15.0368
 30
0.0
 10
-9.2434
 20
-14.9702
 30
0.0
 10
-9.277
 20
-14.901
 30
0.0
 10
-9.3055
 20
-14.8299
 30
0.0
 10
-9.3055
 20
-14.8299
 30
0.0
 10
-9.3339
 20
-14.7581
 30
0.0
 10
-9.3559
 20
-14.6824
 30
0.0
 10
-9.3714
 20
-14.6009
 30
0.0
 10
-9.3714
 20
-14.6009
 30
0.0
 10
-9.387
 20
-14.5201
 30
0.0
 10
-9.3947
 20
-14.4308
 30
0.0
 10
-9.3947
 20
-14.3345
 30
0.0
 10
-9.3947
 20
-14.3345
 30
0.0
 10
-9.3947
 20
-14.2232
 30
0.0
 10
-9.3831
 20
-14.1159
 30
0.0
 10
-9.3604
 20
-14.0104
 30
0.0
 10
-9.3604
 20
-14.0104
 30
0.0
 10
-9.3372
 20
-13.9057
 30
0.0
 10
-9.3029
 20
-13.8073
 30
0.0
 10
-9.2576
 20
-13.7168
 30
0.0
 10
-9.2576
 20
-13.7168
 30
0.0
 10
-9.2117
 20
-13.6256
 30
0.0
 10
-9.1548
 20
-13.5454
 30
0.0
 10
-9.0862
 20
-13.4768
 30
0.0
 10
-9.0862
 20
-13.4768
 30
0.0
 10
-9.0177
 20
-13.4076
 30
0.0
 10
-8.9381
 20
-13.354
 30
0.0
 10
-8.8476
 20
-13.3152
 30
0.0
 10
-8.8476
 20
-13.3152
 30
0.0
 10
-8.7564
 20
-13.2757
 30
0.0
 10
-8.6542
 20
-13.2563
 30
0.0
 10
-8.541
 20
-13.2557
 30
0.0
 10
-8.541
 20
-13.2557
 30
0.0
 10
-8.442
 20
-13.2563
 30
0.0
 10
-8.3515
 20
-13.2725
 30
0.0
 10
-8.27
 20
-13.3048
 30
0.0
 10
-8.27
 20
-13.3048
 30
0.0
 10
-8.1879
 20
-13.3365
 30
0.0
 10
-8.1141
 20
-13.3811
 30
0.0
 10
-8.0482
 20
-13.438
 30
0.0
 10
-8.0482
 20
-13.438
 30
0.0
 10
-8.0482
 20
-13.438
 30
0.0
 10
-9.1968
 20
-15.033
 30
0.0
 10
-9.1968
 20
-15.033
 30
0.0
  0
SPLINE
  5
62
330
1F
100
AcDbEntity
  8
Ilustrace
 62
   250
100
AcDbSpline
210
0.0
220
0.0
230
1.0
 70
    11
 71
     3
 72
    48
 73
    44
 74
     0
 42
0.0000000001
 43
0.0000000001
 40
0.0
 40
0.0
 40
0.0
 40
0.0
 40
0.0833333333333333
 40
0.0833333333333333
 40
0.0833333333333333
 40
0.0833333333333333
 40
0.1666666666666667
 40
0.1666666666666667
 40
0.1666666666666667
 40
0.1666666666666667
 40
0.25
 40
0.25
 40
0.25
 40
0.25
 40
0.3333333333333333
 40
0.3333333333333333
 40
0.3333333333333333
 40
0.3333333333333333
 40
0.4166666666666667
 40
0.4166666666666667
 40
0.4166666666666667
 40
0.4166666666666667
 40
0.5
 40
0.5
 40
0.5
 40
0.5
 40
0.5833333333333334
 40
0.5833333333333334
 40
0.5833333333333334
 40
0.5833333333333334
 40
0.6666666666666666
 40
0.6666666666666666
 40
0.6666666666666666
 40
0.6666666666666666
 40
0.75
 40
0.75
 40
0.75
 40
0.75
 40
0.8333333333333334
 40
0.8333333333333334
 40
0.8333333333333334
 40
0.8333333333333334
 40
1.0
 40
1.0
 40
1.0
 40
1.0
 10
-7.8891
 20
-13.6437
 30
0.0
 10
-7.8891
 20
-13.6437
 30
0.0
 10
-7.8774
 20
-13.6437
 30
0.0
 10
-7.8774
 20
-13.6437
 30
0.0
 10
-7.8774
 20
-13.6437
 30
0.0
 10
-7.8101
 20
-13.7562
 30
0.0
 10
-7.7629
 20
-13.8701
 30
0.0
 10
-7.7351
 20
-13.9852
 30
0.0
 10
-7.7351
 20
-13.9852
 30
0.0
 10
-7.7073
 20
-14.0997
 30
0.0
 10
-7.6937
 20
-14.2135
 30
0.0
 10
-7.695
 20
-14.3267
 30
0.0
 10
-7.695
 20
-14.3267
 30
0.0
 10
-7.695
 20
-14.4444
 30
0.0
 10
-7.7073
 20
-14.5569
 30
0.0
 10
-7.7312
 20
-14.665
 30
0.0
 10
-7.7312
 20
-14.665
 30
0.0
 10
-7.7552
 20
-14.773
 30
0.0
 10
-7.7907
 20
-14.8726
 30
0.0
 10
-7.8373
 20
-14.9638
 30
0.0
 10
-7.8373
 20
-14.9638
 30
0.0
 10
-7.8845
 20
-15.055
 30
0.0
 10
-7.9421
 20
-15.1345
 30
0.0
 10
-8.0106
 20
-15.2018
 30
0.0
 10
-8.0106
 20
-15.2018
 30
0.0
 10
-8.0798
 20
-15.2697
 30
0.0
 10
-8.1588
 20
-15.3227
 30
0.0
 10
-8.248
 20
-15.3602
 30
0.0
 10
-8.248
 20
-15.3602
 30
0.0
 10
-8.3373
 20
-15.3977
 30
0.0
 10
-8.4362
 20
-15.4165
 30
0.0
 10
-8.5449
 20
-15.4171
 30
0.0
 10
-8.5449
 20
-15.4171
 30
0.0
 10
-8.6503
 20
-15.4171
 30
0.0
 10
-8.7428
 20
-15.401
 30
0.0
 10
-8.821
 20
-15.3693
 30
0.0
 10
-8.821
 20
-15.3693
 30
0.0
 10
-8.8999
 20
-15.3376
 30
0.0
 10
-8.9704
 20
-15.291
 30
0.0
 10
-9.0338
 20
-15.2309
 30
0.0
 10
-9.0338
 20
-15.2309
 30
0.0
 10
-9.0338
 20
-15.2309
 30
0.0
 10
-7.8891
 20
-13.6437
 30
0.0
 10
-7.8891
 20
-13.6437
 30
0.0
  0
SPLINE
  5
63
330
1F
100
AcDbEntity
  8
Ilustrace
 62
   250
100
AcDbSpline
210
0.0
220
0.0
230
1.0
 70
    11
 71
     3
 72
   124
 73
   120
 74
     0
 42
0.0000000001
 43
0.0000000001
 40
0.0
 40
0.0
 40
0.0
 40
0.0
 40
0.032258064516129
 40
0.032258064516129
 40
0.032258064516129
 40
0.032258064516129
 40
0.0645161290322581
 40
0.0645161290322581
 40
0.0645161290322581
 40
0.0645161290322581
 40
0.0967741935483871
 40
0.0967741935483871
 40
0.0967741935483871
 40
0.0967741935483871
 40
0.1290322580645161
 40
0.1290322580645161
 40
0.1290322580645161
 40
0.1290322580645161
 40
0.1612903225806452
 40
0.1612903225806452
 40
0.1612903225806452
 40
0.1612903225806452
 40
0.1935483870967742
 40
0.1935483870967742
 40
0.1935483870967742
 40
0.1935483870967742
 40
0.2258064516129032
 40
0.2258064516129032
 40
0.2258064516129032
 40
0.2258064516129032
 40
0.2580645161290323
 40
0.2580645161290323
 40
0.2580645161290323
 40
0.2580645161290323
 40
0.2903225806451613
 40
0.2903225806451613
 40
0.2903225806451613
 40
0.2903225806451613
 40
0.3225806451612903
 40
0.3225806451612903
 40
0.3225806451612903
 40
0.3225806451612903
 40
0.3548387096774194
 40
0.3548387096774194
 40
0.3548387096774194
 40
0.3548387096774194
 40
0.3870967741935484
 40
0.3870967741935484
 40
0.3870967741935484
 40
0.3870967741935484
 40
0.4193548387096774
 40
0.4193548387096774
 40
0.4193548387096774
 40
0.4193548387096774
 40
0.4516129032258064
 40
0.4516129032258064
 40
0.4516129032258064
 40
0.4516129032258064
 40
0.4838709677419355
 40
0.4838709677419355
 40
0.4838709677419355
 40
0.4838709677419355
 40
0.5161290322580645
 40
0.5161290322580645
 40
0.5161290322580645
 40
0.5161290322580645
 40
0.5483870967741935
 40
0.5483870967741935
 40
0.5483870967741935
 40
0.5483870967741935
 40
0.5806451612903226
 40
0.5806451612903226
 40
0.5806451612903226
 40
0.5806451612903226
 40
0.6129032258064516
 40
0.6129032258064516
 40
0.6129032258064516
 40
0.6129032258064516
 40
0.6451612903225806
 40
0.6451612903225806
 40
0.6451612903225806
 40
0.6451612903225806
 40
0.6774193548387096
 40
0.6774193548387096
 40
0.6774193548387096
 40
0.6774193548387096
 40
0.7096774193548387
 40
0.7096774193548387
 40
0.7096774193548387
 40
0.7096774193548387
 40
0.7419354838709677
 40
0.7419354838709677
 40
0.7419354838709677
 40
0.7419354838709677
 40
0.7741935483870968
 40
0.7741935483870968
 40
0.7741935483870968
 40
0.7741935483870968
 40
0.8064516129032258
 40
0.8064516129032258
 40
0.8064516129032258
 40
0.8064516129032258
 40
0.8387096774193549
 40
0.8387096774193549
 40
0.8387096774193549
 40
0.8387096774193549
 40
0.8709677419354839
 40
0.8709677419354839
 40
0.8709677419354839
 40
0.8709677419354839
 40
0.9032258064516129
 40
0.9032258064516129
 40
0.9032258064516129
 40
0.9032258064516129
 40
0.9354838709677419
 40
0.9354838709677419
 40
0.9354838709677419
 40
0.9354838709677419
 40
1.0
 40
1.0
 40
1.0
 40
1.0
 10
-6.8336
 20
-15.6849
 30
0.0
 10
-6.7928
 20
-15.6868
 30
0.0
 10
-6.7456
 20
-15.6868
 30
0.0
 10
-6.6926
 20
-15.6836
 30
0.0
 10
-6.6926
 20
-15.6836
 30
0.0
 10
-6.6395
 20
-15.681
 30
0.0
 10
-6.5813
 20
-15.6752
 30
0.0
 10
-6.5192
 20
-15.6655
 30
0.0
 10
-6.5192
 20
-15.6655
 30
0.0
 10
-6.428
 20
-15.6552
 30
0.0
 10
-6.3388
 20
-15.6351
 30
0.0
 10
-6.2515
 20
-15.6066
 30
0.0
 10
-6.2515
 20
-15.6066
 30
0.0
 10
-6.1642
 20
-15.5775
 30
0.0
 10
-6.0807
 20
-15.5394
 30
0.0
 10
-6.0018
 20
-15.4928
 30
0.0
 10
-6.0018
 20
-15.4928
 30
0.0
 10
-5.9229
 20
-15.4462
 30
0.0
 10
-5.8511
 20
-15.3913
 30
0.0
 10
-5.7858
 20
-15.3279
 30
0.0
 10
-5.7858
 20
-15.3279
 30
0.0
 10
-5.7024
 20
-15.2477
 30
0.0
 10
-5.628
 20
-15.1513
 30
0.0
 10
-5.5627
 20
-15.0375
 30
0.0
 10
-5.5627
 20
-15.0375
 30
0.0
 10
-5.4973
 20
-14.9243
 30
0.0
 10
-5.4462
 20
-14.7937
 30
0.0
 10
-5.4087
 20
-14.6456
 30
0.0
 10
-5.4087
 20
-14.6456
 30
0.0
 10
-5.3712
 20
-14.4974
 30
0.0
 10
-5.3518
 20
-14.3319
 30
0.0
 10
-5.3512
 20
-14.1482
 30
0.0
 10
-5.3512
 20
-14.1482
 30
0.0
 10
-5.3512
 20
-13.9846
 30
0.0
 10
-5.3706
 20
-13.8377
 30
0.0
 10
-5.4087
 20
-13.7064
 30
0.0
 10
-5.4087
 20
-13.7064
 30
0.0
 10
-5.4469
 20
-13.5752
 30
0.0
 10
-5.5025
 20
-13.4633
 30
0.0
 10
-5.575
 20
-13.3701
 30
0.0
 10
-5.575
 20
-13.3701
 30
0.0
 10
-5.6474
 20
-13.277
 30
0.0
 10
-5.7347
 20
-13.2058
 30
0.0
 10
-5.8375
 20
-13.156
 30
0.0
 10
-5.8375
 20
-13.156
 30
0.0
 10
-5.9404
 20
-13.1062
 30
0.0
 10
-6.0561
 20
-13.0817
 30
0.0
 10
-6.1855
 20
-13.081
 30
0.0
 10
-6.1855
 20
-13.081
 30
0.0
 10
-6.3149
 20
-13.0817
 30
0.0
 10
-6.4326
 20
-13.1062
 30
0.0
 10
-6.538
 20
-13.1541
 30
0.0
 10
-6.538
 20
-13.1541
 30
0.0
 10
-6.6434
 20
-13.2013
 30
0.0
 10
-6.734
 20
-13.2673
 30
0.0
 10
-6.8096
 20
-13.3501
 30
0.0
 10
-6.8096
 20
-13.3501
 30
0.0
 10
-6.886
 20
-13.4335
 30
0.0
 10
-6.9442
 20
-13.5286
 30
0.0
 10
-6.9849
 20
-13.6359
 30
0.0
 10
-6.9849
 20
-13.6359
 30
0.0
 10
-7.0257
 20
-13.7433
 30
0.0
 10
-7.0463
 20
-13.8571
 30
0.0
 10
-7.047
 20
-13.9774
 30
0.0
 10
-7.047
 20
-13.9774
 30
0.0
 10
-7.0463
 20
-14.0855
 30
0.0
 10
-7.0289
 20
-14.1863
 30
0.0
 10
-6.9946
 20
-14.2795
 30
0.0
 10
-6.9946
 20
-14.2795
 30
0.0
 10
-6.9597
 20
-14.3733
 30
0.0
 10
-6.9099
 20
-14.4548
 30
0.0
 10
-6.8452
 20
-14.5253
 30
0.0
 10
-6.8452
 20
-14.5253
 30
0.0
 10
-6.7805
 20
-14.5951
 30
0.0
 10
-6.7023
 20
-14.6501
 30
0.0
 10
-6.6117
 20
-14.6895
 30
0.0
 10
-6.6117
 20
-14.6895
 30
0.0
 10
-6.5205
 20
-14.729
 30
0.0
 10
-6.419
 20
-14.749
 30
0.0
 10
-6.3058
 20
-14.7497
 30
0.0
 10
-6.3058
 20
-14.7497
 30
0.0
 10
-6.1777
 20
-14.749
 30
0.0
 10
-6.0633
 20
-14.7258
 30
0.0
 10
-5.963
 20
-14.6798
 30
0.0
 10
-5.963
 20
-14.6798
 30
0.0
 10
-5.8634
 20
-14.6339
 30
0.0
 10
-5.778
 20
-14.5679
 30
0.0
 10
-5.7082
 20
-14.4819
 30
0.0
 10
-5.7082
 20
-14.4819
 30
0.0
 10
-5.7082
 20
-14.4819
 30
0.0
 10
-5.6965
 20
-14.4819
 30
0.0
 10
-5.6965
 20
-14.4819
 30
0.0
 10
-5.6965
 20
-14.4819
 30
0.0
 10
-5.7205
 20
-14.6294
 30
0.0
 10
-5.7612
 20
-14.7587
 30
0.0
 10
-5.8181
 20
-14.8693
 30
0.0
 10
-5.8181
 20
-14.8693
 30
0.0
 10
-5.8757
 20
-14.9806
 30
0.0
 10
-5.9462
 20
-15.0737
 30
0.0
 10
-6.0303
 20
-15.1494
 30
0.0
 10
-6.0303
 20
-15.1494
 30
0.0
 10
-6.1027
 20
-15.2192
 30
0.0
 10
-6.1836
 20
-15.2736
 30
0.0
 10
-6.2735
 20
-15.3137
 30
0.0
 10
-6.2735
 20
-15.3137
 30
0.0
 10
-6.3634
 20
-15.3538
 30
0.0
 10
-6.4584
 20
-15.3803
 30
0.0
 10
-6.558
 20
-15.3939
 30
0.0
 10
-6.558
 20
-15.3939
 30
0.0
 10
-6.6156
 20
-15.3997
 30
0.0
 10
-6.6673
 20
-15.4042
 30
0.0
 10
-6.712
 20
-15.4068
 30
0.0
 10
-6.712
 20
-15.4068
 30
0.0
 10
-6.7566
 20
-15.4094
 30
0.0
 10
-6.7973
 20
-15.4094
 30
0.0
 10
-6.8336
 20
-15.4055
 30
0.0
 10
-6.8336
 20
-15.4055
 30
0.0
 10
-6.8336
 20
-15.4055
 30
0.0
 10
-6.8336
 20
-15.6849
 30
0.0
 10
-6.8336
 20
-15.6849
 30
0.0
  0
SPLINE
  5
64
330
1F
100
AcDbEntity
  8
Ilustrace
 62
   250
100
AcDbSpline
210
0.0
220
0.0
230
1.0
 70
    11
 71
     3
 72
    64
 73
    60
 74
     0
 42
0.0000000001
 43
0.0000000001
 40
0.0
 40
0.0
 40
0.0
 40
0.0
 40
0.0625
 40
0.0625
 40
0.0625
 40
0.0625
 40
0.125
 40
0.125
 40
0.125
 40
0.125
 40
0.1875
 40
0.1875
 40
0.1875
 40
0.1875
 40
0.25
 40
0.25
 40
0.25
 40
0.25
 40
0.3125
 40
0.3125
 40
0.3125
 40
0.3125
 40
0.375
 40
0.375
 40
0.375
 40
0.375
 40
0.4375
 40
0.4375
 40
0.4375
 40
0.4375
 40
0.5
 40
0.5
 40
0.5
 40
0.5
 40
0.5625
 40
0.5625
 40
0.5625
 40
0.5625
 40
0.625
 40
0.625
 40
0.625
 40
0.625
 40
0.6875
 40
0.6875
 40
0.6875
 40
0.6875
 40
0.75
 40
0.75
 40
0.75
 40
0.75
 40
0.8125
 40
0.8125
 40
0.8125
 40
0.8125
 40
0.875
 40
0.875
 40
0.875
 40
0.875
 40
1.0
 40
1.0
 40
1.0
 40
1.0
 10
-6.2165
 20
-13.341
 30
0.0
 10
-6.1266
 20
-13.3417
 30
0.0
 10
-6.0484
 20
-13.3611
 30
0.0
 10
-5.9831
 20
-13.3992
 30
0.0
 10
-5.9831
 20
-13.3992
 30
0.0
 10
-5.9177
 20
-13.4374
 30
0.0
 10
-5.8634
 20
-13.4911
 30
0.0
 10
-5.8214
 20
-13.5596
 30
0.0
 10
-5.8214
 20
-13.5596
 30
0.0
 10
-5.7787
 20
-13.6282
 30
0.0
 10
-5.7476
 20
-13.709
 30
0.0
 10
-5.7269
 20
-13.8009
 30
0.0
 10
-5.7269
 20
-13.8009
 30
0.0
 10
-5.7062
 20
-13.8934
 30
0.0
 10
-5.6965
 20
-13.9936
 30
0.0
 10
-5.6965
 20
-14.1016
 30
0.0
 10
-5.6965
 20
-14.1016
 30
0.0
 10
-5.6965
 20
-14.1301
 30
0.0
 10
-5.6991
 20
-14.1547
 30
0.0
 10
-5.705
 20
-14.1741
 30
0.0
 10
-5.705
 20
-14.1741
 30
0.0
 10
-5.7101
 20
-14.1941
 30
0.0
 10
-5.7179
 20
-14.2129
 30
0.0
 10
-5.7276
 20
-14.2297
 30
0.0
 10
-5.7276
 20
-14.2297
 30
0.0
 10
-5.7573
 20
-14.2808
 30
0.0
 10
-5.7968
 20
-14.326
 30
0.0
 10
-5.8453
 20
-14.3655
 30
0.0
 10
-5.8453
 20
-14.3655
 30
0.0
 10
-5.8932
 20
-14.405
 30
0.0
 10
-5.9494
 20
-14.436
 30
0.0
 10
-6.0135
 20
-14.4586
 30
0.0
 10
-6.0135
 20
-14.4586
 30
0.0
 10
-6.0775
 20
-14.4813
 30
0.0
 10
-6.148
 20
-14.4929
 30
0.0
 10
-6.2243
 20
-14.4936
 30
0.0
 10
-6.2243
 20
-14.4936
 30
0.0
 10
-6.3233
 20
-14.4929
 30
0.0
 10
-6.4086
 20
-14.4696
 30
0.0
 10
-6.4811
 20
-14.4244
 30
0.0
 10
-6.4811
 20
-14.4244
 30
0.0
 10
-6.5535
 20
-14.3791
 30
0.0
 10
-6.6098
 20
-14.317
 30
0.0
 10
-6.6492
 20
-14.2368
 30
0.0
 10
-6.6492
 20
-14.2368
 30
0.0
 10
-6.6887
 20
-14.1566
 30
0.0
 10
-6.7087
 20
-14.0635
 30
0.0
 10
-6.7094
 20
-13.958
 30
0.0
 10
-6.7094
 20
-13.958
 30
0.0
 10
-6.7087
 20
-13.8364
 30
0.0
 10
-6.6874
 20
-13.7297
 30
0.0
 10
-6.6454
 20
-13.6379
 30
0.0
 10
-6.6454
 20
-13.6379
 30
0.0
 10
-6.6033
 20
-13.5454
 30
0.0
 10
-6.5458
 20
-13.473
 30
0.0
 10
-6.472
 20
-13.4206
 30
0.0
 10
-6.472
 20
-13.4206
 30
0.0
 10
-6.3983
 20
-13.3682
 30
0.0
 10
-6.3129
 20
-13.3417
 30
0.0
 10
-6.2165
 20
-13.341
 30
0.0
  0
SPLINE
  5
65
330
1F
100
AcDbEntity
  8
Ilustrace
 62
   250
100
AcDbSpline
210
0.0
220
0.0
230
1.0
 70
    11
 71
     3
 72
    48
 73
    44
 74
     0
 42
0.0000000001
 43
0.0000000001
 40
0.0
 40
0.0
 40
0.0
 40
0.0
 40
0.0833333333333333
 40
0.0833333333333333
 40
0.0833333333333333
 40
0.0833333333333333
 40
0.1666666666666667
 40
0.1666666666666667
 40
0.1666666666666667
 40
0.1666666666666667
 40
0.25
 40
0.25
 40
0.25
 40
0.25
 40
0.3333333333333333
 40
0.3333333333333333
 40
0.3333333333333333
 40
0.3333333333333333
 40
0.4166666666666667
 40
0.4166666666666667
 40
0.4166666666666667
 40
0.4166666666666667
 40
0.5
 40
0.5
 40
0.5
 40
0.5
 40
0.5833333333333334
 40
0.5833333333333334
 40
0.5833333333333334
 40
0.5833333333333334
 40
0.6666666666666666
 40
0.6666666666666666
 40
0.6666666666666666
 40
0.6666666666666666
 40
0.75
 40
0.75
 40
0.75
 40
0.75
 40
0.8333333333333334
 40
0.8333333333333334
 40
0.8333333333333334
 40
0.8333333333333334
 40
1.0
 40
1.0
 40
1.0
 40
1.0
 10
-3.6632
 20
-15.6461
 30
0.0
 10
-3.6632
 20
-15.6461
 30
0.0
 10
-3.6632
 20
-14.9554
 30
0.0
 10
-3.6632
 20
-14.9554
 30
0.0
 10
-3.6632
 20
-14.9554
 30
0.0
 10
-3.6632
 20
-14.9554
 30
0.0
 10
-3.31
 20
-14.9554
 30
0.0
 10
-3.31
 20
-14.9554
 30
0.0
 10
-3.31
 20
-14.9554
 30
0.0
 10
-3.31
 20
-14.9554
 30
0.0
 10
-3.31
 20
-14.6915
 30
0.0
 10
-3.31
 20
-14.6915
 30
0.0
 10
-3.31
 20
-14.6915
 30
0.0
 10
-3.31
 20
-14.6915
 30
0.0
 10
-3.6632
 20
-14.6915
 30
0.0
 10
-3.6632
 20
-14.6915
 30
0.0
 10
-3.6632
 20
-14.6915
 30
0.0
 10
-3.6632
 20
-14.6915
 30
0.0
 10
-3.6632
 20
-13.1237
 30
0.0
 10
-3.6632
 20
-13.1237
 30
0.0
 10
-3.6632
 20
-13.1237
 30
0.0
 10
-3.6632
 20
-13.1237
 30
0.0
 10
-4.0318
 20
-13.1237
 30
0.0
 10
-4.0318
 20
-13.1237
 30
0.0
 10
-4.0318
 20
-13.1237
 30
0.0
 10
-4.0318
 20
-13.1237
 30
0.0
 10
-5.1572
 20
-14.7342
 30
0.0
 10
-5.1572
 20
-14.7342
 30
0.0
 10
-5.1572
 20
-14.7342
 30
0.0
 10
-5.1572
 20
-14.7342
 30
0.0
 10
-5.1572
 20
-14.9554
 30
0.0
 10
-5.1572
 20
-14.9554
 30
0.0
 10
-5.1572
 20
-14.9554
 30
0.0
 10
-5.1572
 20
-14.9554
 30
0.0
 10
-3.9852
 20
-14.9554
 30
0.0
 10
-3.9852
 20
-14.9554
 30
0.0
 10
-3.9852
 20
-14.9554
 30
0.0
 10
-3.9852
 20
-14.9554
 30
0.0
 10
-3.9852
 20
-15.6461
 30
0.0
 10
-3.9852
 20
-15.6461
 30
0.0
 10
-3.9852
 20
-15.6461
 30
0.0
 10
-3.9852
 20
-15.6461
 30
0.0
 10
-3.6632
 20
-15.6461
 30
0.0
 10
-3.6632
 20
-15.6461
 30
0.0
  0
SPLINE
  5
66
330
1F
100
AcDbEntity
  8
Ilustrace
 62
   250
100
AcDbSpline
210
0.0
220
0.0
230
1.0
 70
    11
 71
     3
 72
    36
 73
    32
 74
     0
 42
0.0000000001
 43
0.0000000001
 40
0.0
 40
0.0
 40
0.0
 40
0.0
 40
0.1111111111111111
 40
0.1111111111111111
 40
0.1111111111111111
 40
0.1111111111111111
 40
0.2222222222222222
 40
0.2222222222222222
 40
0.2222222222222222
 40
0.2222222222222222
 40
0.3333333333333333
 40
0.3333333333333333
 40
0.3333333333333333
 40
0.3333333333333333
 40
0.4444444444444444
 40
0.4444444444444444
 40
0.4444444444444444
 40
0.4444444444444444
 40
0.5555555555555556
 40
0.5555555555555556
 40
0.5555555555555556
 40
0.5555555555555556
 40
0.6666666666666666
 40
0.6666666666666666
 40
0.6666666666666666
 40
0.6666666666666666
 40
0.7777777777777778
 40
0.7777777777777778
 40
0.7777777777777778
 40
0.7777777777777778
 40
1.0
 40
1.0
 40
1.0
 40
1.0
 10
-4.8118
 20
-14.6915
 30
0.0
 10
-4.8118
 20
-14.6915
 30
0.0
 10
-4.8118
 20
-14.6837
 30
0.0
 10
-4.8118
 20
-14.6837
 30
0.0
 10
-4.8118
 20
-14.6837
 30
0.0
 10
-4.8118
 20
-14.6837
 30
0.0
 10
-4.1948
 20
-13.8261
 30
0.0
 10
-4.1948
 20
-13.8261
 30
0.0
 10
-4.1948
 20
-13.8261
 30
0.0
 10
-4.1605
 20
-13.7685
 30
0.0
 10
-4.1262
 20
-13.7103
 30
0.0
 10
-4.0926
 20
-13.6515
 30
0.0
 10
-4.0926
 20
-13.6515
 30
0.0
 10
-4.0596
 20
-13.592
 30
0.0
 10
-4.0234
 20
-13.526
 30
0.0
 10
-3.9852
 20
-13.4536
 30
0.0
 10
-3.9852
 20
-13.4536
 30
0.0
 10
-3.9852
 20
-13.4536
 30
0.0
 10
-3.9736
 20
-13.4536
 30
0.0
 10
-3.9736
 20
-13.4536
 30
0.0
 10
-3.9736
 20
-13.4536
 30
0.0
 10
-3.9814
 20
-13.5855
 30
0.0
 10
-3.9852
 20
-13.7174
 30
0.0
 10
-3.9852
 20
-13.8494
 30
0.0
 10
-3.9852
 20
-13.8494
 30
0.0
 10
-3.9852
 20
-13.8494
 30
0.0
 10
-3.9852
 20
-14.6915
 30
0.0
 10
-3.9852
 20
-14.6915
 30
0.0
 10
-3.9852
 20
-14.6915
 30
0.0
 10
-3.9852
 20
-14.6915
 30
0.0
 10
-4.8118
 20
-14.6915
 30
0.0
 10
-4.8118
 20
-14.6915
 30
0.0
  0
SPLINE
  5
67
330
1F
100
AcDbEntity
  8
Ilustrace
 62
   250
100
AcDbSpline
210
0.0
220
0.0
230
1.0
 70
    11
 71
     3
 72
    68
 73
    64
 74
     0
 42
0.0000000001
 43
0.0000000001
 40
0.0
 40
0.0
 40
0.0
 40
0.0
 40
0.0588235294117647
 40
0.0588235294117647
 40
0.0588235294117647
 40
0.0588235294117647
 40
0.1176470588235294
 40
0.1176470588235294
 40
0.1176470588235294
 40
0.1176470588235294
 40
0.1764705882352941
 40
0.1764705882352941
 40
0.1764705882352941
 40
0.1764705882352941
 40
0.2352941176470588
 40
0.2352941176470588
 40
0.2352941176470588
 40
0.2352941176470588
 40
0.2941176470588235
 40
0.2941176470588235
 40
0.2941176470588235
 40
0.2941176470588235
 40
0.3529411764705883
 40
0.3529411764705883
 40
0.3529411764705883
 40
0.3529411764705883
 40
0.4117647058823529
 40
0.4117647058823529
 40
0.4117647058823529
 40
0.4117647058823529
 40
0.4705882352941176
 40
0.4705882352941176
 40
0.4705882352941176
 40
0.4705882352941176
 40
0.5294117647058824
 40
0.5294117647058824
 40
0.5294117647058824
 40
0.5294117647058824
 40
0.5882352941176471
 40
0.5882352941176471
 40
0.5882352941176471
 40
0.5882352941176471
 40
0.6470588235294118
 40
0.6470588235294118
 40
0.6470588235294118
 40
0.6470588235294118
 40
0.7058823529411765
 40
0.7058823529411765
 40
0.7058823529411765
 40
0.7058823529411765
 40
0.7647058823529411
 40
0.7647058823529411
 40
0.7647058823529411
 40
0.7647058823529411
 40
0.8235294117647058
 40
0.8235294117647058
 40
0.8235294117647058
 40
0.8235294117647058
 40
0.8823529411764706
 40
0.8823529411764706
 40
0.8823529411764706
 40
0.8823529411764706
 40
1.0
 40
1.0
 40
1.0
 40
1.0
 10
-2.8832
 20
-16.1157
 30
0.0
 10
-2.8211
 20
-16.0342
 30
0.0
 10
-2.761
 20
-15.9417
 30
0.0
 10
-2.7008
 20
-15.8375
 30
0.0
 10
-2.7008
 20
-15.8375
 30
0.0
 10
-2.6413
 20
-15.7334
 30
0.0
 10
-2.5876
 20
-15.617
 30
0.0
 10
-2.5385
 20
-15.487
 30
0.0
 10
-2.5385
 20
-15.487
 30
0.0
 10
-2.49
 20
-15.357
 30
0.0
 10
-2.4512
 20
-15.2134
 30
0.0
 10
-2.4214
 20
-15.055
 30
0.0
 10
-2.4214
 20
-15.055
 30
0.0
 10
-2.3923
 20
-14.8965
 30
0.0
 10
-2.3768
 20
-14.7225
 30
0.0
 10
-2.3748
 20
-14.5324
 30
0.0
 10
-2.3748
 20
-14.5324
 30
0.0
 10
-2.3755
 20
-14.3422
 30
0.0
 10
-2.3904
 20
-14.1682
 30
0.0
 10
-2.4201
 20
-14.0091
 30
0.0
 10
-2.4201
 20
-14.0091
 30
0.0
 10
-2.4492
 20
-13.8507
 30
0.0
 10
-2.488
 20
-13.7064
 30
0.0
 10
-2.5372
 20
-13.5764
 30
0.0
 10
-2.5372
 20
-13.5764
 30
0.0
 10
-2.5863
 20
-13.4471
 30
0.0
 10
-2.6407
 20
-13.3307
 30
0.0
 10
-2.7008
 20
-13.2272
 30
0.0
 10
-2.7008
 20
-13.2272
 30
0.0
 10
-2.7603
 20
-13.1237
 30
0.0
 10
-2.8211
 20
-13.0325
 30
0.0
 10
-2.8832
 20
-12.953
 30
0.0
 10
-2.8832
 20
-12.953
 30
0.0
 10
-2.8832
 20
-12.953
 30
0.0
 10
-3.1471
 20
-12.953
 30
0.0
 10
-3.1471
 20
-12.953
 30
0.0
 10
-3.1471
 20
-12.953
 30
0.0
 10
-3.0546
 20
-13.0817
 30
0.0
 10
-2.9718
 20
-13.224
 30
0.0
 10
-2.8987
 20
-13.3798
 30
0.0
 10
-2.8987
 20
-13.3798
 30
0.0
 10
-2.8263
 20
-13.5357
 30
0.0
 10
-2.7687
 20
-13.7084
 30
0.0
 10
-2.7267
 20
-13.8985
 30
0.0
 10
-2.7267
 20
-13.8985
 30
0.0
 10
-2.6846
 20
-14.0887
 30
0.0
 10
-2.6627
 20
-14.3002
 30
0.0
 10
-2.662
 20
-14.5324
 30
0.0
 10
-2.662
 20
-14.5324
 30
0.0
 10
-2.6627
 20
-14.7646
 30
0.0
 10
-2.6846
 20
-14.9767
 30
0.0
 10
-2.7273
 20
-15.1681
 30
0.0
 10
-2.7273
 20
-15.1681
 30
0.0
 10
-2.77
 20
-15.3596
 30
0.0
 10
-2.8276
 20
-15.5329
 30
0.0
 10
-2.9007
 20
-15.6894
 30
0.0
 10
-2.9007
 20
-15.6894
 30
0.0
 10
-2.9731
 20
-15.846
 30
0.0
 10
-3.0552
 20
-15.9882
 30
0.0
 10
-3.1471
 20
-16.1157
 30
0.0
 10
-3.1471
 20
-16.1157
 30
0.0
 10
-3.1471
 20
-16.1157
 30
0.0
 10
-2.8832
 20
-16.1157
 30
0.0
 10
-2.8832
 20
-16.1157
 30
0.0
  0
SPLINE
  5
68
330
1F
100
AcDbEntity
  8
Ilustrace
 62
   250
100
AcDbSpline
210
0.0
220
0.0
230
1.0
 70
    11
 71
     3
 72
   124
 73
   120
 74
     0
 42
0.0000000001
 43
0.0000000001
 40
0.0
 40
0.0
 40
0.0
 40
0.0
 40
0.032258064516129
 40
0.032258064516129
 40
0.032258064516129
 40
0.032258064516129
 40
0.0645161290322581
 40
0.0645161290322581
 40
0.0645161290322581
 40
0.0645161290322581
 40
0.0967741935483871
 40
0.0967741935483871
 40
0.0967741935483871
 40
0.0967741935483871
 40
0.1290322580645161
 40
0.1290322580645161
 40
0.1290322580645161
 40
0.1290322580645161
 40
0.1612903225806452
 40
0.1612903225806452
 40
0.1612903225806452
 40
0.1612903225806452
 40
0.1935483870967742
 40
0.1935483870967742
 40
0.1935483870967742
 40
0.1935483870967742
 40
0.2258064516129032
 40
0.2258064516129032
 40
0.2258064516129032
 40
0.2258064516129032
 40
0.2580645161290323
 40
0.2580645161290323
 40
0.2580645161290323
 40
0.2580645161290323
 40
0.2903225806451613
 40
0.2903225806451613
 40
0.2903225806451613
 40
0.2903225806451613
 40
0.3225806451612903
 40
0.3225806451612903
 40
0.3225806451612903
 40
0.3225806451612903
 40
0.3548387096774194
 40
0.3548387096774194
 40
0.3548387096774194
 40
0.3548387096774194
 40
0.3870967741935484
 40
0.3870967741935484
 40
0.3870967741935484
 40
0.3870967741935484
 40
0.4193548387096774
 40
0.4193548387096774
 40
0.4193548387096774
 40
0.4193548387096774
 40
0.4516129032258064
 40
0.4516129032258064
 40
0.4516129032258064
 40
0.4516129032258064
 40
0.4838709677419355
 40
0.4838709677419355
 40
0.4838709677419355
 40
0.4838709677419355
 40
0.5161290322580645
 40
0.5161290322580645
 40
0.5161290322580645
 40
0.5161290322580645
 40
0.5483870967741935
 40
0.5483870967741935
 40
0.5483870967741935
 40
0.5483870967741935
 40
0.5806451612903226
 40
0.5806451612903226
 40
0.5806451612903226
 40
0.5806451612903226
 40
0.6129032258064516
 40
0.6129032258064516
 40
0.6129032258064516
 40
0.6129032258064516
 40
0.6451612903225806
 40
0.6451612903225806
 40
0.6451612903225806
 40
0.6451612903225806
 40
0.6774193548387096
 40
0.6774193548387096
 40
0.6774193548387096
 40
0.6774193548387096
 40
0.7096774193548387
 40
0.7096774193548387
 40
0.7096774193548387
 40
0.7096774193548387
 40
0.7419354838709677
 40
0.7419354838709677
 40
0.7419354838709677
 40
0.7419354838709677
 40
0.7741935483870968
 40
0.7741935483870968
 40
0.7741935483870968
 40
0.7741935483870968
 40
0.8064516129032258
 40
0.8064516129032258
 40
0.8064516129032258
 40
0.8064516129032258
 40
0.8387096774193549
 40
0.8387096774193549
 40
0.8387096774193549
 40
0.8387096774193549
 40
0.8709677419354839
 40
0.8709677419354839
 40
0.8709677419354839
 40
0.8709677419354839
 40
0.9032258064516129
 40
0.9032258064516129
 40
0.9032258064516129
 40
0.9032258064516129
 40
0.9354838709677419
 40
0.9354838709677419
 40
0.9354838709677419
 40
0.9354838709677419
 40
1.0
 40
1.0
 40
1.0
 40
1.0
 10
-4.4809
 20
13.7617
 30
0.0
 10
-4.4809
 20
13.7617
 30
0.0
 10
-4.4809
 20
14.045
 30
0.0
 10
-4.4809
 20
14.045
 30
0.0
 10
-4.4809
 20
14.045
 30
0.0
 10
-4.4809
 20
14.045
 30
0.0
 10
-5.6102
 20
14.045
 30
0.0
 10
-5.6102
 20
14.045
 30
0.0
 10
-5.6102
 20
14.045
 30
0.0
 10
-5.6102
 20
14.045
 30
0.0
 10
-5.6102
 20
14.0527
 30
0.0
 10
-5.6102
 20
14.0527
 30
0.0
 10
-5.6102
 20
14.0527
 30
0.0
 10
-5.6102
 20
14.0527
 30
0.0
 10
-5.4123
 20
14.239
 30
0.0
 10
-5.4123
 20
14.239
 30
0.0
 10
-5.4123
 20
14.239
 30
0.0
 10
-5.279
 20
14.3664
 30
0.0
 10
-5.1587
 20
14.4874
 30
0.0
 10
-5.052
 20
14.6012
 30
0.0
 10
-5.052
 20
14.6012
 30
0.0
 10
-4.9453
 20
14.715
 30
0.0
 10
-4.8541
 20
14.8263
 30
0.0
 10
-4.7784
 20
14.9336
 30
0.0
 10
-4.7784
 20
14.9336
 30
0.0
 10
-4.7021
 20
15.041
 30
0.0
 10
-4.6446
 20
15.149
 30
0.0
 10
-4.6038
 20
15.2577
 30
0.0
 10
-4.6038
 20
15.2577
 30
0.0
 10
-4.5637
 20
15.3657
 30
0.0
 10
-4.5437
 20
15.4776
 30
0.0
 10
-4.543
 20
15.5933
 30
0.0
 10
-4.543
 20
15.5933
 30
0.0
 10
-4.543
 20
15.6845
 30
0.0
 10
-4.5572
 20
15.7738
 30
0.0
 10
-4.587
 20
15.8605
 30
0.0
 10
-4.587
 20
15.8605
 30
0.0
 10
-4.6167
 20
15.9471
 30
0.0
 10
-4.6633
 20
16.0254
 30
0.0
 10
-4.7254
 20
16.0952
 30
0.0
 10
-4.7254
 20
16.0952
 30
0.0
 10
-4.7875
 20
16.1657
 30
0.0
 10
-4.8677
 20
16.2214
 30
0.0
 10
-4.9654
 20
16.2627
 30
0.0
 10
-4.9654
 20
16.2627
 30
0.0
 10
-5.063
 20
16.3048
 30
0.0
 10
-5.1794
 20
16.3261
 30
0.0
 10
-5.3153
 20
16.3268
 30
0.0
 10
-5.3153
 20
16.3268
 30
0.0
 10
-5.411
 20
16.3261
 30
0.0
 10
-5.5022
 20
16.3151
 30
0.0
 10
-5.5888
 20
16.2925
 30
0.0
 10
-5.5888
 20
16.2925
 30
0.0
 10
-5.6755
 20
16.2699
 30
0.0
 10
-5.7557
 20
16.2395
 30
0.0
 10
-5.8294
 20
16.2007
 30
0.0
 10
-5.8294
 20
16.2007
 30
0.0
 10
-5.9025
 20
16.1625
 30
0.0
 10
-5.9678
 20
16.1192
 30
0.0
 10
-6.0254
 20
16.0707
 30
0.0
 10
-6.0254
 20
16.0707
 30
0.0
 10
-6.0254
 20
16.0707
 30
0.0
 10
-5.9167
 20
15.8301
 30
0.0
 10
-5.9167
 20
15.8301
 30
0.0
 10
-5.9167
 20
15.8301
 30
0.0
 10
-5.8779
 20
15.863
 30
0.0
 10
-5.8314
 20
15.896
 30
0.0
 10
-5.777
 20
15.9284
 30
0.0
 10
-5.777
 20
15.9284
 30
0.0
 10
-5.7227
 20
15.9614
 30
0.0
 10
-5.6626
 20
15.9879
 30
0.0
 10
-5.5959
 20
16.0099
 30
0.0
 10
-5.5959
 20
16.0099
 30
0.0
 10
-5.5293
 20
16.0312
 30
0.0
 10
-5.4575
 20
16.0428
 30
0.0
 10
-5.3812
 20
16.0435
 30
0.0
 10
-5.3812
 20
16.0435
 30
0.0
 10
-5.2874
 20
16.0428
 30
0.0
 10
-5.2085
 20
16.0293
 30
0.0
 10
-5.1445
 20
16.0027
 30
0.0
 10
-5.1445
 20
16.0027
 30
0.0
 10
-5.0811
 20
15.9756
 30
0.0
 10
-5.03
 20
15.9394
 30
0.0
 10
-4.9919
 20
15.8934
 30
0.0
 10
-4.9919
 20
15.8934
 30
0.0
 10
-4.9537
 20
15.8469
 30
0.0
 10
-4.9259
 20
15.7945
 30
0.0
 10
-4.9091
 20
15.7356
 30
0.0
 10
-4.9091
 20
15.7356
 30
0.0
 10
-4.8923
 20
15.6768
 30
0.0
 10
-4.8839
 20
15.6153
 30
0.0
 10
-4.8845
 20
15.5507
 30
0.0
 10
-4.8845
 20
15.5507
 30
0.0
 10
-4.8845
 20
15.4562
 30
0.0
 10
-4.9033
 20
15.3631
 30
0.0
 10
-4.9408
 20
15.2706
 30
0.0
 10
-4.9408
 20
15.2706
 30
0.0
 10
-4.9783
 20
15.1775
 30
0.0
 10
-5.0352
 20
15.0805
 30
0.0
 10
-5.1122
 20
14.9783
 30
0.0
 10
-5.1122
 20
14.9783
 30
0.0
 10
-5.1891
 20
14.8761
 30
0.0
 10
-5.2868
 20
14.7642
 30
0.0
 10
-5.4052
 20
14.6426
 30
0.0
 10
-5.4052
 20
14.6426
 30
0.0
 10
-5.5229
 20
14.521
 30
0.0
 10
-5.6626
 20
14.3839
 30
0.0
 10
-5.8236
 20
14.2313
 30
0.0
 10
-5.8236
 20
14.2313
 30
0.0
 10
-5.8236
 20
14.2313
 30
0.0
 10
-6.0914
 20
13.9713
 30
0.0
 10
-6.0914
 20
13.9713
 30
0.0
 10
-6.0914
 20
13.9713
 30
0.0
 10
-6.0914
 20
13.9713
 30
0.0
 10
-6.0914
 20
13.7617
 30
0.0
 10
-6.0914
 20
13.7617
 30
0.0
 10
-6.0914
 20
13.7617
 30
0.0
 10
-6.0914
 20
13.7617
 30
0.0
 10
-4.4809
 20
13.7617
 30
0.0
 10
-4.4809
 20
13.7617
 30
0.0
  0
SPLINE
  5
69
330
1F
100
AcDbEntity
  8
Ilustrace
 62
   250
100
AcDbSpline
210
0.0
220
0.0
230
1.0
 70
    11
 71
     3
 72
    56
 73
    52
 74
     0
 42
0.0000000001
 43
0.0000000001
 40
0.0
 40
0.0
 40
0.0
 40
0.0
 40
0.0714285714285714
 40
0.0714285714285714
 40
0.0714285714285714
 40
0.0714285714285714
 40
0.1428571428571428
 40
0.1428571428571428
 40
0.1428571428571428
 40
0.1428571428571428
 40
0.2142857142857143
 40
0.2142857142857143
 40
0.2142857142857143
 40
0.2142857142857143
 40
0.2857142857142857
 40
0.2857142857142857
 40
0.2857142857142857
 40
0.2857142857142857
 40
0.3571428571428572
 40
0.3571428571428572
 40
0.3571428571428572
 40
0.3571428571428572
 40
0.4285714285714285
 40
0.4285714285714285
 40
0.4285714285714285
 40
0.4285714285714285
 40
0.5
 40
0.5
 40
0.5
 40
0.5
 40
0.5714285714285714
 40
0.5714285714285714
 40
0.5714285714285714
 40
0.5714285714285714
 40
0.6428571428571429
 40
0.6428571428571429
 40
0.6428571428571429
 40
0.6428571428571429
 40
0.7142857142857143
 40
0.7142857142857143
 40
0.7142857142857143
 40
0.7142857142857143
 40
0.7857142857142857
 40
0.7857142857142857
 40
0.7857142857142857
 40
0.7857142857142857
 40
0.8571428571428571
 40
0.8571428571428571
 40
0.8571428571428571
 40
0.8571428571428571
 40
1.0
 40
1.0
 40
1.0
 40
1.0
 10
-3.2547
 20
16.3268
 30
0.0
 10
-3.3834
 20
16.3268
 30
0.0
 10
-3.5011
 20
16.2983
 30
0.0
 10
-3.6085
 20
16.2414
 30
0.0
 10
-3.6085
 20
16.2414
 30
0.0
 10
-3.7158
 20
16.1845
 30
0.0
 10
-3.8083
 20
16.1011
 30
0.0
 10
-3.8872
 20
15.9898
 30
0.0
 10
-3.8872
 20
15.9898
 30
0.0
 10
-3.9661
 20
15.8786
 30
0.0
 10
-4.0269
 20
15.7415
 30
0.0
 10
-4.0703
 20
15.5785
 30
0.0
 10
-4.0703
 20
15.5785
 30
0.0
 10
-4.113
 20
15.4155
 30
0.0
 10
-4.135
 20
15.2279
 30
0.0
 10
-4.1356
 20
15.0151
 30
0.0
 10
-4.1356
 20
15.0151
 30
0.0
 10
-4.1317
 20
14.7364
 30
0.0
 10
-4.0949
 20
14.501
 30
0.0
 10
-4.0244
 20
14.3082
 30
0.0
 10
-4.0244
 20
14.3082
 30
0.0
 10
-3.9539
 20
14.1155
 30
0.0
 10
-3.8562
 20
13.9693
 30
0.0
 10
-3.732
 20
13.8697
 30
0.0
 10
-3.732
 20
13.8697
 30
0.0
 10
-3.6078
 20
13.7701
 30
0.0
 10
-3.463
 20
13.7197
 30
0.0
 10
-3.2974
 20
13.719
 30
0.0
 10
-3.2974
 20
13.719
 30
0.0
 10
-3.1118
 20
13.7197
 30
0.0
 10
-2.954
 20
13.7714
 30
0.0
 10
-2.8233
 20
13.8736
 30
0.0
 10
-2.8233
 20
13.8736
 30
0.0
 10
-2.6927
 20
13.9758
 30
0.0
 10
-2.5931
 20
14.1258
 30
0.0
 10
-2.5245
 20
14.3237
 30
0.0
 10
-2.5245
 20
14.3237
 30
0.0
 10
-2.4553
 20
14.5217
 30
0.0
 10
-2.421
 20
14.7635
 30
0.0
 10
-2.4204
 20
15.0501
 30
0.0
 10
-2.4204
 20
15.0501
 30
0.0
 10
-2.421
 20
15.3185
 30
0.0
 10
-2.454
 20
15.5481
 30
0.0
 10
-2.5193
 20
15.7382
 30
0.0
 10
-2.5193
 20
15.7382
 30
0.0
 10
-2.5847
 20
15.9284
 30
0.0
 10
-2.6797
 20
16.0739
 30
0.0
 10
-2.8039
 20
16.1741
 30
0.0
 10
-2.8039
 20
16.1741
 30
0.0
 10
-2.9281
 20
16.275
 30
0.0
 10
-3.0781
 20
16.3261
 30
0.0
 10
-3.2547
 20
16.3268
 30
0.0
  0
SPLINE
  5
6A
330
1F
100
AcDbEntity
  8
Ilustrace
 62
   250
100
AcDbSpline
210
0.0
220
0.0
230
1.0
 70
    11
 71
     3
 72
    56
 73
    52
 74
     0
 42
0.0000000001
 43
0.0000000001
 40
0.0
 40
0.0
 40
0.0
 40
0.0
 40
0.0714285714285714
 40
0.0714285714285714
 40
0.0714285714285714
 40
0.0714285714285714
 40
0.1428571428571428
 40
0.1428571428571428
 40
0.1428571428571428
 40
0.1428571428571428
 40
0.2142857142857143
 40
0.2142857142857143
 40
0.2142857142857143
 40
0.2142857142857143
 40
0.2857142857142857
 40
0.2857142857142857
 40
0.2857142857142857
 40
0.2857142857142857
 40
0.3571428571428572
 40
0.3571428571428572
 40
0.3571428571428572
 40
0.3571428571428572
 40
0.4285714285714285
 40
0.4285714285714285
 40
0.4285714285714285
 40
0.4285714285714285
 40
0.5
 40
0.5
 40
0.5
 40
0.5
 40
0.5714285714285714
 40
0.5714285714285714
 40
0.5714285714285714
 40
0.5714285714285714
 40
0.6428571428571429
 40
0.6428571428571429
 40
0.6428571428571429
 40
0.6428571428571429
 40
0.7142857142857143
 40
0.7142857142857143
 40
0.7142857142857143
 40
0.7142857142857143
 40
0.7857142857142857
 40
0.7857142857142857
 40
0.7857142857142857
 40
0.7857142857142857
 40
0.8571428571428571
 40
0.8571428571428571
 40
0.8571428571428571
 40
0.8571428571428571
 40
1.0
 40
1.0
 40
1.0
 40
1.0
 10
-3.278
 20
16.0629
 30
0.0
 10
-3.1887
 20
16.0622
 30
0.0
 10
-3.1118
 20
16.0383
 30
0.0
 10
-3.0471
 20
15.9898
 30
0.0
 10
-3.0471
 20
15.9898
 30
0.0
 10
-2.9824
 20
15.9413
 30
0.0
 10
-2.9294
 20
15.8721
 30
0.0
 10
-2.888
 20
15.7816
 30
0.0
 10
-2.888
 20
15.7816
 30
0.0
 10
-2.8466
 20
15.6917
 30
0.0
 10
-2.8155
 20
15.583
 30
0.0
 10
-2.7955
 20
15.4575
 30
0.0
 10
-2.7955
 20
15.4575
 30
0.0
 10
-2.7754
 20
15.3314
 30
0.0
 10
-2.7657
 20
15.1904
 30
0.0
 10
-2.7657
 20
15.0345
 30
0.0
 10
-2.7657
 20
15.0345
 30
0.0
 10
-2.7657
 20
14.8185
 30
0.0
 10
-2.7845
 20
14.6322
 30
0.0
 10
-2.822
 20
14.4757
 30
0.0
 10
-2.822
 20
14.4757
 30
0.0
 10
-2.8589
 20
14.3186
 30
0.0
 10
-2.9158
 20
14.1976
 30
0.0
 10
-2.9915
 20
14.1122
 30
0.0
 10
-2.9915
 20
14.1122
 30
0.0
 10
-3.0671
 20
14.0269
 30
0.0
 10
-3.1629
 20
13.9842
 30
0.0
 10
-3.278
 20
13.9829
 30
0.0
 10
-3.278
 20
13.9829
 30
0.0
 10
-3.3821
 20
13.9835
 30
0.0
 10
-3.472
 20
14.0236
 30
0.0
 10
-3.549
 20
14.1038
 30
0.0
 10
-3.549
 20
14.1038
 30
0.0
 10
-3.6253
 20
14.184
 30
0.0
 10
-3.6842
 20
14.3005
 30
0.0
 10
-3.7262
 20
14.4531
 30
0.0
 10
-3.7262
 20
14.4531
 30
0.0
 10
-3.7682
 20
14.6064
 30
0.0
 10
-3.7896
 20
14.792
 30
0.0
 10
-3.7902
 20
15.0113
 30
0.0
 10
-3.7902
 20
15.0113
 30
0.0
 10
-3.7896
 20
15.2409
 30
0.0
 10
-3.7669
 20
15.4329
 30
0.0
 10
-3.723
 20
15.5895
 30
0.0
 10
-3.723
 20
15.5895
 30
0.0
 10
-3.679
 20
15.7453
 30
0.0
 10
-3.6188
 20
15.863
 30
0.0
 10
-3.5419
 20
15.9432
 30
0.0
 10
-3.5419
 20
15.9432
 30
0.0
 10
-3.4649
 20
16.0228
 30
0.0
 10
-3.3769
 20
16.0629
 30
0.0
 10
-3.278
 20
16.0629
 30
0.0
  0
SPLINE
  5
6B
330
1F
100
AcDbEntity
  8
Ilustrace
  6
New Line1
 62
   250
370
    15
100
AcDbSpline
210
0.0
220
0.0
230
1.0
 70
    24
 71
     3
 72
     8
 73
     4
 74
     0
 42
0.0000000001
 43
0.0000000001
 40
0.0
 40
0.0
 40
0.0
 40
0.0
 40
1.0
 40
1.0
 40
1.0
 40
1.0
 10
-6.2216
 20
0.7175
 30
0.0
 10
-6.2216
 20
0.7175
 30
0.0
 10
-6.2216
 20
-12.5192
 30
0.0
 10
-6.2216
 20
-12.5192
 30
0.0
  0
SPLINE
  5
6D
330
1F
100
AcDbEntity
  8
Ilustrace
  6
New Line2
 62
   250
370
    15
100
AcDbSpline
210
0.0
220
0.0
230
1.0
 70
    24
 71
     3
 72
     8
 73
     4
 74
     0
 42
0.0000000001
 43
0.0000000001
 40
0.0
 40
0.0
 40
0.0
 40
0.0
 40
1.0
 40
1.0
 40
1.0
 40
1.0
 10
-2.3254
 20
11.4489
 30
0.0
 10
-2.3254
 20
11.4489
 30
0.0
 10
-2.3254
 20
0.601
 30
0.0
 10
-2.3254
 20
0.601
 30
0.0
  0
SPLINE
  5
6F
330
1F
100
AcDbEntity
  8
Ilustrace
 62
   250
370
     9
100
AcDbSpline
210
0.0
220
0.0
230
1.0
 70
    11
 71
     3
 72
    32
 73
    28
 74
     0
 42
0.0000000001
 43
0.0000000001
 40
0.0
 40
0.0
 40
0.0
 40
0.0
 40
0.125
 40
0.125
 40
0.125
 40
0.125
 40
0.25
 40
0.25
 40
0.25
 40
0.25
 40
0.375
 40
0.375
 40
0.375
 40
0.375
 40
0.5
 40
0.5
 40
0.5
 40
0.5
 40
0.625
 40
0.625
 40
0.625
 40
0.625
 40
0.75
 40
0.75
 40
0.75
 40
0.75
 40
1.0
 40
1.0
 40
1.0
 40
1.0
 10
6.2158
 20
17.189
 30
0.0
 10
6.2158
 20
17.189
 30
0.0
 10
6.2158
 20
17.189
 30
0.0
 10
6.2158
 20
17.189
 30
0.0
 10
6.2158
 20
17.189
 30
0.0
 10
6.2158
 20
17.189
 30
0.0
 10
6.2158
 20
17.189
 30
0.0
 10
6.2158
 20
17.189
 30
0.0
 10
6.2158
 20
17.189
 30
0.0
 10
6.2158
 20
17.189
 30
0.0
 10
7.4886
 20
17.6324
 30
0.0
 10
7.4886
 20
17.6324
 30
0.0
 10
7.4886
 20
17.6324
 30
0.0
 10
7.4886
 20
17.6324
 30
0.0
 10
6.2158
 20
18.0758
 30
0.0
 10
6.2158
 20
18.0758
 30
0.0
 10
6.2158
 20
18.0758
 30
0.0
 10
6.2158
 20
18.0758
 30
0.0
 10
6.2158
 20
18.0758
 30
0.0
 10
6.2158
 20
18.0758
 30
0.0
 10
6.2158
 20
18.0758
 30
0.0
 10
6.2158
 20
18.0758
 30
0.0
 10
6.2158
 20
18.0758
 30
0.0
 10
6.2158
 20
18.0758
 30
0.0
 10
6.2158
 20
18.0758
 30
0.0
 10
6.2158
 20
18.0758
 30
0.0
 10
6.2158
 20
17.189
 30
0.0
 10
6.2158
 20
17.189
 30
0.0
  0
SPLINE
  5
70
330
1F
100
AcDbEntity
  8
Ilustrace
 62
   250
370
     9
100
AcDbSpline
210
0.0
220
0.0
230
1.0
 70
    11
 71
     3
 72
    32
 73
    28
 74
     0
 42
0.0000000001
 43
0.0000000001
 40
0.0
 40
0.0
 40
0.0
 40
0.0
 40
0.125
 40
0.125
 40
0.125
 40
0.125
 40
0.25
 40
0.25
 40
0.25
 40
0.25
 40
0.375
 40
0.375
 40
0.375
 40
0.375
 40
0.5
 40
0.5
 40
0.5
 40
0.5
 40
0.625
 40
0.625
 40
0.625
 40
0.625
 40
0.75
 40
0.75
 40
0.75
 40
0.75
 40
1.0
 40
1.0
 40
1.0
 40
1.0
 10
0.8101
 20
-16.8604
 30
0.0
 10
0.8101
 20
-16.8604
 30
0.0
 10
0.8101
 20
-16.8604
 30
0.0
 10
0.8101
 20
-16.8604
 30
0.0
 10
0.8101
 20
-16.8604
 30
0.0
 10
0.8101
 20
-16.8604
 30
0.0
 10
0.8101
 20
-16.8604
 30
0.0
 10
0.8101
 20
-16.8604
 30
0.0
 10
0.8101
 20
-16.8604
 30
0.0
 10
0.8101
 20
-16.8604
 30
0.0
 10
2.0829
 20
-16.417
 30
0.0
 10
2.0829
 20
-16.417
 30
0.0
 10
2.0829
 20
-16.417
 30
0.0
 10
2.0829
 20
-16.417
 30
0.0
 10
0.8101
 20
-15.9736
 30
0.0
 10
0.8101
 20
-15.9736
 30
0.0
 10
0.8101
 20
-15.9736
 30
0.0
 10
0.8101
 20
-15.9736
 30
0.0
 10
0.8101
 20
-15.9736
 30
0.0
 10
0.8101
 20
-15.9736
 30
0.0
 10
0.8101
 20
-15.9736
 30
0.0
 10
0.8101
 20
-15.9736
 30
0.0
 10
0.8101
 20
-15.9736
 30
0.0
 10
0.8101
 20
-15.9736
 30
0.0
 10
0.8101
 20
-15.9736
 30
0.0
 10
0.8101
 20
-15.9736
 30
0.0
 10
0.8101
 20
-16.8604
 30
0.0
 10
0.8101
 20
-16.8604
 30
0.0
  0
SPLINE
  5
71
330
1F
100
AcDbEntity
  8
Ilustrace
 62
   250
370
     9
100
AcDbSpline
210
0.0
220
0.0
230
1.0
 70
    11
 71
     3
 72
    32
 73
    28
 74
     0
 42
0.0000000001
 43
0.0000000001
 40
0.0
 40
0.0
 40
0.0
 40
0.0
 40
0.125
 40
0.125
 40
0.125
 40
0.125
 40
0.25
 40
0.25
 40
0.25
 40
0.25
 40
0.375
 40
0.375
 40
0.375
 40
0.375
 40
0.5
 40
0.5
 40
0.5
 40
0.5
 40
0.625
 40
0.625
 40
0.625
 40
0.625
 40
0.75
 40
0.75
 40
0.75
 40
0.75
 40
1.0
 40
1.0
 40
1.0
 40
1.0
 10
-7.6176
 20
12.8572
 30
0.0
 10
-7.6176
 20
12.8572
 30
0.0
 10
-7.6176
 20
12.8572
 30
0.0
 10
-7.6176
 20
12.8572
 30
0.0
 10
-7.6176
 20
12.8572
 30
0.0
 10
-7.6176
 20
12.8572
 30
0.0
 10
-7.6176
 20
12.8572
 30
0.0
 10
-7.6176
 20
12.8572
 30
0.0
 10
-7.6176
 20
12.8572
 30
0.0
 10
-7.6176
 20
12.8572
 30
0.0
 10
-6.3448
 20
13.3006
 30
0.0
 10
-6.3448
 20
13.3006
 30
0.0
 10
-6.3448
 20
13.3006
 30
0.0
 10
-6.3448
 20
13.3006
 30
0.0
 10
-7.6176
 20
13.744
 30
0.0
 10
-7.6176
 20
13.744
 30
0.0
 10
-7.6176
 20
13.744
 30
0.0
 10
-7.6176
 20
13.744
 30
0.0
 10
-7.6176
 20
13.744
 30
0.0
 10
-7.6176
 20
13.744
 30
0.0
 10
-7.6176
 20
13.744
 30
0.0
 10
-7.6176
 20
13.744
 30
0.0
 10
-7.6176
 20
13.744
 30
0.0
 10
-7.6176
 20
13.744
 30
0.0
 10
-7.6176
 20
13.744
 30
0.0
 10
-7.6176
 20
13.744
 30
0.0
 10
-7.6176
 20
12.8572
 30
0.0
 10
-7.6176
 20
12.8572
 30
0.0
  0
SPLINE
  5
72
330
1F
100
AcDbEntity
  8
Ilustrace
 62
   250
370
     9
100
AcDbSpline
210
0.0
220
0.0
230
1.0
 70
    11
 71
     3
 72
    32
 73
    28
 74
     0
 42
0.0000000001
 43
0.0000000001
 40
0.0
 40
0.0
 40
0.0
 40
0.0
 40
0.125
 40
0.125
 40
0.125
 40
0.125
 40
0.25
 40
0.25
 40
0.25
 40
0.25
 40
0.375
 40
0.375
 40
0.375
 40
0.375
 40
0.5
 40
0.5
 40
0.5
 40
0.5
 40
0.625
 40
0.625
 40
0.625
 40
0.625
 40
0.75
 40
0.75
 40
0.75
 40
0.75
 40
1.0
 40
1.0
 40
1.0
 40
1.0
 10
16.7216
 20
9.372
 30
0.0
 10
16.7216
 20
9.372
 30
0.0
 10
16.7216
 20
9.372
 30
0.0
 10
16.7216
 20
9.372
 30
0.0
 10
16.7216
 20
9.372
 30
0.0
 10
16.7216
 20
9.372
 30
0.0
 10
16.7216
 20
9.372
 30
0.0
 10
16.7216
 20
9.372
 30
0.0
 10
16.7216
 20
9.372
 30
0.0
 10
16.7216
 20
9.372
 30
0.0
 10
16.2782
 20
10.6448
 30
0.0
 10
16.2782
 20
10.6448
 30
0.0
 10
16.2782
 20
10.6448
 30
0.0
 10
16.2782
 20
10.6448
 30
0.0
 10
15.8348
 20
9.372
 30
0.0
 10
15.8348
 20
9.372
 30
0.0
 10
15.8348
 20
9.372
 30
0.0
 10
15.8348
 20
9.372
 30
0.0
 10
15.8348
 20
9.372
 30
0.0
 10
15.8348
 20
9.372
 30
0.0
 10
15.8348
 20
9.372
 30
0.0
 10
15.8348
 20
9.372
 30
0.0
 10
15.8348
 20
9.372
 30
0.0
 10
15.8348
 20
9.372
 30
0.0
 10
15.8348
 20
9.372
 30
0.0
 10
15.8348
 20
9.372
 30
0.0
 10
16.7216
 20
9.372
 30
0.0
 10
16.7216
 20
9.372
 30
0.0
  0
SPLINE
  5
73
330
1F
100
AcDbEntity
  8
Ilustrace
 62
   250
370
     9
100
AcDbSpline
210
0.0
220
0.0
230
1.0
 70
    11
 71
     3
 72
    32
 73
    28
 74
     0
 42
0.0000000001
 43
0.0000000001
 40
0.0
 40
0.0
 40
0.0
 40
0.0
 40
0.125
 40
0.125
 40
0.125
 40
0.125
 40
0.25
 40
0.25
 40
0.25
 40
0.25
 40
0.375
 40
0.375
 40
0.375
 40
0.375
 40
0.5
 40
0.5
 40
0.5
 40
0.5
 40
0.625
 40
0.625
 40
0.625
 40
0.625
 40
0.75
 40
0.75
 40
0.75
 40
0.75
 40
1.0
 40
1.0
 40
1.0
 40
1.0
 10
-10.9404
 20
17.21
 30
0.0
 10
-10.9404
 20
17.21
 30
0.0
 10
-10.9404
 20
17.21
 30
0.0
 10
-10.9404
 20
17.21
 30
0.0
 10
-10.9404
 20
17.21
 30
0.0
 10
-10.9404
 20
17.21
 30
0.0
 10
-10.9404
 20
17.21
 30
0.0
 10
-10.9404
 20
17.21
 30
0.0
 10
-10.9404
 20
17.21
 30
0.0
 10
-10.9404
 20
17.21
 30
0.0
 10
-12.215
 20
17.6534
 30
0.0
 10
-12.215
 20
17.6534
 30
0.0
 10
-12.215
 20
17.6534
 30
0.0
 10
-12.215
 20
17.6534
 30
0.0
 10
-10.9404
 20
18.0968
 30
0.0
 10
-10.9404
 20
18.0968
 30
0.0
 10
-10.9404
 20
18.0968
 30
0.0
 10
-10.9404
 20
18.0968
 30
0.0
 10
-10.9404
 20
18.0968
 30
0.0
 10
-10.9404
 20
18.0968
 30
0.0
 10
-10.9404
 20
18.0968
 30
0.0
 10
-10.9404
 20
18.0968
 30
0.0
 10
-10.9404
 20
18.0968
 30
0.0
 10
-10.9404
 20
18.0968
 30
0.0
 10
-10.9404
 20
18.0968
 30
0.0
 10
-10.9404
 20
18.0968
 30
0.0
 10
-10.9404
 20
17.21
 30
0.0
 10
-10.9404
 20
17.21
 30
0.0
  0
SPLINE
  5
74
330
1F
100
AcDbEntity
  8
Ilustrace
 62
   250
370
     9
100
AcDbSpline
210
0.0
220
0.0
230
1.0
 70
    11
 71
     3
 72
    32
 73
    28
 74
     0
 42
0.0000000001
 43
0.0000000001
 40
0.0
 40
0.0
 40
0.0
 40
0.0
 40
0.125
 40
0.125
 40
0.125
 40
0.125
 40
0.25
 40
0.25
 40
0.25
 40
0.25
 40
0.375
 40
0.375
 40
0.375
 40
0.375
 40
0.5
 40
0.5
 40
0.5
 40
0.5
 40
0.625
 40
0.625
 40
0.625
 40
0.625
 40
0.75
 40
0.75
 40
0.75
 40
0.75
 40
1.0
 40
1.0
 40
1.0
 40
1.0
 10
-13.2703
 20
-16.8807
 30
0.0
 10
-13.2703
 20
-16.8807
 30
0.0
 10
-13.2703
 20
-16.8807
 30
0.0
 10
-13.2703
 20
-16.8807
 30
0.0
 10
-13.2703
 20
-16.8807
 30
0.0
 10
-13.2703
 20
-16.8807
 30
0.0
 10
-13.2703
 20
-16.8807
 30
0.0
 10
-13.2703
 20
-16.8807
 30
0.0
 10
-13.2703
 20
-16.8807
 30
0.0
 10
-13.2703
 20
-16.8807
 30
0.0
 10
-14.5449
 20
-16.4373
 30
0.0
 10
-14.5449
 20
-16.4373
 30
0.0
 10
-14.5449
 20
-16.4373
 30
0.0
 10
-14.5449
 20
-16.4373
 30
0.0
 10
-13.2703
 20
-15.9939
 30
0.0
 10
-13.2703
 20
-15.9939
 30
0.0
 10
-13.2703
 20
-15.9939
 30
0.0
 10
-13.2703
 20
-15.9939
 30
0.0
 10
-13.2703
 20
-15.9939
 30
0.0
 10
-13.2703
 20
-15.9939
 30
0.0
 10
-13.2703
 20
-15.9939
 30
0.0
 10
-13.2703
 20
-15.9939
 30
0.0
 10
-13.2703
 20
-15.9939
 30
0.0
 10
-13.2703
 20
-15.9939
 30
0.0
 10
-13.2703
 20
-15.9939
 30
0.0
 10
-13.2703
 20
-15.9939
 30
0.0
 10
-13.2703
 20
-16.8807
 30
0.0
 10
-13.2703
 20
-16.8807
 30
0.0
  0
SPLINE
  5
75
330
1F
100
AcDbEntity
  8
Ilustrace
 62
   250
370
     9
100
AcDbSpline
210
0.0
220
0.0
230
1.0
 70
    11
 71
     3
 72
    32
 73
    28
 74
     0
 42
0.0000000001
 43
0.0000000001
 40
0.0
 40
0.0
 40
0.0
 40
0.0
 40
0.125
 40
0.125
 40
0.125
 40
0.125
 40
0.25
 40
0.25
 40
0.25
 40
0.25
 40
0.375
 40
0.375
 40
0.375
 40
0.375
 40
0.5
 40
0.5
 40
0.5
 40
0.5
 40
0.625
 40
0.625
 40
0.625
 40
0.625
 40
0.75
 40
0.75
 40
0.75
 40
0.75
 40
1.0
 40
1.0
 40
1.0
 40
1.0
 10
-0.986
 20
12.8699
 30
0.0
 10
-0.986
 20
12.8699
 30
0.0
 10
-0.986
 20
12.8699
 30
0.0
 10
-0.986
 20
12.8699
 30
0.0
 10
-0.986
 20
12.8699
 30
0.0
 10
-0.986
 20
12.8699
 30
0.0
 10
-0.986
 20
12.8699
 30
0.0
 10
-0.986
 20
12.8699
 30
0.0
 10
-0.986
 20
12.8699
 30
0.0
 10
-0.986
 20
12.8699
 30
0.0
 10
-2.2606
 20
13.3133
 30
0.0
 10
-2.2606
 20
13.3133
 30
0.0
 10
-2.2606
 20
13.3133
 30
0.0
 10
-2.2606
 20
13.3133
 30
0.0
 10
-0.986
 20
13.7567
 30
0.0
 10
-0.986
 20
13.7567
 30
0.0
 10
-0.986
 20
13.7567
 30
0.0
 10
-0.986
 20
13.7567
 30
0.0
 10
-0.986
 20
13.7567
 30
0.0
 10
-0.986
 20
13.7567
 30
0.0
 10
-0.986
 20
13.7567
 30
0.0
 10
-0.986
 20
13.7567
 30
0.0
 10
-0.986
 20
13.7567
 30
0.0
 10
-0.986
 20
13.7567
 30
0.0
 10
-0.986
 20
13.7567
 30
0.0
 10
-0.986
 20
13.7567
 30
0.0
 10
-0.986
 20
12.8699
 30
0.0
 10
-0.986
 20
12.8699
 30
0.0
  0
SPLINE
  5
76
330
1F
100
AcDbEntity
  8
Ilustrace
 62
   250
370
     9
100
AcDbSpline
210
0.0
220
0.0
230
1.0
 70
    11
 71
     3
 72
    32
 73
    28
 74
     0
 42
0.0000000001
 43
0.0000000001
 40
0.0
 40
0.0
 40
0.0
 40
0.0
 40
0.125
 40
0.125
 40
0.125
 40
0.125
 40
0.25
 40
0.25
 40
0.25
 40
0.25
 40
0.375
 40
0.375
 40
0.375
 40
0.375
 40
0.5
 40
0.5
 40
0.5
 40
0.5
 40
0.625
 40
0.625
 40
0.625
 40
0.625
 40
0.75
 40
0.75
 40
0.75
 40
0.75
 40
1.0
 40
1.0
 40
1.0
 40
1.0
 10
16.7212
 20
-10.5591
 30
0.0
 10
16.7212
 20
-10.5591
 30
0.0
 10
16.7212
 20
-10.5591
 30
0.0
 10
16.7212
 20
-10.5591
 30
0.0
 10
16.7212
 20
-10.5591
 30
0.0
 10
16.7212
 20
-10.5591
 30
0.0
 10
16.7212
 20
-10.5591
 30
0.0
 10
16.7212
 20
-10.5591
 30
0.0
 10
16.7212
 20
-10.5591
 30
0.0
 10
16.7212
 20
-10.5591
 30
0.0
 10
16.2778
 20
-11.8337
 30
0.0
 10
16.2778
 20
-11.8337
 30
0.0
 10
16.2778
 20
-11.8337
 30
0.0
 10
16.2778
 20
-11.8337
 30
0.0
 10
15.8344
 20
-10.5591
 30
0.0
 10
15.8344
 20
-10.5591
 30
0.0
 10
15.8344
 20
-10.5591
 30
0.0
 10
15.8344
 20
-10.5591
 30
0.0
 10
15.8344
 20
-10.5591
 30
0.0
 10
15.8344
 20
-10.5591
 30
0.0
 10
15.8344
 20
-10.5591
 30
0.0
 10
15.8344
 20
-10.5591
 30
0.0
 10
15.8344
 20
-10.5591
 30
0.0
 10
15.8344
 20
-10.5591
 30
0.0
 10
15.8344
 20
-10.5591
 30
0.0
 10
15.8344
 20
-10.5591
 30
0.0
 10
16.7212
 20
-10.5591
 30
0.0
 10
16.7212
 20
-10.5591
 30
0.0
  0
SPLINE
  5
77
330
1F
100
AcDbEntity
  8
Ilustrace
 62
   250
370
    15
100
AcDbSpline
210
0.0
220
0.0
230
1.0
 70
    24
 71
     3
 72
     8
 73
     4
 74
     0
 42
0.0000000001
 43
0.0000000001
 40
0.0
 40
0.0
 40
0.0
 40
0.0
 40
1.0
 40
1.0
 40
1.0
 40
1.0
 10
9.7438
 20
11.2347
 30
0.0
 10
9.7438
 20
11.2347
 30
0.0
 10
9.7438
 20
22.2064
 30
0.0
 10
9.7438
 20
22.2064
 30
0.0
  0
SPLINE
  5
78
330
1F
100
AcDbEntity
  8
Ilustrace
 62
   250
370
    15
100
AcDbSpline
210
0.0
220
0.0
230
1.0
 70
    24
 71
     3
 72
     8
 73
     4
 74
     0
 42
0.0000000001
 43
0.0000000001
 40
0.0
 40
0.0
 40
0.0
 40
0.0
 40
1.0
 40
1.0
 40
1.0
 40
1.0
 10
-14.8488
 20
11.3007
 30
0.0
 10
-14.8488
 20
11.3007
 30
0.0
 10
-14.8488
 20
22.0825
 30
0.0
 10
-14.8488
 20
22.0825
 30
0.0
  0
SPLINE
  5
79
330
1F
100
AcDbEntity
  8
Ilustrace
 62
   250
370
    15
100
AcDbSpline
210
0.0
220
0.0
230
1.0
 70
    24
 71
     3
 72
     8
 73
     4
 74
     0
 42
0.0000000001
 43
0.0000000001
 40
0.0
 40
0.0
 40
0.0
 40
0.0
 40
1.0
 40
1.0
 40
1.0
 40
1.0
 10
-14.6462
 20
21.6436
 30
0.0
 10
-14.6462
 20
21.6436
 30
0.0
 10
9.3318
 20
21.6436
 30
0.0
 10
9.3318
 20
21.6436
 30
0.0
  0
SPLINE
  5
7A
330
1F
100
AcDbEntity
  8
Ilustrace
 62
   250
100
AcDbSpline
210
0.0
220
0.0
230
1.0
 70
    11
 71
     3
 72
   104
 73
   100
 74
     0
 42
0.0000000001
 43
0.0000000001
 40
0.0
 40
0.0
 40
0.0
 40
0.0
 40
0.0384615384615385
 40
0.0384615384615385
 40
0.0384615384615385
 40
0.0384615384615385
 40
0.0769230769230769
 40
0.0769230769230769
 40
0.0769230769230769
 40
0.0769230769230769
 40
0.1153846153846154
 40
0.1153846153846154
 40
0.1153846153846154
 40
0.1153846153846154
 40
0.1538461538461539
 40
0.1538461538461539
 40
0.1538461538461539
 40
0.1538461538461539
 40
0.1923076923076923
 40
0.1923076923076923
 40
0.1923076923076923
 40
0.1923076923076923
 40
0.2307692307692308
 40
0.2307692307692308
 40
0.2307692307692308
 40
0.2307692307692308
 40
0.2692307692307692
 40
0.2692307692307692
 40
0.2692307692307692
 40
0.2692307692307692
 40
0.3076923076923077
 40
0.3076923076923077
 40
0.3076923076923077
 40
0.3076923076923077
 40
0.3461538461538461
 40
0.3461538461538461
 40
0.3461538461538461
 40
0.3461538461538461
 40
0.3846153846153846
 40
0.3846153846153846
 40
0.3846153846153846
 40
0.3846153846153846
 40
0.4230769230769231
 40
0.4230769230769231
 40
0.4230769230769231
 40
0.4230769230769231
 40
0.4615384615384616
 40
0.4615384615384616
 40
0.4615384615384616
 40
0.4615384615384616
 40
0.5
 40
0.5
 40
0.5
 40
0.5
 40
0.5384615384615384
 40
0.5384615384615384
 40
0.5384615384615384
 40
0.5384615384615384
 40
0.5769230769230769
 40
0.5769230769230769
 40
0.5769230769230769
 40
0.5769230769230769
 40
0.6153846153846154
 40
0.6153846153846154
 40
0.6153846153846154
 40
0.6153846153846154
 40
0.6538461538461539
 40
0.6538461538461539
 40
0.6538461538461539
 40
0.6538461538461539
 40
0.6923076923076923
 40
0.6923076923076923
 40
0.6923076923076923
 40
0.6923076923076923
 40
0.7307692307692307
 40
0.7307692307692307
 40
0.7307692307692307
 40
0.7307692307692307
 40
0.7692307692307693
 40
0.7692307692307693
 40
0.7692307692307693
 40
0.7692307692307693
 40
0.8076923076923077
 40
0.8076923076923077
 40
0.8076923076923077
 40
0.8076923076923077
 40
0.8461538461538461
 40
0.8461538461538461
 40
0.8461538461538461
 40
0.8461538461538461
 40
0.8846153846153846
 40
0.8846153846153846
 40
0.8846153846153846
 40
0.8846153846153846
 40
0.9230769230769231
 40
0.9230769230769231
 40
0.9230769230769231
 40
0.9230769230769231
 40
1.0
 40
1.0
 40
1.0
 40
1.0
 10
-6.2443
 20
21.9388
 30
0.0
 10
-6.2443
 20
21.9388
 30
0.0
 10
-5.9998
 20
22.2726
 30
0.0
 10
-5.9998
 20
22.2726
 30
0.0
 10
-5.9998
 20
22.2726
 30
0.0
 10
-5.906
 20
22.2047
 30
0.0
 10
-5.8032
 20
22.1523
 30
0.0
 10
-5.6919
 20
22.1167
 30
0.0
 10
-5.6919
 20
22.1167
 30
0.0
 10
-5.58
 20
22.0811
 30
0.0
 10
-5.463
 20
22.063
 30
0.0
 10
-5.3401
 20
22.063
 30
0.0
 10
-5.3401
 20
22.063
 30
0.0
 10
-5.214
 20
22.063
 30
0.0
 10
-5.0917
 20
22.0818
 30
0.0
 10
-4.9747
 20
22.1186
 30
0.0
 10
-4.9747
 20
22.1186
 30
0.0
 10
-4.8576
 20
22.1555
 30
0.0
 10
-4.7489
 20
22.2105
 30
0.0
 10
-4.6493
 20
22.2842
 30
0.0
 10
-4.6493
 20
22.2842
 30
0.0
 10
-4.5491
 20
22.3573
 30
0.0
 10
-4.4618
 20
22.4491
 30
0.0
 10
-4.3868
 20
22.5591
 30
0.0
 10
-4.3868
 20
22.5591
 30
0.0
 10
-4.3124
 20
22.669
 30
0.0
 10
-4.2542
 20
22.7971
 30
0.0
 10
-4.2121
 20
22.9439
 30
0.0
 10
-4.2121
 20
22.9439
 30
0.0
 10
-4.1707
 20
23.0901
 30
0.0
 10
-4.1494
 20
23.2544
 30
0.0
 10
-4.1487
 20
23.4367
 30
0.0
 10
-4.1487
 20
23.4367
 30
0.0
 10
-4.1487
 20
23.5655
 30
0.0
 10
-4.1617
 20
23.6877
 30
0.0
 10
-4.1882
 20
23.8041
 30
0.0
 10
-4.1882
 20
23.8041
 30
0.0
 10
-4.2141
 20
23.9212
 30
0.0
 10
-4.2522
 20
24.0298
 30
0.0
 10
-4.302
 20
24.1301
 30
0.0
 10
-4.302
 20
24.1301
 30
0.0
 10
-4.3525
 20
24.2303
 30
0.0
 10
-4.4139
 20
24.3196
 30
0.0
 10
-4.4864
 20
24.3991
 30
0.0
 10
-4.4864
 20
24.3991
 30
0.0
 10
-4.4864
 20
24.3991
 30
0.0
 10
-4.2458
 20
24.7329
 30
0.0
 10
-4.2458
 20
24.7329
 30
0.0
 10
-4.2458
 20
24.7329
 30
0.0
 10
-4.2458
 20
24.7329
 30
0.0
 10
-4.4514
 20
24.8726
 30
0.0
 10
-4.4514
 20
24.8726
 30
0.0
 10
-4.4514
 20
24.8726
 30
0.0
 10
-4.4514
 20
24.8726
 30
0.0
 10
-4.6804
 20
24.5582
 30
0.0
 10
-4.6804
 20
24.5582
 30
0.0
 10
-4.6804
 20
24.5582
 30
0.0
 10
-4.7742
 20
24.6281
 30
0.0
 10
-4.8757
 20
24.6805
 30
0.0
 10
-4.9857
 20
24.7154
 30
0.0
 10
-4.9857
 20
24.7154
 30
0.0
 10
-5.0963
 20
24.7503
 30
0.0
 10
-5.2114
 20
24.7678
 30
0.0
 10
-5.3323
 20
24.7678
 30
0.0
 10
-5.3323
 20
24.7678
 30
0.0
 10
-5.505
 20
24.7671
 30
0.0
 10
-5.6641
 20
24.7348
 30
0.0
 10
-5.8109
 20
24.6708
 30
0.0
 10
-5.8109
 20
24.6708
 30
0.0
 10
-5.9571
 20
24.6067
 30
0.0
 10
-6.0845
 20
24.5143
 30
0.0
 10
-6.1932
 20
24.3946
 30
0.0
 10
-6.1932
 20
24.3946
 30
0.0
 10
-6.3025
 20
24.275
 30
0.0
 10
-6.3866
 20
24.1314
 30
0.0
 10
-6.4474
 20
23.9639
 30
0.0
 10
-6.4474
 20
23.9639
 30
0.0
 10
-6.5075
 20
23.7963
 30
0.0
 10
-6.5386
 20
23.6094
 30
0.0
 10
-6.5392
 20
23.4018
 30
0.0
 10
-6.5392
 20
23.4018
 30
0.0
 10
-6.5392
 20
23.2712
 30
0.0
 10
-6.525
 20
23.1463
 30
0.0
 10
-6.4978
 20
23.0286
 30
0.0
 10
-6.4978
 20
23.0286
 30
0.0
 10
-6.4706
 20
22.9109
 30
0.0
 10
-6.4312
 20
22.8016
 30
0.0
 10
-6.3801
 20
22.7014
 30
0.0
 10
-6.3801
 20
22.7014
 30
0.0
 10
-6.3284
 20
22.6011
 30
0.0
 10
-6.2663
 20
22.5112
 30
0.0
 10
-6.1938
 20
22.4317
 30
0.0
 10
-6.1938
 20
22.4317
 30
0.0
 10
-6.1938
 20
22.4317
 30
0.0
 10
-6.4344
 20
22.0941
 30
0.0
 10
-6.4344
 20
22.0941
 30
0.0
 10
-6.4344
 20
22.0941
 30
0.0
 10
-6.4344
 20
22.0941
 30
0.0
 10
-6.2443
 20
21.9388
 30
0.0
 10
-6.2443
 20
21.9388
 30
0.0
  0
SPLINE
  5
7B
330
1F
100
AcDbEntity
  8
Ilustrace
 62
   250
100
AcDbSpline
210
0.0
220
0.0
230
1.0
 70
    11
 71
     3
 72
    52
 73
    48
 74
     0
 42
0.0000000001
 43
0.0000000001
 40
0.0
 40
0.0
 40
0.0
 40
0.0
 40
0.0769230769230769
 40
0.0769230769230769
 40
0.0769230769230769
 40
0.0769230769230769
 40
0.1538461538461539
 40
0.1538461538461539
 40
0.1538461538461539
 40
0.1538461538461539
 40
0.2307692307692308
 40
0.2307692307692308
 40
0.2307692307692308
 40
0.2307692307692308
 40
0.3076923076923077
 40
0.3076923076923077
 40
0.3076923076923077
 40
0.3076923076923077
 40
0.3846153846153846
 40
0.3846153846153846
 40
0.3846153846153846
 40
0.3846153846153846
 40
0.4615384615384616
 40
0.4615384615384616
 40
0.4615384615384616
 40
0.4615384615384616
 40
0.5384615384615384
 40
0.5384615384615384
 40
0.5384615384615384
 40
0.5384615384615384
 40
0.6153846153846154
 40
0.6153846153846154
 40
0.6153846153846154
 40
0.6153846153846154
 40
0.6923076923076923
 40
0.6923076923076923
 40
0.6923076923076923
 40
0.6923076923076923
 40
0.7692307692307693
 40
0.7692307692307693
 40
0.7692307692307693
 40
0.7692307692307693
 40
0.8461538461538461
 40
0.8461538461538461
 40
0.8461538461538461
 40
0.8461538461538461
 40
1.0
 40
1.0
 40
1.0
 40
1.0
 10
-5.9959
 20
22.7188
 30
0.0
 10
-5.9959
 20
22.7188
 30
0.0
 10
-6.0037
 20
22.715
 30
0.0
 10
-6.0037
 20
22.715
 30
0.0
 10
-6.0037
 20
22.715
 30
0.0
 10
-6.0425
 20
22.7816
 30
0.0
 10
-6.0761
 20
22.8508
 30
0.0
 10
-6.1046
 20
22.9219
 30
0.0
 10
-6.1046
 20
22.9219
 30
0.0
 10
-6.133
 20
22.9937
 30
0.0
 10
-6.155
 20
23.0694
 30
0.0
 10
-6.1705
 20
23.1509
 30
0.0
 10
-6.1705
 20
23.1509
 30
0.0
 10
-6.1861
 20
23.2317
 30
0.0
 10
-6.1938
 20
23.321
 30
0.0
 10
-6.1938
 20
23.4173
 30
0.0
 10
-6.1938
 20
23.4173
 30
0.0
 10
-6.1938
 20
23.5286
 30
0.0
 10
-6.1822
 20
23.6359
 30
0.0
 10
-6.1595
 20
23.7414
 30
0.0
 10
-6.1595
 20
23.7414
 30
0.0
 10
-6.1363
 20
23.8461
 30
0.0
 10
-6.102
 20
23.9445
 30
0.0
 10
-6.0567
 20
24.035
 30
0.0
 10
-6.0567
 20
24.035
 30
0.0
 10
-6.0108
 20
24.1262
 30
0.0
 10
-5.9539
 20
24.2064
 30
0.0
 10
-5.8853
 20
24.275
 30
0.0
 10
-5.8853
 20
24.275
 30
0.0
 10
-5.8168
 20
24.3442
 30
0.0
 10
-5.7372
 20
24.3978
 30
0.0
 10
-5.6467
 20
24.4366
 30
0.0
 10
-5.6467
 20
24.4366
 30
0.0
 10
-5.5555
 20
24.4761
 30
0.0
 10
-5.4533
 20
24.4955
 30
0.0
 10
-5.3401
 20
24.4961
 30
0.0
 10
-5.3401
 20
24.4961
 30
0.0
 10
-5.2411
 20
24.4955
 30
0.0
 10
-5.1506
 20
24.4793
 30
0.0
 10
-5.0691
 20
24.447
 30
0.0
 10
-5.0691
 20
24.447
 30
0.0
 10
-4.987
 20
24.4153
 30
0.0
 10
-4.9132
 20
24.3707
 30
0.0
 10
-4.8473
 20
24.3138
 30
0.0
 10
-4.8473
 20
24.3138
 30
0.0
 10
-4.8473
 20
24.3138
 30
0.0
 10
-5.9959
 20
22.7188
 30
0.0
 10
-5.9959
 20
22.7188
 30
0.0
  0
SPLINE
  5
7C
330
1F
100
AcDbEntity
  8
Ilustrace
 62
   250
100
AcDbSpline
210
0.0
220
0.0
230
1.0
 70
    11
 71
     3
 72
    48
 73
    44
 74
     0
 42
0.0000000001
 43
0.0000000001
 40
0.0
 40
0.0
 40
0.0
 40
0.0
 40
0.0833333333333333
 40
0.0833333333333333
 40
0.0833333333333333
 40
0.0833333333333333
 40
0.1666666666666667
 40
0.1666666666666667
 40
0.1666666666666667
 40
0.1666666666666667
 40
0.25
 40
0.25
 40
0.25
 40
0.25
 40
0.3333333333333333
 40
0.3333333333333333
 40
0.3333333333333333
 40
0.3333333333333333
 40
0.4166666666666667
 40
0.4166666666666667
 40
0.4166666666666667
 40
0.4166666666666667
 40
0.5
 40
0.5
 40
0.5
 40
0.5
 40
0.5833333333333334
 40
0.5833333333333334
 40
0.5833333333333334
 40
0.5833333333333334
 40
0.6666666666666666
 40
0.6666666666666666
 40
0.6666666666666666
 40
0.6666666666666666
 40
0.75
 40
0.75
 40
0.75
 40
0.75
 40
0.8333333333333334
 40
0.8333333333333334
 40
0.8333333333333334
 40
0.8333333333333334
 40
1.0
 40
1.0
 40
1.0
 40
1.0
 10
-4.6882
 20
24.1081
 30
0.0
 10
-4.6882
 20
24.1081
 30
0.0
 10
-4.6765
 20
24.1081
 30
0.0
 10
-4.6765
 20
24.1081
 30
0.0
 10
-4.6765
 20
24.1081
 30
0.0
 10
-4.6092
 20
23.9956
 30
0.0
 10
-4.562
 20
23.8817
 30
0.0
 10
-4.5342
 20
23.7666
 30
0.0
 10
-4.5342
 20
23.7666
 30
0.0
 10
-4.5064
 20
23.6521
 30
0.0
 10
-4.4928
 20
23.5383
 30
0.0
 10
-4.4941
 20
23.4251
 30
0.0
 10
-4.4941
 20
23.4251
 30
0.0
 10
-4.4941
 20
23.3074
 30
0.0
 10
-4.5064
 20
23.1949
 30
0.0
 10
-4.5303
 20
23.0868
 30
0.0
 10
-4.5303
 20
23.0868
 30
0.0
 10
-4.5543
 20
22.9788
 30
0.0
 10
-4.5898
 20
22.8792
 30
0.0
 10
-4.6364
 20
22.788
 30
0.0
 10
-4.6364
 20
22.788
 30
0.0
 10
-4.6836
 20
22.6968
 30
0.0
 10
-4.7412
 20
22.6173
 30
0.0
 10
-4.8097
 20
22.55
 30
0.0
 10
-4.8097
 20
22.55
 30
0.0
 10
-4.8789
 20
22.4821
 30
0.0
 10
-4.9579
 20
22.4291
 30
0.0
 10
-5.0471
 20
22.3916
 30
0.0
 10
-5.0471
 20
22.3916
 30
0.0
 10
-5.1364
 20
22.3541
 30
0.0
 10
-5.2353
 20
22.3353
 30
0.0
 10
-5.344
 20
22.3347
 30
0.0
 10
-5.344
 20
22.3347
 30
0.0
 10
-5.4494
 20
22.3347
 30
0.0
 10
-5.5419
 20
22.3508
 30
0.0
 10
-5.6201
 20
22.3825
 30
0.0
 10
-5.6201
 20
22.3825
 30
0.0
 10
-5.699
 20
22.4142
 30
0.0
 10
-5.7695
 20
22.4608
 30
0.0
 10
-5.8329
 20
22.5209
 30
0.0
 10
-5.8329
 20
22.5209
 30
0.0
 10
-5.8329
 20
22.5209
 30
0.0
 10
-4.6882
 20
24.1081
 30
0.0
 10
-4.6882
 20
24.1081
 30
0.0
  0
SPLINE
  5
7D
330
1F
100
AcDbEntity
  8
Ilustrace
 62
   250
100
AcDbSpline
210
0.0
220
0.0
230
1.0
 70
    11
 71
     3
 72
    36
 73
    32
 74
     0
 42
0.0000000001
 43
0.0000000001
 40
0.0
 40
0.0
 40
0.0
 40
0.0
 40
0.1111111111111111
 40
0.1111111111111111
 40
0.1111111111111111
 40
0.1111111111111111
 40
0.2222222222222222
 40
0.2222222222222222
 40
0.2222222222222222
 40
0.2222222222222222
 40
0.3333333333333333
 40
0.3333333333333333
 40
0.3333333333333333
 40
0.3333333333333333
 40
0.4444444444444444
 40
0.4444444444444444
 40
0.4444444444444444
 40
0.4444444444444444
 40
0.5555555555555556
 40
0.5555555555555556
 40
0.5555555555555556
 40
0.5555555555555556
 40
0.6666666666666666
 40
0.6666666666666666
 40
0.6666666666666666
 40
0.6666666666666666
 40
0.7777777777777778
 40
0.7777777777777778
 40
0.7777777777777778
 40
0.7777777777777778
 40
1.0
 40
1.0
 40
1.0
 40
1.0
 10
-3.0894
 20
22.1057
 30
0.0
 10
-3.0894
 20
22.1057
 30
0.0
 10
-2.7595
 20
22.1057
 30
0.0
 10
-2.7595
 20
22.1057
 30
0.0
 10
-2.7595
 20
22.1057
 30
0.0
 10
-2.7595
 20
22.1057
 30
0.0
 10
-2.7595
 20
24.6281
 30
0.0
 10
-2.7595
 20
24.6281
 30
0.0
 10
-2.7595
 20
24.6281
 30
0.0
 10
-2.7595
 20
24.6281
 30
0.0
 10
-3.0506
 20
24.6281
 30
0.0
 10
-3.0506
 20
24.6281
 30
0.0
 10
-3.0506
 20
24.6281
 30
0.0
 10
-3.0506
 20
24.6281
 30
0.0
 10
-3.6016
 20
24.3332
 30
0.0
 10
-3.6016
 20
24.3332
 30
0.0
 10
-3.6016
 20
24.3332
 30
0.0
 10
-3.6016
 20
24.3332
 30
0.0
 10
-3.5356
 20
24.0732
 30
0.0
 10
-3.5356
 20
24.0732
 30
0.0
 10
-3.5356
 20
24.0732
 30
0.0
 10
-3.5356
 20
24.0732
 30
0.0
 10
-3.0971
 20
24.3099
 30
0.0
 10
-3.0971
 20
24.3099
 30
0.0
 10
-3.0971
 20
24.3099
 30
0.0
 10
-3.0971
 20
24.3099
 30
0.0
 10
-3.0894
 20
24.3099
 30
0.0
 10
-3.0894
 20
24.3099
 30
0.0
 10
-3.0894
 20
24.3099
 30
0.0
 10
-3.0894
 20
24.3099
 30
0.0
 10
-3.0894
 20
22.1057
 30
0.0
 10
-3.0894
 20
22.1057
 30
0.0
  0
SPLINE
  5
7E
330
1F
100
AcDbEntity
  8
Ilustrace
 62
   250
100
AcDbSpline
210
0.0
220
0.0
230
1.0
 70
    11
 71
     3
 72
   196
 73
   192
 74
     0
 42
0.0000000001
 43
0.0000000001
 40
0.0
 40
0.0
 40
0.0
 40
0.0
 40
0.0204081632653061
 40
0.0204081632653061
 40
0.0204081632653061
 40
0.0204081632653061
 40
0.0408163265306122
 40
0.0408163265306122
 40
0.0408163265306122
 40
0.0408163265306122
 40
0.0612244897959184
 40
0.0612244897959184
 40
0.0612244897959184
 40
0.0612244897959184
 40
0.0816326530612245
 40
0.0816326530612245
 40
0.0816326530612245
 40
0.0816326530612245
 40
0.1020408163265306
 40
0.1020408163265306
 40
0.1020408163265306
 40
0.1020408163265306
 40
0.1224489795918367
 40
0.1224489795918367
 40
0.1224489795918367
 40
0.1224489795918367
 40
0.1428571428571428
 40
0.1428571428571428
 40
0.1428571428571428
 40
0.1428571428571428
 40
0.163265306122449
 40
0.163265306122449
 40
0.163265306122449
 40
0.163265306122449
 40
0.1836734693877551
 40
0.1836734693877551
 40
0.1836734693877551
 40
0.1836734693877551
 40
0.2040816326530612
 40
0.2040816326530612
 40
0.2040816326530612
 40
0.2040816326530612
 40
0.2244897959183673
 40
0.2244897959183673
 40
0.2244897959183673
 40
0.2244897959183673
 40
0.2448979591836735
 40
0.2448979591836735
 40
0.2448979591836735
 40
0.2448979591836735
 40
0.2653061224489796
 40
0.2653061224489796
 40
0.2653061224489796
 40
0.2653061224489796
 40
0.2857142857142857
 40
0.2857142857142857
 40
0.2857142857142857
 40
0.2857142857142857
 40
0.3061224489795918
 40
0.3061224489795918
 40
0.3061224489795918
 40
0.3061224489795918
 40
0.3265306122448979
 40
0.3265306122448979
 40
0.3265306122448979
 40
0.3265306122448979
 40
0.3469387755102041
 40
0.3469387755102041
 40
0.3469387755102041
 40
0.3469387755102041
 40
0.3673469387755102
 40
0.3673469387755102
 40
0.3673469387755102
 40
0.3673469387755102
 40
0.3877551020408163
 40
0.3877551020408163
 40
0.3877551020408163
 40
0.3877551020408163
 40
0.4081632653061225
 40
0.4081632653061225
 40
0.4081632653061225
 40
0.4081632653061225
 40
0.4285714285714285
 40
0.4285714285714285
 40
0.4285714285714285
 40
0.4285714285714285
 40
0.4489795918367347
 40
0.4489795918367347
 40
0.4489795918367347
 40
0.4489795918367347
 40
0.4693877551020408
 40
0.4693877551020408
 40
0.4693877551020408
 40
0.4693877551020408
 40
0.4897959183673469
 40
0.4897959183673469
 40
0.4897959183673469
 40
0.4897959183673469
 40
0.5102040816326531
 40
0.5102040816326531
 40
0.5102040816326531
 40
0.5102040816326531
 40
0.5306122448979592
 40
0.5306122448979592
 40
0.5306122448979592
 40
0.5306122448979592
 40
0.5510204081632653
 40
0.5510204081632653
 40
0.5510204081632653
 40
0.5510204081632653
 40
0.5714285714285714
 40
0.5714285714285714
 40
0.5714285714285714
 40
0.5714285714285714
 40
0.5918367346938775
 40
0.5918367346938775
 40
0.5918367346938775
 40
0.5918367346938775
 40
0.6122448979591837
 40
0.6122448979591837
 40
0.6122448979591837
 40
0.6122448979591837
 40
0.6326530612244898
 40
0.6326530612244898
 40
0.6326530612244898
 40
0.6326530612244898
 40
0.6530612244897959
 40
0.6530612244897959
 40
0.6530612244897959
 40
0.6530612244897959
 40
0.673469387755102
 40
0.673469387755102
 40
0.673469387755102
 40
0.673469387755102
 40
0.6938775510204082
 40
0.6938775510204082
 40
0.6938775510204082
 40
0.6938775510204082
 40
0.7142857142857143
 40
0.7142857142857143
 40
0.7142857142857143
 40
0.7142857142857143
 40
0.7346938775510204
 40
0.7346938775510204
 40
0.7346938775510204
 40
0.7346938775510204
 40
0.7551020408163265
 40
0.7551020408163265
 40
0.7551020408163265
 40
0.7551020408163265
 40
0.7755102040816326
 40
0.7755102040816326
 40
0.7755102040816326
 40
0.7755102040816326
 40
0.7959183673469388
 40
0.7959183673469388
 40
0.7959183673469388
 40
0.7959183673469388
 40
0.8163265306122449
 40
0.8163265306122449
 40
0.8163265306122449
 40
0.8163265306122449
 40
0.8367346938775511
 40
0.8367346938775511
 40
0.8367346938775511
 40
0.8367346938775511
 40
0.8571428571428571
 40
0.8571428571428571
 40
0.8571428571428571
 40
0.8571428571428571
 40
0.8775510204081632
 40
0.8775510204081632
 40
0.8775510204081632
 40
0.8775510204081632
 40
0.8979591836734694
 40
0.8979591836734694
 40
0.8979591836734694
 40
0.8979591836734694
 40
0.9183673469387755
 40
0.9183673469387755
 40
0.9183673469387755
 40
0.9183673469387755
 40
0.9387755102040817
 40
0.9387755102040817
 40
0.9387755102040817
 40
0.9387755102040817
 40
0.9591836734693877
 40
0.9591836734693877
 40
0.9591836734693877
 40
0.9591836734693877
 40
1.0
 40
1.0
 40
1.0
 40
1.0
 10
-1.8515
 20
22.2338
 30
0.0
 10
-1.8095
 20
22.2059
 30
0.0
 10
-1.7551
 20
22.1794
 30
0.0
 10
-1.6892
 20
22.1536
 30
0.0
 10
-1.6892
 20
22.1536
 30
0.0
 10
-1.6232
 20
22.1277
 30
0.0
 10
-1.5482
 20
22.1063
 30
0.0
 10
-1.4641
 20
22.0889
 30
0.0
 10
-1.4641
 20
22.0889
 30
0.0
 10
-1.38
 20
22.0721
 30
0.0
 10
-1.2908
 20
22.0637
 30
0.0
 10
-1.1957
 20
22.063
 30
0.0
 10
-1.1957
 20
22.063
 30
0.0
 10
-1.045
 20
22.0637
 30
0.0
 10
-0.9124
 20
22.0844
 30
0.0
 10
-0.7979
 20
22.1245
 30
0.0
 10
-0.7979
 20
22.1245
 30
0.0
 10
-0.6835
 20
22.1646
 30
0.0
 10
-0.5877
 20
22.2202
 30
0.0
 10
-0.5101
 20
22.29
 30
0.0
 10
-0.5101
 20
22.29
 30
0.0
 10
-0.4325
 20
22.3599
 30
0.0
 10
-0.3743
 20
22.4407
 30
0.0
 10
-0.3348
 20
22.5313
 30
0.0
 10
-0.3348
 20
22.5313
 30
0.0
 10
-0.296
 20
22.6218
 30
0.0
 10
-0.276
 20
22.7182
 30
0.0
 10
-0.276
 20
22.8197
 30
0.0
 10
-0.276
 20
22.8197
 30
0.0
 10
-0.2773
 20
22.9083
 30
0.0
 10
-0.2928
 20
22.9885
 30
0.0
 10
-0.3219
 20
23.061
 30
0.0
 10
-0.3219
 20
23.061
 30
0.0
 10
-0.351
 20
23.1341
 30
0.0
 10
-0.3911
 20
23.1974
 30
0.0
 10
-0.4422
 20
23.2524
 30
0.0
 10
-0.4422
 20
23.2524
 30
0.0
 10
-0.4933
 20
23.3074
 30
0.0
 10
-0.5528
 20
23.3527
 30
0.0
 10
-0.6201
 20
23.3882
 30
0.0
 10
-0.6201
 20
23.3882
 30
0.0
 10
-0.688
 20
23.4238
 30
0.0
 10
-0.7604
 20
23.449
 30
0.0
 10
-0.8387
 20
23.4639
 30
0.0
 10
-0.8387
 20
23.4639
 30
0.0
 10
-0.8387
 20
23.4639
 30
0.0
 10
-0.8387
 20
23.4717
 30
0.0
 10
-0.8387
 20
23.4717
 30
0.0
 10
-0.8387
 20
23.4717
 30
0.0
 10
-0.7365
 20
23.5098
 30
0.0
 10
-0.6505
 20
23.5583
 30
0.0
 10
-0.5819
 20
23.6178
 30
0.0
 10
-0.5819
 20
23.6178
 30
0.0
 10
-0.5127
 20
23.6773
 30
0.0
 10
-0.4603
 20
23.7459
 30
0.0
 10
-0.4254
 20
23.8222
 30
0.0
 10
-0.4254
 20
23.8222
 30
0.0
 10
-0.3905
 20
23.8985
 30
0.0
 10
-0.373
 20
23.9807
 30
0.0
 10
-0.373
 20
24.0693
 30
0.0
 10
-0.373
 20
24.0693
 30
0.0
 10
-0.373
 20
24.1469
 30
0.0
 10
-0.3872
 20
24.2213
 30
0.0
 10
-0.4157
 20
24.2924
 30
0.0
 10
-0.4157
 20
24.2924
 30
0.0
 10
-0.4448
 20
24.3642
 30
0.0
 10
-0.4888
 20
24.4282
 30
0.0
 10
-0.5476
 20
24.4852
 30
0.0
 10
-0.5476
 20
24.4852
 30
0.0
 10
-0.6065
 20
24.5421
 30
0.0
 10
-0.6815
 20
24.5867
 30
0.0
 10
-0.7727
 20
24.6197
 30
0.0
 10
-0.7727
 20
24.6197
 30
0.0
 10
-0.8633
 20
24.6533
 30
0.0
 10
-0.9706
 20
24.6701
 30
0.0
 10
-1.0948
 20
24.6708
 30
0.0
 10
-1.0948
 20
24.6708
 30
0.0
 10
-1.186
 20
24.6701
 30
0.0
 10
-1.2733
 20
24.6604
 30
0.0
 10
-1.3574
 20
24.6423
 30
0.0
 10
-1.3574
 20
24.6423
 30
0.0
 10
-1.4415
 20
24.6236
 30
0.0
 10
-1.5178
 20
24.5996
 30
0.0
 10
-1.5863
 20
24.5705
 30
0.0
 10
-1.5863
 20
24.5705
 30
0.0
 10
-1.6549
 20
24.5408
 30
0.0
 10
-1.7125
 20
24.5097
 30
0.0
 10
-1.7584
 20
24.4767
 30
0.0
 10
-1.7584
 20
24.4767
 30
0.0
 10
-1.7584
 20
24.4767
 30
0.0
 10
-1.6652
 20
24.2284
 30
0.0
 10
-1.6652
 20
24.2284
 30
0.0
 10
-1.6652
 20
24.2284
 30
0.0
 10
-1.6284
 20
24.2549
 30
0.0
 10
-1.5838
 20
24.2808
 30
0.0
 10
-1.5307
 20
24.306
 30
0.0
 10
-1.5307
 20
24.306
 30
0.0
 10
-1.4783
 20
24.3319
 30
0.0
 10
-1.4201
 20
24.3526
 30
0.0
 10
-1.3567
 20
24.3694
 30
0.0
 10
-1.3567
 20
24.3694
 30
0.0
 10
-1.294
 20
24.3862
 30
0.0
 10
-1.2287
 20
24.3946
 30
0.0
 10
-1.1608
 20
24.3953
 30
0.0
 10
-1.1608
 20
24.3953
 30
0.0
 10
-1.056
 20
24.3946
 30
0.0
 10
-0.9713
 20
24.3765
 30
0.0
 10
-0.9066
 20
24.3416
 30
0.0
 10
-0.9066
 20
24.3416
 30
0.0
 10
-0.8413
 20
24.3066
 30
0.0
 10
-0.7934
 20
24.2607
 30
0.0
 10
-0.763
 20
24.2032
 30
0.0
 10
-0.763
 20
24.2032
 30
0.0
 10
-0.7326
 20
24.1462
 30
0.0
 10
-0.7177
 20
24.0835
 30
0.0
 10
-0.7184
 20
24.015
 30
0.0
 10
-0.7184
 20
24.015
 30
0.0
 10
-0.719
 20
23.9406
 30
0.0
 10
-0.7371
 20
23.8759
 30
0.0
 10
-0.7714
 20
23.8222
 30
0.0
 10
-0.7714
 20
23.8222
 30
0.0
 10
-0.8057
 20
23.7685
 30
0.0
 10
-0.851
 20
23.7239
 30
0.0
 10
-0.9066
 20
23.6896
 30
0.0
 10
-0.9066
 20
23.6896
 30
0.0
 10
-0.9622
 20
23.6547
 30
0.0
 10
-1.023
 20
23.6295
 30
0.0
 10
-1.0883
 20
23.6127
 30
0.0
 10
-1.0883
 20
23.6127
 30
0.0
 10
-1.1537
 20
23.5965
 30
0.0
 10
-1.2177
 20
23.5881
 30
0.0
 10
-1.2811
 20
23.5881
 30
0.0
 10
-1.2811
 20
23.5881
 30
0.0
 10
-1.2811
 20
23.5881
 30
0.0
 10
-1.4712
 20
23.5881
 30
0.0
 10
-1.4712
 20
23.5881
 30
0.0
 10
-1.4712
 20
23.5881
 30
0.0
 10
-1.4712
 20
23.5881
 30
0.0
 10
-1.4712
 20
23.332
 30
0.0
 10
-1.4712
 20
23.332
 30
0.0
 10
-1.4712
 20
23.332
 30
0.0
 10
-1.4712
 20
23.332
 30
0.0
 10
-1.2811
 20
23.332
 30
0.0
 10
-1.2811
 20
23.332
 30
0.0
 10
-1.2811
 20
23.332
 30
0.0
 10
-1.1976
 20
23.332
 30
0.0
 10
-1.1174
 20
23.3223
 30
0.0
 10
-1.0405
 20
23.3029
 30
0.0
 10
-1.0405
 20
23.3029
 30
0.0
 10
-0.9635
 20
23.2835
 30
0.0
 10
-0.8943
 20
23.2531
 30
0.0
 10
-0.8329
 20
23.2123
 30
0.0
 10
-0.8329
 20
23.2123
 30
0.0
 10
-0.7714
 20
23.1716
 30
0.0
 10
-0.7223
 20
23.1192
 30
0.0
 10
-0.686
 20
23.0552
 30
0.0
 10
-0.686
 20
23.0552
 30
0.0
 10
-0.6498
 20
22.9918
 30
0.0
 10
-0.6311
 20
22.9155
 30
0.0
 10
-0.6291
 20
22.8275
 30
0.0
 10
-0.6291
 20
22.8275
 30
0.0
 10
-0.6278
 20
22.7732
 30
0.0
 10
-0.6362
 20
22.7175
 30
0.0
 10
-0.6556
 20
22.6613
 30
0.0
 10
-0.6556
 20
22.6613
 30
0.0
 10
-0.6744
 20
22.6044
 30
0.0
 10
-0.7061
 20
22.5513
 30
0.0
 10
-0.7501
 20
22.5028
 30
0.0
 10
-0.7501
 20
22.5028
 30
0.0
 10
-0.7941
 20
22.4543
 30
0.0
 10
-0.8529
 20
22.4149
 30
0.0
 10
-0.9266
 20
22.3851
 30
0.0
 10
-0.9266
 20
22.3851
 30
0.0
 10
-1.0004
 20
22.3547
 30
0.0
 10
-1.0909
 20
22.3392
 30
0.0
 10
-1.1996
 20
22.3385
 30
0.0
 10
-1.1996
 20
22.3385
 30
0.0
 10
-1.2804
 20
22.3392
 30
0.0
 10
-1.3574
 20
22.3482
 30
0.0
 10
-1.4298
 20
22.3657
 30
0.0
 10
-1.4298
 20
22.3657
 30
0.0
 10
-1.5023
 20
22.3832
 30
0.0
 10
-1.5669
 20
22.4039
 30
0.0
 10
-1.6239
 20
22.4278
 30
0.0
 10
-1.6239
 20
22.4278
 30
0.0
 10
-1.6808
 20
22.4517
 30
0.0
 10
-1.7254
 20
22.4737
 30
0.0
 10
-1.7584
 20
22.4938
 30
0.0
 10
-1.7584
 20
22.4938
 30
0.0
 10
-1.7584
 20
22.4938
 30
0.0
 10
-1.8515
 20
22.2338
 30
0.0
 10
-1.8515
 20
22.2338
 30
0.0
  0
SPLINE
  5
7F
330
1F
100
AcDbEntity
  8
Ilustrace
 62
   250
100
AcDbSpline
210
0.0
220
0.0
230
1.0
 70
    11
 71
     3
 72
    36
 73
    32
 74
     0
 42
0.0000000001
 43
0.0000000001
 40
0.0
 40
0.0
 40
0.0
 40
0.0
 40
0.1111111111111111
 40
0.1111111111111111
 40
0.1111111111111111
 40
0.1111111111111111
 40
0.2222222222222222
 40
0.2222222222222222
 40
0.2222222222222222
 40
0.2222222222222222
 40
0.3333333333333333
 40
0.3333333333333333
 40
0.3333333333333333
 40
0.3333333333333333
 40
0.4444444444444444
 40
0.4444444444444444
 40
0.4444444444444444
 40
0.4444444444444444
 40
0.5555555555555556
 40
0.5555555555555556
 40
0.5555555555555556
 40
0.5555555555555556
 40
0.6666666666666666
 40
0.6666666666666666
 40
0.6666666666666666
 40
0.6666666666666666
 40
0.7777777777777778
 40
0.7777777777777778
 40
0.7777777777777778
 40
0.7777777777777778
 40
1.0
 40
1.0
 40
1.0
 40
1.0
 10
0.1974
 20
24.6281
 30
0.0
 10
0.1974
 20
24.6281
 30
0.0
 10
0.1974
 20
24.3448
 30
0.0
 10
0.1974
 20
24.3448
 30
0.0
 10
0.1974
 20
24.3448
 30
0.0
 10
0.1974
 20
24.3448
 30
0.0
 10
1.4314
 20
24.3448
 30
0.0
 10
1.4314
 20
24.3448
 30
0.0
 10
1.4314
 20
24.3448
 30
0.0
 10
1.4314
 20
24.3448
 30
0.0
 10
1.4314
 20
24.337
 30
0.0
 10
1.4314
 20
24.337
 30
0.0
 10
1.4314
 20
24.337
 30
0.0
 10
1.4314
 20
24.337
 30
0.0
 10
0.3371
 20
22.1057
 30
0.0
 10
0.3371
 20
22.1057
 30
0.0
 10
0.3371
 20
22.1057
 30
0.0
 10
0.3371
 20
22.1057
 30
0.0
 10
0.6902
 20
22.1057
 30
0.0
 10
0.6902
 20
22.1057
 30
0.0
 10
0.6902
 20
22.1057
 30
0.0
 10
0.6902
 20
22.1057
 30
0.0
 10
1.7884
 20
24.403
 30
0.0
 10
1.7884
 20
24.403
 30
0.0
 10
1.7884
 20
24.403
 30
0.0
 10
1.7884
 20
24.403
 30
0.0
 10
1.7884
 20
24.6281
 30
0.0
 10
1.7884
 20
24.6281
 30
0.0
 10
1.7884
 20
24.6281
 30
0.0
 10
1.7884
 20
24.6281
 30
0.0
 10
0.1974
 20
24.6281
 30
0.0
 10
0.1974
 20
24.6281
 30
0.0
  0
SPLINE
  5
80
330
1F
100
AcDbEntity
  8
Ilustrace
 62
   250
370
     9
100
AcDbSpline
210
0.0
220
0.0
230
1.0
 70
    11
 71
     3
 72
    32
 73
    28
 74
     0
 42
0.0000000001
 43
0.0000000001
 40
0.0
 40
0.0
 40
0.0
 40
0.0
 40
0.125
 40
0.125
 40
0.125
 40
0.125
 40
0.25
 40
0.25
 40
0.25
 40
0.25
 40
0.375
 40
0.375
 40
0.375
 40
0.375
 40
0.5
 40
0.5
 40
0.5
 40
0.5
 40
0.625
 40
0.625
 40
0.625
 40
0.625
 40
0.75
 40
0.75
 40
0.75
 40
0.75
 40
1.0
 40
1.0
 40
1.0
 40
1.0
 10
8.349
 20
21.2055
 30
0.0
 10
8.349
 20
21.2055
 30
0.0
 10
8.349
 20
21.2055
 30
0.0
 10
8.349
 20
21.2055
 30
0.0
 10
8.349
 20
21.2055
 30
0.0
 10
8.349
 20
21.2055
 30
0.0
 10
8.349
 20
21.2055
 30
0.0
 10
8.349
 20
21.2055
 30
0.0
 10
8.349
 20
21.2055
 30
0.0
 10
8.349
 20
21.2055
 30
0.0
 10
9.6218
 20
21.6489
 30
0.0
 10
9.6218
 20
21.6489
 30
0.0
 10
9.6218
 20
21.6489
 30
0.0
 10
9.6218
 20
21.6489
 30
0.0
 10
8.349
 20
22.0923
 30
0.0
 10
8.349
 20
22.0923
 30
0.0
 10
8.349
 20
22.0923
 30
0.0
 10
8.349
 20
22.0923
 30
0.0
 10
8.349
 20
22.0923
 30
0.0
 10
8.349
 20
22.0923
 30
0.0
 10
8.349
 20
22.0923
 30
0.0
 10
8.349
 20
22.0923
 30
0.0
 10
8.349
 20
22.0923
 30
0.0
 10
8.349
 20
22.0923
 30
0.0
 10
8.349
 20
22.0923
 30
0.0
 10
8.349
 20
22.0923
 30
0.0
 10
8.349
 20
21.2055
 30
0.0
 10
8.349
 20
21.2055
 30
0.0
  0
SPLINE
  5
81
330
1F
100
AcDbEntity
  8
Ilustrace
 62
   250
370
     9
100
AcDbSpline
210
0.0
220
0.0
230
1.0
 70
    11
 71
     3
 72
    32
 73
    28
 74
     0
 42
0.0000000001
 43
0.0000000001
 40
0.0
 40
0.0
 40
0.0
 40
0.0
 40
0.125
 40
0.125
 40
0.125
 40
0.125
 40
0.25
 40
0.25
 40
0.25
 40
0.25
 40
0.375
 40
0.375
 40
0.375
 40
0.375
 40
0.5
 40
0.5
 40
0.5
 40
0.5
 40
0.625
 40
0.625
 40
0.625
 40
0.625
 40
0.75
 40
0.75
 40
0.75
 40
0.75
 40
1.0
 40
1.0
 40
1.0
 40
1.0
 10
-13.4871
 20
21.2183
 30
0.0
 10
-13.4871
 20
21.2183
 30
0.0
 10
-13.4871
 20
21.2183
 30
0.0
 10
-13.4871
 20
21.2183
 30
0.0
 10
-13.4871
 20
21.2183
 30
0.0
 10
-13.4871
 20
21.2183
 30
0.0
 10
-13.4871
 20
21.2183
 30
0.0
 10
-13.4871
 20
21.2183
 30
0.0
 10
-13.4871
 20
21.2183
 30
0.0
 10
-13.4871
 20
21.2183
 30
0.0
 10
-14.7617
 20
21.6617
 30
0.0
 10
-14.7617
 20
21.6617
 30
0.0
 10
-14.7617
 20
21.6617
 30
0.0
 10
-14.7617
 20
21.6617
 30
0.0
 10
-13.4871
 20
22.1051
 30
0.0
 10
-13.4871
 20
22.1051
 30
0.0
 10
-13.4871
 20
22.1051
 30
0.0
 10
-13.4871
 20
22.1051
 30
0.0
 10
-13.4871
 20
22.1051
 30
0.0
 10
-13.4871
 20
22.1051
 30
0.0
 10
-13.4871
 20
22.1051
 30
0.0
 10
-13.4871
 20
22.1051
 30
0.0
 10
-13.4871
 20
22.1051
 30
0.0
 10
-13.4871
 20
22.1051
 30
0.0
 10
-13.4871
 20
22.1051
 30
0.0
 10
-13.4871
 20
22.1051
 30
0.0
 10
-13.4871
 20
21.2183
 30
0.0
 10
-13.4871
 20
21.2183
 30
0.0
  0
SPLINE
  5
82
330
1F
100
AcDbEntity
  8
Ilustrace
 62
   250
370
    15
100
AcDbSpline
210
0.0
220
0.0
230
1.0
 70
    24
 71
     3
 72
     8
 73
     4
 74
     0
 42
0.0000000001
 43
0.0000000001
 40
0.0
 40
0.0
 40
0.0
 40
0.0
 40
1.0
 40
1.0
 40
1.0
 40
1.0
 10
11.2695
 20
-11.214
 30
0.0
 10
11.2695
 20
-11.214
 30
0.0
 10
11.2695
 20
-5.2832
 30
0.0
 10
11.2695
 20
-5.2832
 30
0.0
  0
SPLINE
  5
83
330
1F
100
AcDbEntity
  8
Ilustrace
 62
   250
100
AcDbSpline
210
0.0
220
0.0
230
1.0
 70
    11
 71
     3
 72
    48
 73
    44
 74
     0
 42
0.0000000001
 43
0.0000000001
 40
0.0
 40
0.0
 40
0.0
 40
0.0
 40
0.0833333333333333
 40
0.0833333333333333
 40
0.0833333333333333
 40
0.0833333333333333
 40
0.1666666666666667
 40
0.1666666666666667
 40
0.1666666666666667
 40
0.1666666666666667
 40
0.25
 40
0.25
 40
0.25
 40
0.25
 40
0.3333333333333333
 40
0.3333333333333333
 40
0.3333333333333333
 40
0.3333333333333333
 40
0.4166666666666667
 40
0.4166666666666667
 40
0.4166666666666667
 40
0.4166666666666667
 40
0.5
 40
0.5
 40
0.5
 40
0.5
 40
0.5833333333333334
 40
0.5833333333333334
 40
0.5833333333333334
 40
0.5833333333333334
 40
0.6666666666666666
 40
0.6666666666666666
 40
0.6666666666666666
 40
0.6666666666666666
 40
0.75
 40
0.75
 40
0.75
 40
0.75
 40
0.8333333333333334
 40
0.8333333333333334
 40
0.8333333333333334
 40
0.8333333333333334
 40
1.0
 40
1.0
 40
1.0
 40
1.0
 10
10.3832
 20
-8.5705
 30
0.0
 10
10.3832
 20
-8.5705
 30
0.0
 10
9.6925
 20
-8.5705
 30
0.0
 10
9.6925
 20
-8.5705
 30
0.0
 10
9.6925
 20
-8.5705
 30
0.0
 10
9.6925
 20
-8.5705
 30
0.0
 10
9.6925
 20
-8.2173
 30
0.0
 10
9.6925
 20
-8.2173
 30
0.0
 10
9.6925
 20
-8.2173
 30
0.0
 10
9.6925
 20
-8.2173
 30
0.0
 10
9.4286
 20
-8.2173
 30
0.0
 10
9.4286
 20
-8.2173
 30
0.0
 10
9.4286
 20
-8.2173
 30
0.0
 10
9.4286
 20
-8.2173
 30
0.0
 10
9.4286
 20
-8.5705
 30
0.0
 10
9.4286
 20
-8.5705
 30
0.0
 10
9.4286
 20
-8.5705
 30
0.0
 10
9.4286
 20
-8.5705
 30
0.0
 10
7.8608
 20
-8.5705
 30
0.0
 10
7.8608
 20
-8.5705
 30
0.0
 10
7.8608
 20
-8.5705
 30
0.0
 10
7.8608
 20
-8.5705
 30
0.0
 10
7.8608
 20
-8.9391
 30
0.0
 10
7.8608
 20
-8.9391
 30
0.0
 10
7.8608
 20
-8.9391
 30
0.0
 10
7.8608
 20
-8.9391
 30
0.0
 10
9.4713
 20
-10.0645
 30
0.0
 10
9.4713
 20
-10.0645
 30
0.0
 10
9.4713
 20
-10.0645
 30
0.0
 10
9.4713
 20
-10.0645
 30
0.0
 10
9.6925
 20
-10.0645
 30
0.0
 10
9.6925
 20
-10.0645
 30
0.0
 10
9.6925
 20
-10.0645
 30
0.0
 10
9.6925
 20
-10.0645
 30
0.0
 10
9.6925
 20
-8.8925
 30
0.0
 10
9.6925
 20
-8.8925
 30
0.0
 10
9.6925
 20
-8.8925
 30
0.0
 10
9.6925
 20
-8.8925
 30
0.0
 10
10.3832
 20
-8.8925
 30
0.0
 10
10.3832
 20
-8.8925
 30
0.0
 10
10.3832
 20
-8.8925
 30
0.0
 10
10.3832
 20
-8.8925
 30
0.0
 10
10.3832
 20
-8.5705
 30
0.0
 10
10.3832
 20
-8.5705
 30
0.0
  0
SPLINE
  5
84
330
1F
100
AcDbEntity
  8
Ilustrace
 62
   250
100
AcDbSpline
210
0.0
220
0.0
230
1.0
 70
    11
 71
     3
 72
    36
 73
    32
 74
     0
 42
0.0000000001
 43
0.0000000001
 40
0.0
 40
0.0
 40
0.0
 40
0.0
 40
0.1111111111111111
 40
0.1111111111111111
 40
0.1111111111111111
 40
0.1111111111111111
 40
0.2222222222222222
 40
0.2222222222222222
 40
0.2222222222222222
 40
0.2222222222222222
 40
0.3333333333333333
 40
0.3333333333333333
 40
0.3333333333333333
 40
0.3333333333333333
 40
0.4444444444444444
 40
0.4444444444444444
 40
0.4444444444444444
 40
0.4444444444444444
 40
0.5555555555555556
 40
0.5555555555555556
 40
0.5555555555555556
 40
0.5555555555555556
 40
0.6666666666666666
 40
0.6666666666666666
 40
0.6666666666666666
 40
0.6666666666666666
 40
0.7777777777777778
 40
0.7777777777777778
 40
0.7777777777777778
 40
0.7777777777777778
 40
1.0
 40
1.0
 40
1.0
 40
1.0
 10
9.4286
 20
-9.7191
 30
0.0
 10
9.4286
 20
-9.7191
 30
0.0
 10
9.4208
 20
-9.7191
 30
0.0
 10
9.4208
 20
-9.7191
 30
0.0
 10
9.4208
 20
-9.7191
 30
0.0
 10
9.4208
 20
-9.7191
 30
0.0
 10
8.5632
 20
-9.1021
 30
0.0
 10
8.5632
 20
-9.1021
 30
0.0
 10
8.5632
 20
-9.1021
 30
0.0
 10
8.5056
 20
-9.0678
 30
0.0
 10
8.4474
 20
-9.0335
 30
0.0
 10
8.3886
 20
-8.9999
 30
0.0
 10
8.3886
 20
-8.9999
 30
0.0
 10
8.3291
 20
-8.9669
 30
0.0
 10
8.2631
 20
-8.9307
 30
0.0
 10
8.1907
 20
-8.8925
 30
0.0
 10
8.1907
 20
-8.8925
 30
0.0
 10
8.1907
 20
-8.8925
 30
0.0
 10
8.1907
 20
-8.8809
 30
0.0
 10
8.1907
 20
-8.8809
 30
0.0
 10
8.1907
 20
-8.8809
 30
0.0
 10
8.3226
 20
-8.8887
 30
0.0
 10
8.4545
 20
-8.8925
 30
0.0
 10
8.5865
 20
-8.8925
 30
0.0
 10
8.5865
 20
-8.8925
 30
0.0
 10
8.5865
 20
-8.8925
 30
0.0
 10
9.4286
 20
-8.8925
 30
0.0
 10
9.4286
 20
-8.8925
 30
0.0
 10
9.4286
 20
-8.8925
 30
0.0
 10
9.4286
 20
-8.8925
 30
0.0
 10
9.4286
 20
-9.7191
 30
0.0
 10
9.4286
 20
-9.7191
 30
0.0
  0
SPLINE
  5
85
330
1F
100
AcDbEntity
  8
Ilustrace
 62
   250
100
AcDbSpline
210
0.0
220
0.0
230
1.0
 70
    11
 71
     3
 72
    56
 73
    52
 74
     0
 42
0.0000000001
 43
0.0000000001
 40
0.0
 40
0.0
 40
0.0
 40
0.0
 40
0.0714285714285714
 40
0.0714285714285714
 40
0.0714285714285714
 40
0.0714285714285714
 40
0.1428571428571428
 40
0.1428571428571428
 40
0.1428571428571428
 40
0.1428571428571428
 40
0.2142857142857143
 40
0.2142857142857143
 40
0.2142857142857143
 40
0.2142857142857143
 40
0.2857142857142857
 40
0.2857142857142857
 40
0.2857142857142857
 40
0.2857142857142857
 40
0.3571428571428572
 40
0.3571428571428572
 40
0.3571428571428572
 40
0.3571428571428572
 40
0.4285714285714285
 40
0.4285714285714285
 40
0.4285714285714285
 40
0.4285714285714285
 40
0.5
 40
0.5
 40
0.5
 40
0.5
 40
0.5714285714285714
 40
0.5714285714285714
 40
0.5714285714285714
 40
0.5714285714285714
 40
0.6428571428571429
 40
0.6428571428571429
 40
0.6428571428571429
 40
0.6428571428571429
 40
0.7142857142857143
 40
0.7142857142857143
 40
0.7142857142857143
 40
0.7142857142857143
 40
0.7857142857142857
 40
0.7857142857142857
 40
0.7857142857142857
 40
0.7857142857142857
 40
0.8571428571428571
 40
0.8571428571428571
 40
0.8571428571428571
 40
0.8571428571428571
 40
1.0
 40
1.0
 40
1.0
 40
1.0
 10
7.8181
 20
-7.1114
 30
0.0
 10
7.8181
 20
-7.2401
 30
0.0
 10
7.8466
 20
-7.3578
 30
0.0
 10
7.9035
 20
-7.4652
 30
0.0
 10
7.9035
 20
-7.4652
 30
0.0
 10
7.9604
 20
-7.5725
 30
0.0
 10
8.0438
 20
-7.665
 30
0.0
 10
8.1551
 20
-7.7439
 30
0.0
 10
8.1551
 20
-7.7439
 30
0.0
 10
8.2663
 20
-7.8228
 30
0.0
 10
8.4034
 20
-7.8836
 30
0.0
 10
8.5664
 20
-7.927
 30
0.0
 10
8.5664
 20
-7.927
 30
0.0
 10
8.7294
 20
-7.9697
 30
0.0
 10
8.917
 20
-7.9917
 30
0.0
 10
9.1298
 20
-7.9923
 30
0.0
 10
9.1298
 20
-7.9923
 30
0.0
 10
9.4085
 20
-7.9884
 30
0.0
 10
9.6439
 20
-7.9516
 30
0.0
 10
9.8367
 20
-7.8811
 30
0.0
 10
9.8367
 20
-7.8811
 30
0.0
 10
10.0294
 20
-7.8106
 30
0.0
 10
10.1756
 20
-7.7129
 30
0.0
 10
10.2752
 20
-7.5887
 30
0.0
 10
10.2752
 20
-7.5887
 30
0.0
 10
10.3748
 20
-7.4645
 30
0.0
 10
10.4252
 20
-7.3197
 30
0.0
 10
10.4259
 20
-7.1541
 30
0.0
 10
10.4259
 20
-7.1541
 30
0.0
 10
10.4252
 20
-6.9685
 30
0.0
 10
10.3735
 20
-6.8107
 30
0.0
 10
10.2713
 20
-6.68
 30
0.0
 10
10.2713
 20
-6.68
 30
0.0
 10
10.1691
 20
-6.5494
 30
0.0
 10
10.0191
 20
-6.4498
 30
0.0
 10
9.8212
 20
-6.3812
 30
0.0
 10
9.8212
 20
-6.3812
 30
0.0
 10
9.6232
 20
-6.312
 30
0.0
 10
9.3814
 20
-6.2777
 30
0.0
 10
9.0948
 20
-6.2771
 30
0.0
 10
9.0948
 20
-6.2771
 30
0.0
 10
8.8264
 20
-6.2777
 30
0.0
 10
8.5968
 20
-6.3107
 30
0.0
 10
8.4067
 20
-6.376
 30
0.0
 10
8.4067
 20
-6.376
 30
0.0
 10
8.2165
 20
-6.4414
 30
0.0
 10
8.071
 20
-6.5364
 30
0.0
 10
7.9708
 20
-6.6606
 30
0.0
 10
7.9708
 20
-6.6606
 30
0.0
 10
7.8699
 20
-6.7848
 30
0.0
 10
7.8188
 20
-6.9348
 30
0.0
 10
7.8181
 20
-7.1114
 30
0.0
  0
SPLINE
  5
86
330
1F
100
AcDbEntity
  8
Ilustrace
 62
   250
100
AcDbSpline
210
0.0
220
0.0
230
1.0
 70
    11
 71
     3
 72
    56
 73
    52
 74
     0
 42
0.0000000001
 43
0.0000000001
 40
0.0
 40
0.0
 40
0.0
 40
0.0
 40
0.0714285714285714
 40
0.0714285714285714
 40
0.0714285714285714
 40
0.0714285714285714
 40
0.1428571428571428
 40
0.1428571428571428
 40
0.1428571428571428
 40
0.1428571428571428
 40
0.2142857142857143
 40
0.2142857142857143
 40
0.2142857142857143
 40
0.2142857142857143
 40
0.2857142857142857
 40
0.2857142857142857
 40
0.2857142857142857
 40
0.2857142857142857
 40
0.3571428571428572
 40
0.3571428571428572
 40
0.3571428571428572
 40
0.3571428571428572
 40
0.4285714285714285
 40
0.4285714285714285
 40
0.4285714285714285
 40
0.4285714285714285
 40
0.5
 40
0.5
 40
0.5
 40
0.5
 40
0.5714285714285714
 40
0.5714285714285714
 40
0.5714285714285714
 40
0.5714285714285714
 40
0.6428571428571429
 40
0.6428571428571429
 40
0.6428571428571429
 40
0.6428571428571429
 40
0.7142857142857143
 40
0.7142857142857143
 40
0.7142857142857143
 40
0.7142857142857143
 40
0.7857142857142857
 40
0.7857142857142857
 40
0.7857142857142857
 40
0.7857142857142857
 40
0.8571428571428571
 40
0.8571428571428571
 40
0.8571428571428571
 40
0.8571428571428571
 40
1.0
 40
1.0
 40
1.0
 40
1.0
 10
8.082
 20
-7.1347
 30
0.0
 10
8.0827
 20
-7.0454
 30
0.0
 10
8.1066
 20
-6.9685
 30
0.0
 10
8.1551
 20
-6.9038
 30
0.0
 10
8.1551
 20
-6.9038
 30
0.0
 10
8.2036
 20
-6.8391
 30
0.0
 10
8.2728
 20
-6.7861
 30
0.0
 10
8.3633
 20
-6.7447
 30
0.0
 10
8.3633
 20
-6.7447
 30
0.0
 10
8.4532
 20
-6.7033
 30
0.0
 10
8.5619
 20
-6.6722
 30
0.0
 10
8.6874
 20
-6.6522
 30
0.0
 10
8.6874
 20
-6.6522
 30
0.0
 10
8.8135
 20
-6.6321
 30
0.0
 10
8.9545
 20
-6.6224
 30
0.0
 10
9.1104
 20
-6.6224
 30
0.0
 10
9.1104
 20
-6.6224
 30
0.0
 10
9.3264
 20
-6.6224
 30
0.0
 10
9.5127
 20
-6.6412
 30
0.0
 10
9.6692
 20
-6.6787
 30
0.0
 10
9.6692
 20
-6.6787
 30
0.0
 10
9.8263
 20
-6.7156
 30
0.0
 10
9.9473
 20
-6.7725
 30
0.0
 10
10.0327
 20
-6.8482
 30
0.0
 10
10.0327
 20
-6.8482
 30
0.0
 10
10.118
 20
-6.9238
 30
0.0
 10
10.1607
 20
-7.0196
 30
0.0
 10
10.162
 20
-7.1347
 30
0.0
 10
10.162
 20
-7.1347
 30
0.0
 10
10.1614
 20
-7.2388
 30
0.0
 10
10.1213
 20
-7.3287
 30
0.0
 10
10.0411
 20
-7.4057
 30
0.0
 10
10.0411
 20
-7.4057
 30
0.0
 10
9.9609
 20
-7.482
 30
0.0
 10
9.8444
 20
-7.5409
 30
0.0
 10
9.6918
 20
-7.5829
 30
0.0
 10
9.6918
 20
-7.5829
 30
0.0
 10
9.5385
 20
-7.6249
 30
0.0
 10
9.3529
 20
-7.6463
 30
0.0
 10
9.1336
 20
-7.6469
 30
0.0
 10
9.1336
 20
-7.6469
 30
0.0
 10
8.904
 20
-7.6463
 30
0.0
 10
8.712
 20
-7.6236
 30
0.0
 10
8.5554
 20
-7.5797
 30
0.0
 10
8.5554
 20
-7.5797
 30
0.0
 10
8.3996
 20
-7.5357
 30
0.0
 10
8.2819
 20
-7.4755
 30
0.0
 10
8.2017
 20
-7.3986
 30
0.0
 10
8.2017
 20
-7.3986
 30
0.0
 10
8.1221
 20
-7.3216
 30
0.0
 10
8.082
 20
-7.2336
 30
0.0
 10
8.082
 20
-7.1347
 30
0.0
  0
SPLINE
  5
87
330
1F
100
AcDbEntity
  8
Ilustrace
 62
   250
370
     9
100
AcDbSpline
210
0.0
220
0.0
230
1.0
 70
    11
 71
     3
 72
    32
 73
    28
 74
     0
 42
0.0000000001
 43
0.0000000001
 40
0.0
 40
0.0
 40
0.0
 40
0.0
 40
0.125
 40
0.125
 40
0.125
 40
0.125
 40
0.25
 40
0.25
 40
0.25
 40
0.25
 40
0.375
 40
0.375
 40
0.375
 40
0.375
 40
0.5
 40
0.5
 40
0.5
 40
0.5
 40
0.625
 40
0.625
 40
0.625
 40
0.625
 40
0.75
 40
0.75
 40
0.75
 40
0.75
 40
1.0
 40
1.0
 40
1.0
 40
1.0
 10
11.705
 20
-6.0234
 30
0.0
 10
11.705
 20
-6.0234
 30
0.0
 10
11.705
 20
-6.0234
 30
0.0
 10
11.705
 20
-6.0234
 30
0.0
 10
11.705
 20
-6.0234
 30
0.0
 10
11.705
 20
-6.0234
 30
0.0
 10
11.705
 20
-6.0234
 30
0.0
 10
11.705
 20
-6.0234
 30
0.0
 10
11.705
 20
-6.0234
 30
0.0
 10
11.705
 20
-6.0234
 30
0.0
 10
11.2616
 20
-4.7506
 30
0.0
 10
11.2616
 20
-4.7506
 30
0.0
 10
11.2616
 20
-4.7506
 30
0.0
 10
11.2616
 20
-4.7506
 30
0.0
 10
10.8182
 20
-6.0234
 30
0.0
 10
10.8182
 20
-6.0234
 30
0.0
 10
10.8182
 20
-6.0234
 30
0.0
 10
10.8182
 20
-6.0234
 30
0.0
 10
10.8182
 20
-6.0234
 30
0.0
 10
10.8182
 20
-6.0234
 30
0.0
 10
10.8182
 20
-6.0234
 30
0.0
 10
10.8182
 20
-6.0234
 30
0.0
 10
10.8182
 20
-6.0234
 30
0.0
 10
10.8182
 20
-6.0234
 30
0.0
 10
10.8182
 20
-6.0234
 30
0.0
 10
10.8182
 20
-6.0234
 30
0.0
 10
11.705
 20
-6.0234
 30
0.0
 10
11.705
 20
-6.0234
 30
0.0
  0
SPLINE
  5
88
330
1F
100
AcDbEntity
  8
Ilustrace
 62
   250
370
     9
100
AcDbSpline
210
0.0
220
0.0
230
1.0
 70
    11
 71
     3
 72
    32
 73
    28
 74
     0
 42
0.0000000001
 43
0.0000000001
 40
0.0
 40
0.0
 40
0.0
 40
0.0
 40
0.125
 40
0.125
 40
0.125
 40
0.125
 40
0.25
 40
0.25
 40
0.25
 40
0.25
 40
0.375
 40
0.375
 40
0.375
 40
0.375
 40
0.5
 40
0.5
 40
0.5
 40
0.5
 40
0.625
 40
0.625
 40
0.625
 40
0.625
 40
0.75
 40
0.75
 40
0.75
 40
0.75
 40
1.0
 40
1.0
 40
1.0
 40
1.0
 10
11.7212
 20
-10.5591
 30
0.0
 10
11.7212
 20
-10.5591
 30
0.0
 10
11.7212
 20
-10.5591
 30
0.0
 10
11.7212
 20
-10.5591
 30
0.0
 10
11.7212
 20
-10.5591
 30
0.0
 10
11.7212
 20
-10.5591
 30
0.0
 10
11.7212
 20
-10.5591
 30
0.0
 10
11.7212
 20
-10.5591
 30
0.0
 10
11.7212
 20
-10.5591
 30
0.0
 10
11.7212
 20
-10.5591
 30
0.0
 10
11.2778
 20
-11.8337
 30
0.0
 10
11.2778
 20
-11.8337
 30
0.0
 10
11.2778
 20
-11.8337
 30
0.0
 10
11.2778
 20
-11.8337
 30
0.0
 10
10.8344
 20
-10.5591
 30
0.0
 10
10.8344
 20
-10.5591
 30
0.0
 10
10.8344
 20
-10.5591
 30
0.0
 10
10.8344
 20
-10.5591
 30
0.0
 10
10.8344
 20
-10.5591
 30
0.0
 10
10.8344
 20
-10.5591
 30
0.0
 10
10.8344
 20
-10.5591
 30
0.0
 10
10.8344
 20
-10.5591
 30
0.0
 10
10.8344
 20
-10.5591
 30
0.0
 10
10.8344
 20
-10.5591
 30
0.0
 10
10.8344
 20
-10.5591
 30
0.0
 10
10.8344
 20
-10.5591
 30
0.0
 10
11.7212
 20
-10.5591
 30
0.0
 10
11.7212
 20
-10.5591
 30
0.0
  0
SPLINE
  5
89
330
1F
100
AcDbEntity
  8
Ilustrace
 62
   250
370
    15
100
AcDbSpline
210
0.0
220
0.0
230
1.0
 70
    24
 71
     3
 72
     8
 73
     4
 74
     0
 42
0.0000000001
 43
0.0000000001
 40
0.0
 40
0.0
 40
0.0
 40
0.0
 40
1.0
 40
1.0
 40
1.0
 40
1.0
 10
-15.082
 20
-20.4389
 30
0.0
 10
-15.082
 20
-20.4389
 30
0.0
 10
2.6661
 20
-20.4389
 30
0.0
 10
2.6661
 20
-20.4389
 30
0.0
  0
SPLINE
  5
8A
330
1F
100
AcDbEntity
  8
Ilustrace
 62
   250
100
AcDbSpline
210
0.0
220
0.0
230
1.0
 70
    11
 71
     3
 72
   104
 73
   100
 74
     0
 42
0.0000000001
 43
0.0000000001
 40
0.0
 40
0.0
 40
0.0
 40
0.0
 40
0.0384615384615385
 40
0.0384615384615385
 40
0.0384615384615385
 40
0.0384615384615385
 40
0.0769230769230769
 40
0.0769230769230769
 40
0.0769230769230769
 40
0.0769230769230769
 40
0.1153846153846154
 40
0.1153846153846154
 40
0.1153846153846154
 40
0.1153846153846154
 40
0.1538461538461539
 40
0.1538461538461539
 40
0.1538461538461539
 40
0.1538461538461539
 40
0.1923076923076923
 40
0.1923076923076923
 40
0.1923076923076923
 40
0.1923076923076923
 40
0.2307692307692308
 40
0.2307692307692308
 40
0.2307692307692308
 40
0.2307692307692308
 40
0.2692307692307692
 40
0.2692307692307692
 40
0.2692307692307692
 40
0.2692307692307692
 40
0.3076923076923077
 40
0.3076923076923077
 40
0.3076923076923077
 40
0.3076923076923077
 40
0.3461538461538461
 40
0.3461538461538461
 40
0.3461538461538461
 40
0.3461538461538461
 40
0.3846153846153846
 40
0.3846153846153846
 40
0.3846153846153846
 40
0.3846153846153846
 40
0.4230769230769231
 40
0.4230769230769231
 40
0.4230769230769231
 40
0.4230769230769231
 40
0.4615384615384616
 40
0.4615384615384616
 40
0.4615384615384616
 40
0.4615384615384616
 40
0.5
 40
0.5
 40
0.5
 40
0.5
 40
0.5384615384615384
 40
0.5384615384615384
 40
0.5384615384615384
 40
0.5384615384615384
 40
0.5769230769230769
 40
0.5769230769230769
 40
0.5769230769230769
 40
0.5769230769230769
 40
0.6153846153846154
 40
0.6153846153846154
 40
0.6153846153846154
 40
0.6153846153846154
 40
0.6538461538461539
 40
0.6538461538461539
 40
0.6538461538461539
 40
0.6538461538461539
 40
0.6923076923076923
 40
0.6923076923076923
 40
0.6923076923076923
 40
0.6923076923076923
 40
0.7307692307692307
 40
0.7307692307692307
 40
0.7307692307692307
 40
0.7307692307692307
 40
0.7692307692307693
 40
0.7692307692307693
 40
0.7692307692307693
 40
0.7692307692307693
 40
0.8076923076923077
 40
0.8076923076923077
 40
0.8076923076923077
 40
0.8076923076923077
 40
0.8461538461538461
 40
0.8461538461538461
 40
0.8461538461538461
 40
0.8461538461538461
 40
0.8846153846153846
 40
0.8846153846153846
 40
0.8846153846153846
 40
0.8846153846153846
 40
0.9230769230769231
 40
0.9230769230769231
 40
0.9230769230769231
 40
0.9230769230769231
 40
1.0
 40
1.0
 40
1.0
 40
1.0
 10
-10.4676
 20
-20.0445
 30
0.0
 10
-10.4676
 20
-20.0445
 30
0.0
 10
-10.2231
 20
-19.7107
 30
0.0
 10
-10.2231
 20
-19.7107
 30
0.0
 10
-10.2231
 20
-19.7107
 30
0.0
 10
-10.1293
 20
-19.7786
 30
0.0
 10
-10.0265
 20
-19.831
 30
0.0
 10
-9.9152
 20
-19.8666
 30
0.0
 10
-9.9152
 20
-19.8666
 30
0.0
 10
-9.8033
 20
-19.9022
 30
0.0
 10
-9.6863
 20
-19.9203
 30
0.0
 10
-9.5634
 20
-19.9203
 30
0.0
 10
-9.5634
 20
-19.9203
 30
0.0
 10
-9.4373
 20
-19.9203
 30
0.0
 10
-9.315
 20
-19.9015
 30
0.0
 10
-9.198
 20
-19.8647
 30
0.0
 10
-9.198
 20
-19.8647
 30
0.0
 10
-9.0809
 20
-19.8278
 30
0.0
 10
-8.9722
 20
-19.7728
 30
0.0
 10
-8.8726
 20
-19.6991
 30
0.0
 10
-8.8726
 20
-19.6991
 30
0.0
 10
-8.7724
 20
-19.626
 30
0.0
 10
-8.6851
 20
-19.5342
 30
0.0
 10
-8.6101
 20
-19.4242
 30
0.0
 10
-8.6101
 20
-19.4242
 30
0.0
 10
-8.5357
 20
-19.3143
 30
0.0
 10
-8.4775
 20
-19.1862
 30
0.0
 10
-8.4354
 20
-19.0394
 30
0.0
 10
-8.4354
 20
-19.0394
 30
0.0
 10
-8.394
 20
-18.8932
 30
0.0
 10
-8.3727
 20
-18.7289
 30
0.0
 10
-8.372
 20
-18.5466
 30
0.0
 10
-8.372
 20
-18.5466
 30
0.0
 10
-8.372
 20
-18.4178
 30
0.0
 10
-8.385
 20
-18.2956
 30
0.0
 10
-8.4115
 20
-18.1792
 30
0.0
 10
-8.4115
 20
-18.1792
 30
0.0
 10
-8.4374
 20
-18.0621
 30
0.0
 10
-8.4755
 20
-17.9535
 30
0.0
 10
-8.5253
 20
-17.8532
 30
0.0
 10
-8.5253
 20
-17.8532
 30
0.0
 10
-8.5758
 20
-17.753
 30
0.0
 10
-8.6372
 20
-17.6637
 30
0.0
 10
-8.7097
 20
-17.5842
 30
0.0
 10
-8.7097
 20
-17.5842
 30
0.0
 10
-8.7097
 20
-17.5842
 30
0.0
 10
-8.4691
 20
-17.2504
 30
0.0
 10
-8.4691
 20
-17.2504
 30
0.0
 10
-8.4691
 20
-17.2504
 30
0.0
 10
-8.4691
 20
-17.2504
 30
0.0
 10
-8.6747
 20
-17.1107
 30
0.0
 10
-8.6747
 20
-17.1107
 30
0.0
 10
-8.6747
 20
-17.1107
 30
0.0
 10
-8.6747
 20
-17.1107
 30
0.0
 10
-8.9037
 20
-17.4251
 30
0.0
 10
-8.9037
 20
-17.4251
 30
0.0
 10
-8.9037
 20
-17.4251
 30
0.0
 10
-8.9975
 20
-17.3552
 30
0.0
 10
-9.099
 20
-17.3028
 30
0.0
 10
-9.209
 20
-17.2679
 30
0.0
 10
-9.209
 20
-17.2679
 30
0.0
 10
-9.3196
 20
-17.233
 30
0.0
 10
-9.4347
 20
-17.2155
 30
0.0
 10
-9.5556
 20
-17.2155
 30
0.0
 10
-9.5556
 20
-17.2155
 30
0.0
 10
-9.7283
 20
-17.2162
 30
0.0
 10
-9.8874
 20
-17.2485
 30
0.0
 10
-10.0342
 20
-17.3125
 30
0.0
 10
-10.0342
 20
-17.3125
 30
0.0
 10
-10.1804
 20
-17.3766
 30
0.0
 10
-10.3078
 20
-17.469
 30
0.0
 10
-10.4165
 20
-17.5887
 30
0.0
 10
-10.4165
 20
-17.5887
 30
0.0
 10
-10.5258
 20
-17.7083
 30
0.0
 10
-10.6099
 20
-17.8519
 30
0.0
 10
-10.6707
 20
-18.0194
 30
0.0
 10
-10.6707
 20
-18.0194
 30
0.0
 10
-10.7308
 20
-18.187
 30
0.0
 10
-10.7619
 20
-18.3739
 30
0.0
 10
-10.7625
 20
-18.5815
 30
0.0
 10
-10.7625
 20
-18.5815
 30
0.0
 10
-10.7625
 20
-18.7121
 30
0.0
 10
-10.7483
 20
-18.837
 30
0.0
 10
-10.7211
 20
-18.9547
 30
0.0
 10
-10.7211
 20
-18.9547
 30
0.0
 10
-10.6939
 20
-19.0724
 30
0.0
 10
-10.6545
 20
-19.1817
 30
0.0
 10
-10.6034
 20
-19.2819
 30
0.0
 10
-10.6034
 20
-19.2819
 30
0.0
 10
-10.5517
 20
-19.3822
 30
0.0
 10
-10.4896
 20
-19.4721
 30
0.0
 10
-10.4171
 20
-19.5516
 30
0.0
 10
-10.4171
 20
-19.5516
 30
0.0
 10
-10.4171
 20
-19.5516
 30
0.0
 10
-10.6577
 20
-19.8892
 30
0.0
 10
-10.6577
 20
-19.8892
 30
0.0
 10
-10.6577
 20
-19.8892
 30
0.0
 10
-10.6577
 20
-19.8892
 30
0.0
 10
-10.4676
 20
-20.0445
 30
0.0
 10
-10.4676
 20
-20.0445
 30
0.0
  0
SPLINE
  5
8B
330
1F
100
AcDbEntity
  8
Ilustrace
 62
   250
100
AcDbSpline
210
0.0
220
0.0
230
1.0
 70
    11
 71
     3
 72
    52
 73
    48
 74
     0
 42
0.0000000001
 43
0.0000000001
 40
0.0
 40
0.0
 40
0.0
 40
0.0
 40
0.0769230769230769
 40
0.0769230769230769
 40
0.0769230769230769
 40
0.0769230769230769
 40
0.1538461538461539
 40
0.1538461538461539
 40
0.1538461538461539
 40
0.1538461538461539
 40
0.2307692307692308
 40
0.2307692307692308
 40
0.2307692307692308
 40
0.2307692307692308
 40
0.3076923076923077
 40
0.3076923076923077
 40
0.3076923076923077
 40
0.3076923076923077
 40
0.3846153846153846
 40
0.3846153846153846
 40
0.3846153846153846
 40
0.3846153846153846
 40
0.4615384615384616
 40
0.4615384615384616
 40
0.4615384615384616
 40
0.4615384615384616
 40
0.5384615384615384
 40
0.5384615384615384
 40
0.5384615384615384
 40
0.5384615384615384
 40
0.6153846153846154
 40
0.6153846153846154
 40
0.6153846153846154
 40
0.6153846153846154
 40
0.6923076923076923
 40
0.6923076923076923
 40
0.6923076923076923
 40
0.6923076923076923
 40
0.7692307692307693
 40
0.7692307692307693
 40
0.7692307692307693
 40
0.7692307692307693
 40
0.8461538461538461
 40
0.8461538461538461
 40
0.8461538461538461
 40
0.8461538461538461
 40
1.0
 40
1.0
 40
1.0
 40
1.0
 10
-10.2192
 20
-19.2645
 30
0.0
 10
-10.2192
 20
-19.2645
 30
0.0
 10
-10.227
 20
-19.2683
 30
0.0
 10
-10.227
 20
-19.2683
 30
0.0
 10
-10.227
 20
-19.2683
 30
0.0
 10
-10.2658
 20
-19.2017
 30
0.0
 10
-10.2994
 20
-19.1325
 30
0.0
 10
-10.3279
 20
-19.0614
 30
0.0
 10
-10.3279
 20
-19.0614
 30
0.0
 10
-10.3563
 20
-18.9896
 30
0.0
 10
-10.3783
 20
-18.9139
 30
0.0
 10
-10.3938
 20
-18.8324
 30
0.0
 10
-10.3938
 20
-18.8324
 30
0.0
 10
-10.4094
 20
-18.7516
 30
0.0
 10
-10.4171
 20
-18.6623
 30
0.0
 10
-10.4171
 20
-18.566
 30
0.0
 10
-10.4171
 20
-18.566
 30
0.0
 10
-10.4171
 20
-18.4547
 30
0.0
 10
-10.4055
 20
-18.3474
 30
0.0
 10
-10.3828
 20
-18.2419
 30
0.0
 10
-10.3828
 20
-18.2419
 30
0.0
 10
-10.3596
 20
-18.1372
 30
0.0
 10
-10.3253
 20
-18.0388
 30
0.0
 10
-10.28
 20
-17.9483
 30
0.0
 10
-10.28
 20
-17.9483
 30
0.0
 10
-10.2341
 20
-17.8571
 30
0.0
 10
-10.1772
 20
-17.7769
 30
0.0
 10
-10.1086
 20
-17.7083
 30
0.0
 10
-10.1086
 20
-17.7083
 30
0.0
 10
-10.0401
 20
-17.6391
 30
0.0
 10
-9.9605
 20
-17.5855
 30
0.0
 10
-9.87
 20
-17.5467
 30
0.0
 10
-9.87
 20
-17.5467
 30
0.0
 10
-9.7788
 20
-17.5072
 30
0.0
 10
-9.6766
 20
-17.4878
 30
0.0
 10
-9.5634
 20
-17.4872
 30
0.0
 10
-9.5634
 20
-17.4872
 30
0.0
 10
-9.4644
 20
-17.4878
 30
0.0
 10
-9.3739
 20
-17.504
 30
0.0
 10
-9.2924
 20
-17.5363
 30
0.0
 10
-9.2924
 20
-17.5363
 30
0.0
 10
-9.2103
 20
-17.568
 30
0.0
 10
-9.1365
 20
-17.6126
 30
0.0
 10
-9.0706
 20
-17.6695
 30
0.0
 10
-9.0706
 20
-17.6695
 30
0.0
 10
-9.0706
 20
-17.6695
 30
0.0
 10
-10.2192
 20
-19.2645
 30
0.0
 10
-10.2192
 20
-19.2645
 30
0.0
  0
SPLINE
  5
8C
330
1F
100
AcDbEntity
  8
Ilustrace
 62
   250
100
AcDbSpline
210
0.0
220
0.0
230
1.0
 70
    11
 71
     3
 72
    48
 73
    44
 74
     0
 42
0.0000000001
 43
0.0000000001
 40
0.0
 40
0.0
 40
0.0
 40
0.0
 40
0.0833333333333333
 40
0.0833333333333333
 40
0.0833333333333333
 40
0.0833333333333333
 40
0.1666666666666667
 40
0.1666666666666667
 40
0.1666666666666667
 40
0.1666666666666667
 40
0.25
 40
0.25
 40
0.25
 40
0.25
 40
0.3333333333333333
 40
0.3333333333333333
 40
0.3333333333333333
 40
0.3333333333333333
 40
0.4166666666666667
 40
0.4166666666666667
 40
0.4166666666666667
 40
0.4166666666666667
 40
0.5
 40
0.5
 40
0.5
 40
0.5
 40
0.5833333333333334
 40
0.5833333333333334
 40
0.5833333333333334
 40
0.5833333333333334
 40
0.6666666666666666
 40
0.6666666666666666
 40
0.6666666666666666
 40
0.6666666666666666
 40
0.75
 40
0.75
 40
0.75
 40
0.75
 40
0.8333333333333334
 40
0.8333333333333334
 40
0.8333333333333334
 40
0.8333333333333334
 40
1.0
 40
1.0
 40
1.0
 40
1.0
 10
-8.9115
 20
-17.8752
 30
0.0
 10
-8.9115
 20
-17.8752
 30
0.0
 10
-8.8998
 20
-17.8752
 30
0.0
 10
-8.8998
 20
-17.8752
 30
0.0
 10
-8.8998
 20
-17.8752
 30
0.0
 10
-8.8325
 20
-17.9877
 30
0.0
 10
-8.7853
 20
-18.1016
 30
0.0
 10
-8.7575
 20
-18.2167
 30
0.0
 10
-8.7575
 20
-18.2167
 30
0.0
 10
-8.7297
 20
-18.3312
 30
0.0
 10
-8.7161
 20
-18.445
 30
0.0
 10
-8.7174
 20
-18.5582
 30
0.0
 10
-8.7174
 20
-18.5582
 30
0.0
 10
-8.7174
 20
-18.6759
 30
0.0
 10
-8.7297
 20
-18.7884
 30
0.0
 10
-8.7536
 20
-18.8965
 30
0.0
 10
-8.7536
 20
-18.8965
 30
0.0
 10
-8.7776
 20
-19.0045
 30
0.0
 10
-8.8131
 20
-19.1041
 30
0.0
 10
-8.8597
 20
-19.1953
 30
0.0
 10
-8.8597
 20
-19.1953
 30
0.0
 10
-8.9069
 20
-19.2865
 30
0.0
 10
-8.9645
 20
-19.366
 30
0.0
 10
-9.033
 20
-19.4333
 30
0.0
 10
-9.033
 20
-19.4333
 30
0.0
 10
-9.1022
 20
-19.5012
 30
0.0
 10
-9.1812
 20
-19.5542
 30
0.0
 10
-9.2704
 20
-19.5917
 30
0.0
 10
-9.2704
 20
-19.5917
 30
0.0
 10
-9.3597
 20
-19.6292
 30
0.0
 10
-9.4586
 20
-19.648
 30
0.0
 10
-9.5673
 20
-19.6486
 30
0.0
 10
-9.5673
 20
-19.6486
 30
0.0
 10
-9.6727
 20
-19.6486
 30
0.0
 10
-9.7652
 20
-19.6325
 30
0.0
 10
-9.8434
 20
-19.6008
 30
0.0
 10
-9.8434
 20
-19.6008
 30
0.0
 10
-9.9223
 20
-19.5691
 30
0.0
 10
-9.9928
 20
-19.5225
 30
0.0
 10
-10.0562
 20
-19.4624
 30
0.0
 10
-10.0562
 20
-19.4624
 30
0.0
 10
-10.0562
 20
-19.4624
 30
0.0
 10
-8.9115
 20
-17.8752
 30
0.0
 10
-8.9115
 20
-17.8752
 30
0.0
  0
SPLINE
  5
8D
330
1F
100
AcDbEntity
  8
Ilustrace
 62
   250
100
AcDbSpline
210
0.0
220
0.0
230
1.0
 70
    11
 71
     3
 72
    36
 73
    32
 74
     0
 42
0.0000000001
 43
0.0000000001
 40
0.0
 40
0.0
 40
0.0
 40
0.0
 40
0.1111111111111111
 40
0.1111111111111111
 40
0.1111111111111111
 40
0.1111111111111111
 40
0.2222222222222222
 40
0.2222222222222222
 40
0.2222222222222222
 40
0.2222222222222222
 40
0.3333333333333333
 40
0.3333333333333333
 40
0.3333333333333333
 40
0.3333333333333333
 40
0.4444444444444444
 40
0.4444444444444444
 40
0.4444444444444444
 40
0.4444444444444444
 40
0.5555555555555556
 40
0.5555555555555556
 40
0.5555555555555556
 40
0.5555555555555556
 40
0.6666666666666666
 40
0.6666666666666666
 40
0.6666666666666666
 40
0.6666666666666666
 40
0.7777777777777778
 40
0.7777777777777778
 40
0.7777777777777778
 40
0.7777777777777778
 40
1.0
 40
1.0
 40
1.0
 40
1.0
 10
-7.3127
 20
-19.8776
 30
0.0
 10
-7.3127
 20
-19.8776
 30
0.0
 10
-6.9828
 20
-19.8776
 30
0.0
 10
-6.9828
 20
-19.8776
 30
0.0
 10
-6.9828
 20
-19.8776
 30
0.0
 10
-6.9828
 20
-19.8776
 30
0.0
 10
-6.9828
 20
-17.3552
 30
0.0
 10
-6.9828
 20
-17.3552
 30
0.0
 10
-6.9828
 20
-17.3552
 30
0.0
 10
-6.9828
 20
-17.3552
 30
0.0
 10
-7.2739
 20
-17.3552
 30
0.0
 10
-7.2739
 20
-17.3552
 30
0.0
 10
-7.2739
 20
-17.3552
 30
0.0
 10
-7.2739
 20
-17.3552
 30
0.0
 10
-7.8249
 20
-17.6501
 30
0.0
 10
-7.8249
 20
-17.6501
 30
0.0
 10
-7.8249
 20
-17.6501
 30
0.0
 10
-7.8249
 20
-17.6501
 30
0.0
 10
-7.7589
 20
-17.9101
 30
0.0
 10
-7.7589
 20
-17.9101
 30
0.0
 10
-7.7589
 20
-17.9101
 30
0.0
 10
-7.7589
 20
-17.9101
 30
0.0
 10
-7.3204
 20
-17.6734
 30
0.0
 10
-7.3204
 20
-17.6734
 30
0.0
 10
-7.3204
 20
-17.6734
 30
0.0
 10
-7.3204
 20
-17.6734
 30
0.0
 10
-7.3127
 20
-17.6734
 30
0.0
 10
-7.3127
 20
-17.6734
 30
0.0
 10
-7.3127
 20
-17.6734
 30
0.0
 10
-7.3127
 20
-17.6734
 30
0.0
 10
-7.3127
 20
-19.8776
 30
0.0
 10
-7.3127
 20
-19.8776
 30
0.0
  0
SPLINE
  5
8E
330
1F
100
AcDbEntity
  8
Ilustrace
 62
   250
100
AcDbSpline
210
0.0
220
0.0
230
1.0
 70
    11
 71
     3
 72
    56
 73
    52
 74
     0
 42
0.0000000001
 43
0.0000000001
 40
0.0
 40
0.0
 40
0.0
 40
0.0
 40
0.0714285714285714
 40
0.0714285714285714
 40
0.0714285714285714
 40
0.0714285714285714
 40
0.1428571428571428
 40
0.1428571428571428
 40
0.1428571428571428
 40
0.1428571428571428
 40
0.2142857142857143
 40
0.2142857142857143
 40
0.2142857142857143
 40
0.2142857142857143
 40
0.2857142857142857
 40
0.2857142857142857
 40
0.2857142857142857
 40
0.2857142857142857
 40
0.3571428571428572
 40
0.3571428571428572
 40
0.3571428571428572
 40
0.3571428571428572
 40
0.4285714285714285
 40
0.4285714285714285
 40
0.4285714285714285
 40
0.4285714285714285
 40
0.5
 40
0.5
 40
0.5
 40
0.5
 40
0.5714285714285714
 40
0.5714285714285714
 40
0.5714285714285714
 40
0.5714285714285714
 40
0.6428571428571429
 40
0.6428571428571429
 40
0.6428571428571429
 40
0.6428571428571429
 40
0.7142857142857143
 40
0.7142857142857143
 40
0.7142857142857143
 40
0.7142857142857143
 40
0.7857142857142857
 40
0.7857142857142857
 40
0.7857142857142857
 40
0.7857142857142857
 40
0.8571428571428571
 40
0.8571428571428571
 40
0.8571428571428571
 40
0.8571428571428571
 40
1.0
 40
1.0
 40
1.0
 40
1.0
 10
-5.2172
 20
-17.3125
 30
0.0
 10
-5.3459
 20
-17.3125
 30
0.0
 10
-5.4636
 20
-17.341
 30
0.0
 10
-5.571
 20
-17.3979
 30
0.0
 10
-5.571
 20
-17.3979
 30
0.0
 10
-5.6783
 20
-17.4548
 30
0.0
 10
-5.7708
 20
-17.5382
 30
0.0
 10
-5.8497
 20
-17.6495
 30
0.0
 10
-5.8497
 20
-17.6495
 30
0.0
 10
-5.9286
 20
-17.7607
 30
0.0
 10
-5.9894
 20
-17.8978
 30
0.0
 10
-6.0328
 20
-18.0608
 30
0.0
 10
-6.0328
 20
-18.0608
 30
0.0
 10
-6.0755
 20
-18.2238
 30
0.0
 10
-6.0975
 20
-18.4114
 30
0.0
 10
-6.0981
 20
-18.6242
 30
0.0
 10
-6.0981
 20
-18.6242
 30
0.0
 10
-6.0942
 20
-18.9029
 30
0.0
 10
-6.0574
 20
-19.1383
 30
0.0
 10
-5.9869
 20
-19.3311
 30
0.0
 10
-5.9869
 20
-19.3311
 30
0.0
 10
-5.9164
 20
-19.5238
 30
0.0
 10
-5.8187
 20
-19.67
 30
0.0
 10
-5.6945
 20
-19.7696
 30
0.0
 10
-5.6945
 20
-19.7696
 30
0.0
 10
-5.5703
 20
-19.8692
 30
0.0
 10
-5.4255
 20
-19.9196
 30
0.0
 10
-5.2599
 20
-19.9203
 30
0.0
 10
-5.2599
 20
-19.9203
 30
0.0
 10
-5.0743
 20
-19.9196
 30
0.0
 10
-4.9165
 20
-19.8679
 30
0.0
 10
-4.7858
 20
-19.7657
 30
0.0
 10
-4.7858
 20
-19.7657
 30
0.0
 10
-4.6552
 20
-19.6635
 30
0.0
 10
-4.5556
 20
-19.5135
 30
0.0
 10
-4.487
 20
-19.3156
 30
0.0
 10
-4.487
 20
-19.3156
 30
0.0
 10
-4.4178
 20
-19.1176
 30
0.0
 10
-4.3835
 20
-18.8758
 30
0.0
 10
-4.3829
 20
-18.5892
 30
0.0
 10
-4.3829
 20
-18.5892
 30
0.0
 10
-4.3835
 20
-18.3208
 30
0.0
 10
-4.4165
 20
-18.0912
 30
0.0
 10
-4.4818
 20
-17.9011
 30
0.0
 10
-4.4818
 20
-17.9011
 30
0.0
 10
-4.5472
 20
-17.7109
 30
0.0
 10
-4.6422
 20
-17.5654
 30
0.0
 10
-4.7664
 20
-17.4652
 30
0.0
 10
-4.7664
 20
-17.4652
 30
0.0
 10
-4.8906
 20
-17.3643
 30
0.0
 10
-5.0406
 20
-17.3132
 30
0.0
 10
-5.2172
 20
-17.3125
 30
0.0
  0
SPLINE
  5
8F
330
1F
100
AcDbEntity
  8
Ilustrace
 62
   250
100
AcDbSpline
210
0.0
220
0.0
230
1.0
 70
    11
 71
     3
 72
    56
 73
    52
 74
     0
 42
0.0000000001
 43
0.0000000001
 40
0.0
 40
0.0
 40
0.0
 40
0.0
 40
0.0714285714285714
 40
0.0714285714285714
 40
0.0714285714285714
 40
0.0714285714285714
 40
0.1428571428571428
 40
0.1428571428571428
 40
0.1428571428571428
 40
0.1428571428571428
 40
0.2142857142857143
 40
0.2142857142857143
 40
0.2142857142857143
 40
0.2142857142857143
 40
0.2857142857142857
 40
0.2857142857142857
 40
0.2857142857142857
 40
0.2857142857142857
 40
0.3571428571428572
 40
0.3571428571428572
 40
0.3571428571428572
 40
0.3571428571428572
 40
0.4285714285714285
 40
0.4285714285714285
 40
0.4285714285714285
 40
0.4285714285714285
 40
0.5
 40
0.5
 40
0.5
 40
0.5
 40
0.5714285714285714
 40
0.5714285714285714
 40
0.5714285714285714
 40
0.5714285714285714
 40
0.6428571428571429
 40
0.6428571428571429
 40
0.6428571428571429
 40
0.6428571428571429
 40
0.7142857142857143
 40
0.7142857142857143
 40
0.7142857142857143
 40
0.7142857142857143
 40
0.7857142857142857
 40
0.7857142857142857
 40
0.7857142857142857
 40
0.7857142857142857
 40
0.8571428571428571
 40
0.8571428571428571
 40
0.8571428571428571
 40
0.8571428571428571
 40
1.0
 40
1.0
 40
1.0
 40
1.0
 10
-5.2405
 20
-17.5764
 30
0.0
 10
-5.1512
 20
-17.5771
 30
0.0
 10
-5.0743
 20
-17.601
 30
0.0
 10
-5.0096
 20
-17.6495
 30
0.0
 10
-5.0096
 20
-17.6495
 30
0.0
 10
-4.9449
 20
-17.698
 30
0.0
 10
-4.8919
 20
-17.7672
 30
0.0
 10
-4.8505
 20
-17.8577
 30
0.0
 10
-4.8505
 20
-17.8577
 30
0.0
 10
-4.8091
 20
-17.9476
 30
0.0
 10
-4.778
 20
-18.0563
 30
0.0
 10
-4.758
 20
-18.1818
 30
0.0
 10
-4.758
 20
-18.1818
 30
0.0
 10
-4.7379
 20
-18.3079
 30
0.0
 10
-4.7282
 20
-18.4489
 30
0.0
 10
-4.7282
 20
-18.6048
 30
0.0
 10
-4.7282
 20
-18.6048
 30
0.0
 10
-4.7282
 20
-18.8208
 30
0.0
 10
-4.747
 20
-19.0071
 30
0.0
 10
-4.7845
 20
-19.1636
 30
0.0
 10
-4.7845
 20
-19.1636
 30
0.0
 10
-4.8214
 20
-19.3207
 30
0.0
 10
-4.8783
 20
-19.4417
 30
0.0
 10
-4.954
 20
-19.5271
 30
0.0
 10
-4.954
 20
-19.5271
 30
0.0
 10
-5.0296
 20
-19.6124
 30
0.0
 10
-5.1254
 20
-19.6551
 30
0.0
 10
-5.2405
 20
-19.6564
 30
0.0
 10
-5.2405
 20
-19.6564
 30
0.0
 10
-5.3446
 20
-19.6558
 30
0.0
 10
-5.4345
 20
-19.6157
 30
0.0
 10
-5.5115
 20
-19.5355
 30
0.0
 10
-5.5115
 20
-19.5355
 30
0.0
 10
-5.5878
 20
-19.4553
 30
0.0
 10
-5.6467
 20
-19.3388
 30
0.0
 10
-5.6887
 20
-19.1862
 30
0.0
 10
-5.6887
 20
-19.1862
 30
0.0
 10
-5.7307
 20
-19.0329
 30
0.0
 10
-5.7521
 20
-18.8473
 30
0.0
 10
-5.7527
 20
-18.628
 30
0.0
 10
-5.7527
 20
-18.628
 30
0.0
 10
-5.7521
 20
-18.3984
 30
0.0
 10
-5.7294
 20
-18.2064
 30
0.0
 10
-5.6855
 20
-18.0498
 30
0.0
 10
-5.6855
 20
-18.0498
 30
0.0
 10
-5.6415
 20
-17.894
 30
0.0
 10
-5.5813
 20
-17.7763
 30
0.0
 10
-5.5044
 20
-17.6961
 30
0.0
 10
-5.5044
 20
-17.6961
 30
0.0
 10
-5.4274
 20
-17.6165
 30
0.0
 10
-5.3394
 20
-17.5764
 30
0.0
 10
-5.2405
 20
-17.5764
 30
0.0
  0
SPLINE
  5
90
330
1F
100
AcDbEntity
  8
Ilustrace
 62
   250
100
AcDbSpline
210
0.0
220
0.0
230
1.0
 70
    11
 71
     3
 72
   132
 73
   128
 74
     0
 42
0.0000000001
 43
0.0000000001
 40
0.0
 40
0.0
 40
0.0
 40
0.0
 40
0.0303030303030303
 40
0.0303030303030303
 40
0.0303030303030303
 40
0.0303030303030303
 40
0.0606060606060606
 40
0.0606060606060606
 40
0.0606060606060606
 40
0.0606060606060606
 40
0.0909090909090909
 40
0.0909090909090909
 40
0.0909090909090909
 40
0.0909090909090909
 40
0.1212121212121212
 40
0.1212121212121212
 40
0.1212121212121212
 40
0.1212121212121212
 40
0.1515151515151515
 40
0.1515151515151515
 40
0.1515151515151515
 40
0.1515151515151515
 40
0.1818181818181818
 40
0.1818181818181818
 40
0.1818181818181818
 40
0.1818181818181818
 40
0.2121212121212121
 40
0.2121212121212121
 40
0.2121212121212121
 40
0.2121212121212121
 40
0.2424242424242424
 40
0.2424242424242424
 40
0.2424242424242424
 40
0.2424242424242424
 40
0.2727272727272727
 40
0.2727272727272727
 40
0.2727272727272727
 40
0.2727272727272727
 40
0.303030303030303
 40
0.303030303030303
 40
0.303030303030303
 40
0.303030303030303
 40
0.3333333333333333
 40
0.3333333333333333
 40
0.3333333333333333
 40
0.3333333333333333
 40
0.3636363636363636
 40
0.3636363636363636
 40
0.3636363636363636
 40
0.3636363636363636
 40
0.3939393939393939
 40
0.3939393939393939
 40
0.3939393939393939
 40
0.3939393939393939
 40
0.4242424242424243
 40
0.4242424242424243
 40
0.4242424242424243
 40
0.4242424242424243
 40
0.4545454545454545
 40
0.4545454545454545
 40
0.4545454545454545
 40
0.4545454545454545
 40
0.4848484848484849
 40
0.4848484848484849
 40
0.4848484848484849
 40
0.4848484848484849
 40
0.5151515151515151
 40
0.5151515151515151
 40
0.5151515151515151
 40
0.5151515151515151
 40
0.5454545454545454
 40
0.5454545454545454
 40
0.5454545454545454
 40
0.5454545454545454
 40
0.5757575757575758
 40
0.5757575757575758
 40
0.5757575757575758
 40
0.5757575757575758
 40
0.6060606060606061
 40
0.6060606060606061
 40
0.6060606060606061
 40
0.6060606060606061
 40
0.6363636363636364
 40
0.6363636363636364
 40
0.6363636363636364
 40
0.6363636363636364
 40
0.6666666666666666
 40
0.6666666666666666
 40
0.6666666666666666
 40
0.6666666666666666
 40
0.696969696969697
 40
0.696969696969697
 40
0.696969696969697
 40
0.696969696969697
 40
0.7272727272727273
 40
0.7272727272727273
 40
0.7272727272727273
 40
0.7272727272727273
 40
0.7575757575757576
 40
0.7575757575757576
 40
0.7575757575757576
 40
0.7575757575757576
 40
0.7878787878787878
 40
0.7878787878787878
 40
0.7878787878787878
 40
0.7878787878787878
 40
0.8181818181818182
 40
0.8181818181818182
 40
0.8181818181818182
 40
0.8181818181818182
 40
0.8484848484848485
 40
0.8484848484848485
 40
0.8484848484848485
 40
0.8484848484848485
 40
0.8787878787878788
 40
0.8787878787878788
 40
0.8787878787878788
 40
0.8787878787878788
 40
0.9090909090909091
 40
0.9090909090909091
 40
0.9090909090909091
 40
0.9090909090909091
 40
0.9393939393939394
 40
0.9393939393939394
 40
0.9393939393939394
 40
0.9393939393939394
 40
1.0
 40
1.0
 40
1.0
 40
1.0
 10
-2.5668
 20
-17.3552
 30
0.0
 10
-2.5668
 20
-17.3552
 30
0.0
 10
-3.7737
 20
-17.3552
 30
0.0
 10
-3.7737
 20
-17.3552
 30
0.0
 10
-3.7737
 20
-17.3552
 30
0.0
 10
-3.7737
 20
-17.3552
 30
0.0
 10
-3.9367
 20
-18.566
 30
0.0
 10
-3.9367
 20
-18.566
 30
0.0
 10
-3.9367
 20
-18.566
 30
0.0
 10
-3.8901
 20
-18.5595
 30
0.0
 10
-3.8383
 20
-18.5543
 30
0.0
 10
-3.7801
 20
-18.5498
 30
0.0
 10
-3.7801
 20
-18.5498
 30
0.0
 10
-3.7226
 20
-18.5453
 30
0.0
 10
-3.6566
 20
-18.5427
 30
0.0
 10
-3.5835
 20
-18.5427
 30
0.0
 10
-3.5835
 20
-18.5427
 30
0.0
 10
-3.4167
 20
-18.5433
 30
0.0
 10
-3.2802
 20
-18.5673
 30
0.0
 10
-3.1741
 20
-18.6138
 30
0.0
 10
-3.1741
 20
-18.6138
 30
0.0
 10
-3.0674
 20
-18.661
 30
0.0
 10
-2.9885
 20
-18.7257
 30
0.0
 10
-2.9374
 20
-18.8085
 30
0.0
 10
-2.9374
 20
-18.8085
 30
0.0
 10
-2.8863
 20
-18.8919
 30
0.0
 10
-2.8611
 20
-18.9883
 30
0.0
 10
-2.8617
 20
-19.0976
 30
0.0
 10
-2.8617
 20
-19.0976
 30
0.0
 10
-2.8611
 20
-19.1823
 30
0.0
 10
-2.8766
 20
-19.258
 30
0.0
 10
-2.9083
 20
-19.3253
 30
0.0
 10
-2.9083
 20
-19.3253
 30
0.0
 10
-2.9393
 20
-19.3932
 30
0.0
 10
-2.9827
 20
-19.4501
 30
0.0
 10
-3.0376
 20
-19.4979
 30
0.0
 10
-3.0376
 20
-19.4979
 30
0.0
 10
-3.0926
 20
-19.5452
 30
0.0
 10
-3.156
 20
-19.5814
 30
0.0
 10
-3.2278
 20
-19.6066
 30
0.0
 10
-3.2278
 20
-19.6066
 30
0.0
 10
-3.2996
 20
-19.6318
 30
0.0
 10
-3.3753
 20
-19.6448
 30
0.0
 10
-3.4555
 20
-19.6448
 30
0.0
 10
-3.4555
 20
-19.6448
 30
0.0
 10
-3.5337
 20
-19.6441
 30
0.0
 10
-3.6074
 20
-19.637
 30
0.0
 10
-3.6767
 20
-19.6221
 30
0.0
 10
-3.6767
 20
-19.6221
 30
0.0
 10
-3.7459
 20
-19.6079
 30
0.0
 10
-3.8079
 20
-19.5904
 30
0.0
 10
-3.8629
 20
-19.5691
 30
0.0
 10
-3.8629
 20
-19.5691
 30
0.0
 10
-3.9179
 20
-19.5477
 30
0.0
 10
-3.9632
 20
-19.5264
 30
0.0
 10
-3.9987
 20
-19.5051
 30
0.0
 10
-3.9987
 20
-19.5051
 30
0.0
 10
-3.9987
 20
-19.5051
 30
0.0
 10
-4.0841
 20
-19.7651
 30
0.0
 10
-4.0841
 20
-19.7651
 30
0.0
 10
-4.0841
 20
-19.7651
 30
0.0
 10
-4.0421
 20
-19.7916
 30
0.0
 10
-3.9897
 20
-19.8162
 30
0.0
 10
-3.927
 20
-19.8401
 30
0.0
 10
-3.927
 20
-19.8401
 30
0.0
 10
-3.8642
 20
-19.8634
 30
0.0
 10
-3.7931
 20
-19.8821
 30
0.0
 10
-3.7135
 20
-19.897
 30
0.0
 10
-3.7135
 20
-19.897
 30
0.0
 10
-3.6333
 20
-19.9119
 30
0.0
 10
-3.5473
 20
-19.9196
 30
0.0
 10
-3.4555
 20
-19.9203
 30
0.0
 10
-3.4555
 20
-19.9203
 30
0.0
 10
-3.3177
 20
-19.9196
 30
0.0
 10
-3.1922
 20
-19.8976
 30
0.0
 10
-3.0777
 20
-19.855
 30
0.0
 10
-3.0777
 20
-19.855
 30
0.0
 10
-2.9633
 20
-19.8123
 30
0.0
 10
-2.8643
 20
-19.7521
 30
0.0
 10
-2.7809
 20
-19.6745
 30
0.0
 10
-2.7809
 20
-19.6745
 30
0.0
 10
-2.6968
 20
-19.5969
 30
0.0
 10
-2.6321
 20
-19.5057
 30
0.0
 10
-2.5862
 20
-19.4016
 30
0.0
 10
-2.5862
 20
-19.4016
 30
0.0
 10
-2.5403
 20
-19.2968
 30
0.0
 10
-2.517
 20
-19.1823
 30
0.0
 10
-2.5164
 20
-19.0588
 30
0.0
 10
-2.5164
 20
-19.0588
 30
0.0
 10
-2.517
 20
-18.954
 30
0.0
 10
-2.5338
 20
-18.8596
 30
0.0
 10
-2.5662
 20
-18.7762
 30
0.0
 10
-2.5662
 20
-18.7762
 30
0.0
 10
-2.5985
 20
-18.6927
 30
0.0
 10
-2.6412
 20
-18.6209
 30
0.0
 10
-2.6955
 20
-18.5601
 30
0.0
 10
-2.6955
 20
-18.5601
 30
0.0
 10
-2.7498
 20
-18.4993
 30
0.0
 10
-2.8106
 20
-18.4508
 30
0.0
 10
-2.8772
 20
-18.4146
 30
0.0
 10
-2.8772
 20
-18.4146
 30
0.0
 10
-2.9555
 20
-18.3668
 30
0.0
 10
-3.0402
 20
-18.3318
 30
0.0
 10
-3.1327
 20
-18.3105
 30
0.0
 10
-3.1327
 20
-18.3105
 30
0.0
 10
-3.2252
 20
-18.2891
 30
0.0
 10
-3.3209
 20
-18.2781
 30
0.0
 10
-3.4205
 20
-18.2788
 30
0.0
 10
-3.4205
 20
-18.2788
 30
0.0
 10
-3.4658
 20
-18.2788
 30
0.0
 10
-3.5046
 20
-18.2794
 30
0.0
 10
-3.5363
 20
-18.2814
 30
0.0
 10
-3.5363
 20
-18.2814
 30
0.0
 10
-3.568
 20
-18.2833
 30
0.0
 10
-3.5977
 20
-18.2866
 30
0.0
 10
-3.6262
 20
-18.2904
 30
0.0
 10
-3.6262
 20
-18.2904
 30
0.0
 10
-3.6262
 20
-18.2904
 30
0.0
 10
-3.5292
 20
-17.6424
 30
0.0
 10
-3.5292
 20
-17.6424
 30
0.0
 10
-3.5292
 20
-17.6424
 30
0.0
 10
-3.5292
 20
-17.6424
 30
0.0
 10
-2.5668
 20
-17.6424
 30
0.0
 10
-2.5668
 20
-17.6424
 30
0.0
 10
-2.5668
 20
-17.6424
 30
0.0
 10
-2.5668
 20
-17.6424
 30
0.0
 10
-2.5668
 20
-17.3552
 30
0.0
 10
-2.5668
 20
-17.3552
 30
0.0
  0
SPLINE
  5
91
330
1F
100
AcDbEntity
  8
Ilustrace
 62
   250
370
     9
100
AcDbSpline
210
0.0
220
0.0
230
1.0
 70
    11
 71
     3
 72
    32
 73
    28
 74
     0
 42
0.0000000001
 43
0.0000000001
 40
0.0
 40
0.0
 40
0.0
 40
0.0
 40
0.125
 40
0.125
 40
0.125
 40
0.125
 40
0.25
 40
0.25
 40
0.25
 40
0.25
 40
0.375
 40
0.375
 40
0.375
 40
0.375
 40
0.5
 40
0.5
 40
0.5
 40
0.5
 40
0.625
 40
0.625
 40
0.625
 40
0.625
 40
0.75
 40
0.75
 40
0.75
 40
0.75
 40
1.0
 40
1.0
 40
1.0
 40
1.0
 10
1.9924
 20
-20.8604
 30
0.0
 10
1.9924
 20
-20.8604
 30
0.0
 10
1.9924
 20
-20.8604
 30
0.0
 10
1.9924
 20
-20.8604
 30
0.0
 10
1.9924
 20
-20.8604
 30
0.0
 10
1.9924
 20
-20.8604
 30
0.0
 10
1.9924
 20
-20.8604
 30
0.0
 10
1.9924
 20
-20.8604
 30
0.0
 10
1.9924
 20
-20.8604
 30
0.0
 10
1.9924
 20
-20.8604
 30
0.0
 10
3.2652
 20
-20.417
 30
0.0
 10
3.2652
 20
-20.417
 30
0.0
 10
3.2652
 20
-20.417
 30
0.0
 10
3.2652
 20
-20.417
 30
0.0
 10
1.9924
 20
-19.9736
 30
0.0
 10
1.9924
 20
-19.9736
 30
0.0
 10
1.9924
 20
-19.9736
 30
0.0
 10
1.9924
 20
-19.9736
 30
0.0
 10
1.9924
 20
-19.9736
 30
0.0
 10
1.9924
 20
-19.9736
 30
0.0
 10
1.9924
 20
-19.9736
 30
0.0
 10
1.9924
 20
-19.9736
 30
0.0
 10
1.9924
 20
-19.9736
 30
0.0
 10
1.9924
 20
-19.9736
 30
0.0
 10
1.9924
 20
-19.9736
 30
0.0
 10
1.9924
 20
-19.9736
 30
0.0
 10
1.9924
 20
-20.8604
 30
0.0
 10
1.9924
 20
-20.8604
 30
0.0
  0
SPLINE
  5
92
330
1F
100
AcDbEntity
  8
Ilustrace
 62
   250
370
     9
100
AcDbSpline
210
0.0
220
0.0
230
1.0
 70
    11
 71
     3
 72
    32
 73
    28
 74
     0
 42
0.0000000001
 43
0.0000000001
 40
0.0
 40
0.0
 40
0.0
 40
0.0
 40
0.125
 40
0.125
 40
0.125
 40
0.125
 40
0.25
 40
0.25
 40
0.25
 40
0.25
 40
0.375
 40
0.375
 40
0.375
 40
0.375
 40
0.5
 40
0.5
 40
0.5
 40
0.5
 40
0.625
 40
0.625
 40
0.625
 40
0.625
 40
0.75
 40
0.75
 40
0.75
 40
0.75
 40
1.0
 40
1.0
 40
1.0
 40
1.0
 10
-14.2956
 20
-20.8725
 30
0.0
 10
-14.2956
 20
-20.8725
 30
0.0
 10
-14.2956
 20
-20.8725
 30
0.0
 10
-14.2956
 20
-20.8725
 30
0.0
 10
-14.2956
 20
-20.8725
 30
0.0
 10
-14.2956
 20
-20.8725
 30
0.0
 10
-14.2956
 20
-20.8725
 30
0.0
 10
-14.2956
 20
-20.8725
 30
0.0
 10
-14.2956
 20
-20.8725
 30
0.0
 10
-14.2956
 20
-20.8725
 30
0.0
 10
-15.5702
 20
-20.4291
 30
0.0
 10
-15.5702
 20
-20.4291
 30
0.0
 10
-15.5702
 20
-20.4291
 30
0.0
 10
-15.5702
 20
-20.4291
 30
0.0
 10
-14.2956
 20
-19.9857
 30
0.0
 10
-14.2956
 20
-19.9857
 30
0.0
 10
-14.2956
 20
-19.9857
 30
0.0
 10
-14.2956
 20
-19.9857
 30
0.0
 10
-14.2956
 20
-19.9857
 30
0.0
 10
-14.2956
 20
-19.9857
 30
0.0
 10
-14.2956
 20
-19.9857
 30
0.0
 10
-14.2956
 20
-19.9857
 30
0.0
 10
-14.2956
 20
-19.9857
 30
0.0
 10
-14.2956
 20
-19.9857
 30
0.0
 10
-14.2956
 20
-19.9857
 30
0.0
 10
-14.2956
 20
-19.9857
 30
0.0
 10
-14.2956
 20
-20.8725
 30
0.0
 10
-14.2956
 20
-20.8725
 30
0.0
  0
SPLINE
  5
93
330
1F
100
AcDbEntity
  8
Ilustrace
 62
   250
370
    15
100
AcDbSpline
210
0.0
220
0.0
230
1.0
 70
    24
 71
     3
 72
     8
 73
     4
 74
     0
 42
0.0000000001
 43
0.0000000001
 40
0.0
 40
0.0
 40
0.0
 40
0.0
 40
1.0
 40
1.0
 40
1.0
 40
1.0
 10
-16.417
 20
-24.4389
 30
0.0
 10
-16.417
 20
-24.4389
 30
0.0
 10
4.0714
 20
-24.4389
 30
0.0
 10
4.0714
 20
-24.4389
 30
0.0
  0
SPLINE
  5
94
330
1F
100
AcDbEntity
  8
Ilustrace
 62
   250
100
AcDbSpline
210
0.0
220
0.0
230
1.0
 70
    11
 71
     3
 72
   104
 73
   100
 74
     0
 42
0.0000000001
 43
0.0000000001
 40
0.0
 40
0.0
 40
0.0
 40
0.0
 40
0.0384615384615385
 40
0.0384615384615385
 40
0.0384615384615385
 40
0.0384615384615385
 40
0.0769230769230769
 40
0.0769230769230769
 40
0.0769230769230769
 40
0.0769230769230769
 40
0.1153846153846154
 40
0.1153846153846154
 40
0.1153846153846154
 40
0.1153846153846154
 40
0.1538461538461539
 40
0.1538461538461539
 40
0.1538461538461539
 40
0.1538461538461539
 40
0.1923076923076923
 40
0.1923076923076923
 40
0.1923076923076923
 40
0.1923076923076923
 40
0.2307692307692308
 40
0.2307692307692308
 40
0.2307692307692308
 40
0.2307692307692308
 40
0.2692307692307692
 40
0.2692307692307692
 40
0.2692307692307692
 40
0.2692307692307692
 40
0.3076923076923077
 40
0.3076923076923077
 40
0.3076923076923077
 40
0.3076923076923077
 40
0.3461538461538461
 40
0.3461538461538461
 40
0.3461538461538461
 40
0.3461538461538461
 40
0.3846153846153846
 40
0.3846153846153846
 40
0.3846153846153846
 40
0.3846153846153846
 40
0.4230769230769231
 40
0.4230769230769231
 40
0.4230769230769231
 40
0.4230769230769231
 40
0.4615384615384616
 40
0.4615384615384616
 40
0.4615384615384616
 40
0.4615384615384616
 40
0.5
 40
0.5
 40
0.5
 40
0.5
 40
0.5384615384615384
 40
0.5384615384615384
 40
0.5384615384615384
 40
0.5384615384615384
 40
0.5769230769230769
 40
0.5769230769230769
 40
0.5769230769230769
 40
0.5769230769230769
 40
0.6153846153846154
 40
0.6153846153846154
 40
0.6153846153846154
 40
0.6153846153846154
 40
0.6538461538461539
 40
0.6538461538461539
 40
0.6538461538461539
 40
0.6538461538461539
 40
0.6923076923076923
 40
0.6923076923076923
 40
0.6923076923076923
 40
0.6923076923076923
 40
0.7307692307692307
 40
0.7307692307692307
 40
0.7307692307692307
 40
0.7307692307692307
 40
0.7692307692307693
 40
0.7692307692307693
 40
0.7692307692307693
 40
0.7692307692307693
 40
0.8076923076923077
 40
0.8076923076923077
 40
0.8076923076923077
 40
0.8076923076923077
 40
0.8461538461538461
 40
0.8461538461538461
 40
0.8461538461538461
 40
0.8461538461538461
 40
0.8846153846153846
 40
0.8846153846153846
 40
0.8846153846153846
 40
0.8846153846153846
 40
0.9230769230769231
 40
0.9230769230769231
 40
0.9230769230769231
 40
0.9230769230769231
 40
1.0
 40
1.0
 40
1.0
 40
1.0
 10
-10.2031
 20
-24.2098
 30
0.0
 10
-10.2031
 20
-24.2098
 30
0.0
 10
-9.9586
 20
-23.876
 30
0.0
 10
-9.9586
 20
-23.876
 30
0.0
 10
-9.9586
 20
-23.876
 30
0.0
 10
-9.8648
 20
-23.9439
 30
0.0
 10
-9.762
 20
-23.9963
 30
0.0
 10
-9.6507
 20
-24.0319
 30
0.0
 10
-9.6507
 20
-24.0319
 30
0.0
 10
-9.5388
 20
-24.0675
 30
0.0
 10
-9.4218
 20
-24.0856
 30
0.0
 10
-9.2989
 20
-24.0856
 30
0.0
 10
-9.2989
 20
-24.0856
 30
0.0
 10
-9.1728
 20
-24.0856
 30
0.0
 10
-9.0505
 20
-24.0668
 30
0.0
 10
-8.9335
 20
-24.03
 30
0.0
 10
-8.9335
 20
-24.03
 30
0.0
 10
-8.8164
 20
-23.9931
 30
0.0
 10
-8.7077
 20
-23.9381
 30
0.0
 10
-8.6081
 20
-23.8644
 30
0.0
 10
-8.6081
 20
-23.8644
 30
0.0
 10
-8.5079
 20
-23.7913
 30
0.0
 10
-8.4206
 20
-23.6995
 30
0.0
 10
-8.3456
 20
-23.5895
 30
0.0
 10
-8.3456
 20
-23.5895
 30
0.0
 10
-8.2712
 20
-23.4796
 30
0.0
 10
-8.213
 20
-23.3515
 30
0.0
 10
-8.1709
 20
-23.2047
 30
0.0
 10
-8.1709
 20
-23.2047
 30
0.0
 10
-8.1295
 20
-23.0585
 30
0.0
 10
-8.1082
 20
-22.8942
 30
0.0
 10
-8.1075
 20
-22.7119
 30
0.0
 10
-8.1075
 20
-22.7119
 30
0.0
 10
-8.1075
 20
-22.5831
 30
0.0
 10
-8.1205
 20
-22.4609
 30
0.0
 10
-8.147
 20
-22.3445
 30
0.0
 10
-8.147
 20
-22.3445
 30
0.0
 10
-8.1729
 20
-22.2274
 30
0.0
 10
-8.211
 20
-22.1188
 30
0.0
 10
-8.2608
 20
-22.0185
 30
0.0
 10
-8.2608
 20
-22.0185
 30
0.0
 10
-8.3113
 20
-21.9183
 30
0.0
 10
-8.3727
 20
-21.829
 30
0.0
 10
-8.4452
 20
-21.7495
 30
0.0
 10
-8.4452
 20
-21.7495
 30
0.0
 10
-8.4452
 20
-21.7495
 30
0.0
 10
-8.2046
 20
-21.4157
 30
0.0
 10
-8.2046
 20
-21.4157
 30
0.0
 10
-8.2046
 20
-21.4157
 30
0.0
 10
-8.2046
 20
-21.4157
 30
0.0
 10
-8.4102
 20
-21.276
 30
0.0
 10
-8.4102
 20
-21.276
 30
0.0
 10
-8.4102
 20
-21.276
 30
0.0
 10
-8.4102
 20
-21.276
 30
0.0
 10
-8.6392
 20
-21.5904
 30
0.0
 10
-8.6392
 20
-21.5904
 30
0.0
 10
-8.6392
 20
-21.5904
 30
0.0
 10
-8.733
 20
-21.5205
 30
0.0
 10
-8.8345
 20
-21.4681
 30
0.0
 10
-8.9445
 20
-21.4332
 30
0.0
 10
-8.9445
 20
-21.4332
 30
0.0
 10
-9.0551
 20
-21.3983
 30
0.0
 10
-9.1702
 20
-21.3808
 30
0.0
 10
-9.2911
 20
-21.3808
 30
0.0
 10
-9.2911
 20
-21.3808
 30
0.0
 10
-9.4638
 20
-21.3815
 30
0.0
 10
-9.6229
 20
-21.4138
 30
0.0
 10
-9.7697
 20
-21.4778
 30
0.0
 10
-9.7697
 20
-21.4778
 30
0.0
 10
-9.9159
 20
-21.5419
 30
0.0
 10
-10.0433
 20
-21.6343
 30
0.0
 10
-10.152
 20
-21.754
 30
0.0
 10
-10.152
 20
-21.754
 30
0.0
 10
-10.2613
 20
-21.8736
 30
0.0
 10
-10.3454
 20
-22.0172
 30
0.0
 10
-10.4062
 20
-22.1847
 30
0.0
 10
-10.4062
 20
-22.1847
 30
0.0
 10
-10.4663
 20
-22.3523
 30
0.0
 10
-10.4974
 20
-22.5392
 30
0.0
 10
-10.498
 20
-22.7468
 30
0.0
 10
-10.498
 20
-22.7468
 30
0.0
 10
-10.498
 20
-22.8774
 30
0.0
 10
-10.4838
 20
-23.0023
 30
0.0
 10
-10.4566
 20
-23.12
 30
0.0
 10
-10.4566
 20
-23.12
 30
0.0
 10
-10.4294
 20
-23.2377
 30
0.0
 10
-10.39
 20
-23.347
 30
0.0
 10
-10.3389
 20
-23.4472
 30
0.0
 10
-10.3389
 20
-23.4472
 30
0.0
 10
-10.2872
 20
-23.5475
 30
0.0
 10
-10.2251
 20
-23.6374
 30
0.0
 10
-10.1526
 20
-23.7169
 30
0.0
 10
-10.1526
 20
-23.7169
 30
0.0
 10
-10.1526
 20
-23.7169
 30
0.0
 10
-10.3932
 20
-24.0545
 30
0.0
 10
-10.3932
 20
-24.0545
 30
0.0
 10
-10.3932
 20
-24.0545
 30
0.0
 10
-10.3932
 20
-24.0545
 30
0.0
 10
-10.2031
 20
-24.2098
 30
0.0
 10
-10.2031
 20
-24.2098
 30
0.0
  0
SPLINE
  5
95
330
1F
100
AcDbEntity
  8
Ilustrace
 62
   250
100
AcDbSpline
210
0.0
220
0.0
230
1.0
 70
    11
 71
     3
 72
    52
 73
    48
 74
     0
 42
0.0000000001
 43
0.0000000001
 40
0.0
 40
0.0
 40
0.0
 40
0.0
 40
0.0769230769230769
 40
0.0769230769230769
 40
0.0769230769230769
 40
0.0769230769230769
 40
0.1538461538461539
 40
0.1538461538461539
 40
0.1538461538461539
 40
0.1538461538461539
 40
0.2307692307692308
 40
0.2307692307692308
 40
0.2307692307692308
 40
0.2307692307692308
 40
0.3076923076923077
 40
0.3076923076923077
 40
0.3076923076923077
 40
0.3076923076923077
 40
0.3846153846153846
 40
0.3846153846153846
 40
0.3846153846153846
 40
0.3846153846153846
 40
0.4615384615384616
 40
0.4615384615384616
 40
0.4615384615384616
 40
0.4615384615384616
 40
0.5384615384615384
 40
0.5384615384615384
 40
0.5384615384615384
 40
0.5384615384615384
 40
0.6153846153846154
 40
0.6153846153846154
 40
0.6153846153846154
 40
0.6153846153846154
 40
0.6923076923076923
 40
0.6923076923076923
 40
0.6923076923076923
 40
0.6923076923076923
 40
0.7692307692307693
 40
0.7692307692307693
 40
0.7692307692307693
 40
0.7692307692307693
 40
0.8461538461538461
 40
0.8461538461538461
 40
0.8461538461538461
 40
0.8461538461538461
 40
1.0
 40
1.0
 40
1.0
 40
1.0
 10
-9.9547
 20
-23.4298
 30
0.0
 10
-9.9547
 20
-23.4298
 30
0.0
 10
-9.9625
 20
-23.4336
 30
0.0
 10
-9.9625
 20
-23.4336
 30
0.0
 10
-9.9625
 20
-23.4336
 30
0.0
 10
-10.0013
 20
-23.367
 30
0.0
 10
-10.0349
 20
-23.2978
 30
0.0
 10
-10.0634
 20
-23.2267
 30
0.0
 10
-10.0634
 20
-23.2267
 30
0.0
 10
-10.0918
 20
-23.1549
 30
0.0
 10
-10.1138
 20
-23.0792
 30
0.0
 10
-10.1293
 20
-22.9977
 30
0.0
 10
-10.1293
 20
-22.9977
 30
0.0
 10
-10.1449
 20
-22.9169
 30
0.0
 10
-10.1526
 20
-22.8276
 30
0.0
 10
-10.1526
 20
-22.7313
 30
0.0
 10
-10.1526
 20
-22.7313
 30
0.0
 10
-10.1526
 20
-22.62
 30
0.0
 10
-10.141
 20
-22.5127
 30
0.0
 10
-10.1183
 20
-22.4072
 30
0.0
 10
-10.1183
 20
-22.4072
 30
0.0
 10
-10.0951
 20
-22.3025
 30
0.0
 10
-10.0608
 20
-22.2041
 30
0.0
 10
-10.0155
 20
-22.1136
 30
0.0
 10
-10.0155
 20
-22.1136
 30
0.0
 10
-9.9696
 20
-22.0224
 30
0.0
 10
-9.9127
 20
-21.9422
 30
0.0
 10
-9.8441
 20
-21.8736
 30
0.0
 10
-9.8441
 20
-21.8736
 30
0.0
 10
-9.7756
 20
-21.8044
 30
0.0
 10
-9.696
 20
-21.7508
 30
0.0
 10
-9.6055
 20
-21.712
 30
0.0
 10
-9.6055
 20
-21.712
 30
0.0
 10
-9.5143
 20
-21.6725
 30
0.0
 10
-9.4121
 20
-21.6531
 30
0.0
 10
-9.2989
 20
-21.6525
 30
0.0
 10
-9.2989
 20
-21.6525
 30
0.0
 10
-9.1999
 20
-21.6531
 30
0.0
 10
-9.1094
 20
-21.6693
 30
0.0
 10
-9.0279
 20
-21.7016
 30
0.0
 10
-9.0279
 20
-21.7016
 30
0.0
 10
-8.9458
 20
-21.7333
 30
0.0
 10
-8.872
 20
-21.7779
 30
0.0
 10
-8.8061
 20
-21.8348
 30
0.0
 10
-8.8061
 20
-21.8348
 30
0.0
 10
-8.8061
 20
-21.8348
 30
0.0
 10
-9.9547
 20
-23.4298
 30
0.0
 10
-9.9547
 20
-23.4298
 30
0.0
  0
SPLINE
  5
96
330
1F
100
AcDbEntity
  8
Ilustrace
 62
   250
100
AcDbSpline
210
0.0
220
0.0
230
1.0
 70
    11
 71
     3
 72
    48
 73
    44
 74
     0
 42
0.0000000001
 43
0.0000000001
 40
0.0
 40
0.0
 40
0.0
 40
0.0
 40
0.0833333333333333
 40
0.0833333333333333
 40
0.0833333333333333
 40
0.0833333333333333
 40
0.1666666666666667
 40
0.1666666666666667
 40
0.1666666666666667
 40
0.1666666666666667
 40
0.25
 40
0.25
 40
0.25
 40
0.25
 40
0.3333333333333333
 40
0.3333333333333333
 40
0.3333333333333333
 40
0.3333333333333333
 40
0.4166666666666667
 40
0.4166666666666667
 40
0.4166666666666667
 40
0.4166666666666667
 40
0.5
 40
0.5
 40
0.5
 40
0.5
 40
0.5833333333333334
 40
0.5833333333333334
 40
0.5833333333333334
 40
0.5833333333333334
 40
0.6666666666666666
 40
0.6666666666666666
 40
0.6666666666666666
 40
0.6666666666666666
 40
0.75
 40
0.75
 40
0.75
 40
0.75
 40
0.8333333333333334
 40
0.8333333333333334
 40
0.8333333333333334
 40
0.8333333333333334
 40
1.0
 40
1.0
 40
1.0
 40
1.0
 10
-8.647
 20
-22.0405
 30
0.0
 10
-8.647
 20
-22.0405
 30
0.0
 10
-8.6353
 20
-22.0405
 30
0.0
 10
-8.6353
 20
-22.0405
 30
0.0
 10
-8.6353
 20
-22.0405
 30
0.0
 10
-8.568
 20
-22.153
 30
0.0
 10
-8.5208
 20
-22.2669
 30
0.0
 10
-8.493
 20
-22.382
 30
0.0
 10
-8.493
 20
-22.382
 30
0.0
 10
-8.4652
 20
-22.4965
 30
0.0
 10
-8.4516
 20
-22.6103
 30
0.0
 10
-8.4529
 20
-22.7235
 30
0.0
 10
-8.4529
 20
-22.7235
 30
0.0
 10
-8.4529
 20
-22.8412
 30
0.0
 10
-8.4652
 20
-22.9537
 30
0.0
 10
-8.4891
 20
-23.0618
 30
0.0
 10
-8.4891
 20
-23.0618
 30
0.0
 10
-8.5131
 20
-23.1698
 30
0.0
 10
-8.5486
 20
-23.2694
 30
0.0
 10
-8.5952
 20
-23.3606
 30
0.0
 10
-8.5952
 20
-23.3606
 30
0.0
 10
-8.6424
 20
-23.4518
 30
0.0
 10
-8.7
 20
-23.5313
 30
0.0
 10
-8.7685
 20
-23.5986
 30
0.0
 10
-8.7685
 20
-23.5986
 30
0.0
 10
-8.8377
 20
-23.6665
 30
0.0
 10
-8.9167
 20
-23.7195
 30
0.0
 10
-9.0059
 20
-23.757
 30
0.0
 10
-9.0059
 20
-23.757
 30
0.0
 10
-9.0952
 20
-23.7945
 30
0.0
 10
-9.1941
 20
-23.8133
 30
0.0
 10
-9.3028
 20
-23.8139
 30
0.0
 10
-9.3028
 20
-23.8139
 30
0.0
 10
-9.4082
 20
-23.8139
 30
0.0
 10
-9.5007
 20
-23.7978
 30
0.0
 10
-9.5789
 20
-23.7661
 30
0.0
 10
-9.5789
 20
-23.7661
 30
0.0
 10
-9.6578
 20
-23.7344
 30
0.0
 10
-9.7283
 20
-23.6878
 30
0.0
 10
-9.7917
 20
-23.6277
 30
0.0
 10
-9.7917
 20
-23.6277
 30
0.0
 10
-9.7917
 20
-23.6277
 30
0.0
 10
-8.647
 20
-22.0405
 30
0.0
 10
-8.647
 20
-22.0405
 30
0.0
  0
SPLINE
  5
97
330
1F
100
AcDbEntity
  8
Ilustrace
 62
   250
100
AcDbSpline
210
0.0
220
0.0
230
1.0
 70
    11
 71
     3
 72
    36
 73
    32
 74
     0
 42
0.0000000001
 43
0.0000000001
 40
0.0
 40
0.0
 40
0.0
 40
0.0
 40
0.1111111111111111
 40
0.1111111111111111
 40
0.1111111111111111
 40
0.1111111111111111
 40
0.2222222222222222
 40
0.2222222222222222
 40
0.2222222222222222
 40
0.2222222222222222
 40
0.3333333333333333
 40
0.3333333333333333
 40
0.3333333333333333
 40
0.3333333333333333
 40
0.4444444444444444
 40
0.4444444444444444
 40
0.4444444444444444
 40
0.4444444444444444
 40
0.5555555555555556
 40
0.5555555555555556
 40
0.5555555555555556
 40
0.5555555555555556
 40
0.6666666666666666
 40
0.6666666666666666
 40
0.6666666666666666
 40
0.6666666666666666
 40
0.7777777777777778
 40
0.7777777777777778
 40
0.7777777777777778
 40
0.7777777777777778
 40
1.0
 40
1.0
 40
1.0
 40
1.0
 10
-7.0482
 20
-24.0429
 30
0.0
 10
-7.0482
 20
-24.0429
 30
0.0
 10
-6.7183
 20
-24.0429
 30
0.0
 10
-6.7183
 20
-24.0429
 30
0.0
 10
-6.7183
 20
-24.0429
 30
0.0
 10
-6.7183
 20
-24.0429
 30
0.0
 10
-6.7183
 20
-21.5205
 30
0.0
 10
-6.7183
 20
-21.5205
 30
0.0
 10
-6.7183
 20
-21.5205
 30
0.0
 10
-6.7183
 20
-21.5205
 30
0.0
 10
-7.0094
 20
-21.5205
 30
0.0
 10
-7.0094
 20
-21.5205
 30
0.0
 10
-7.0094
 20
-21.5205
 30
0.0
 10
-7.0094
 20
-21.5205
 30
0.0
 10
-7.5604
 20
-21.8154
 30
0.0
 10
-7.5604
 20
-21.8154
 30
0.0
 10
-7.5604
 20
-21.8154
 30
0.0
 10
-7.5604
 20
-21.8154
 30
0.0
 10
-7.4944
 20
-22.0754
 30
0.0
 10
-7.4944
 20
-22.0754
 30
0.0
 10
-7.4944
 20
-22.0754
 30
0.0
 10
-7.4944
 20
-22.0754
 30
0.0
 10
-7.0559
 20
-21.8387
 30
0.0
 10
-7.0559
 20
-21.8387
 30
0.0
 10
-7.0559
 20
-21.8387
 30
0.0
 10
-7.0559
 20
-21.8387
 30
0.0
 10
-7.0482
 20
-21.8387
 30
0.0
 10
-7.0482
 20
-21.8387
 30
0.0
 10
-7.0482
 20
-21.8387
 30
0.0
 10
-7.0482
 20
-21.8387
 30
0.0
 10
-7.0482
 20
-24.0429
 30
0.0
 10
-7.0482
 20
-24.0429
 30
0.0
  0
SPLINE
  5
98
330
1F
100
AcDbEntity
  8
Ilustrace
 62
   250
100
AcDbSpline
210
0.0
220
0.0
230
1.0
 70
    11
 71
     3
 72
    36
 73
    32
 74
     0
 42
0.0000000001
 43
0.0000000001
 40
0.0
 40
0.0
 40
0.0
 40
0.0
 40
0.1111111111111111
 40
0.1111111111111111
 40
0.1111111111111111
 40
0.1111111111111111
 40
0.2222222222222222
 40
0.2222222222222222
 40
0.2222222222222222
 40
0.2222222222222222
 40
0.3333333333333333
 40
0.3333333333333333
 40
0.3333333333333333
 40
0.3333333333333333
 40
0.4444444444444444
 40
0.4444444444444444
 40
0.4444444444444444
 40
0.4444444444444444
 40
0.5555555555555556
 40
0.5555555555555556
 40
0.5555555555555556
 40
0.5555555555555556
 40
0.6666666666666666
 40
0.6666666666666666
 40
0.6666666666666666
 40
0.6666666666666666
 40
0.7777777777777778
 40
0.7777777777777778
 40
0.7777777777777778
 40
0.7777777777777778
 40
1.0
 40
1.0
 40
1.0
 40
1.0
 10
-5.0575
 20
-24.0429
 30
0.0
 10
-5.0575
 20
-24.0429
 30
0.0
 10
-4.7276
 20
-24.0429
 30
0.0
 10
-4.7276
 20
-24.0429
 30
0.0
 10
-4.7276
 20
-24.0429
 30
0.0
 10
-4.7276
 20
-24.0429
 30
0.0
 10
-4.7276
 20
-21.5205
 30
0.0
 10
-4.7276
 20
-21.5205
 30
0.0
 10
-4.7276
 20
-21.5205
 30
0.0
 10
-4.7276
 20
-21.5205
 30
0.0
 10
-5.0187
 20
-21.5205
 30
0.0
 10
-5.0187
 20
-21.5205
 30
0.0
 10
-5.0187
 20
-21.5205
 30
0.0
 10
-5.0187
 20
-21.5205
 30
0.0
 10
-5.5697
 20
-21.8154
 30
0.0
 10
-5.5697
 20
-21.8154
 30
0.0
 10
-5.5697
 20
-21.8154
 30
0.0
 10
-5.5697
 20
-21.8154
 30
0.0
 10
-5.5037
 20
-22.0754
 30
0.0
 10
-5.5037
 20
-22.0754
 30
0.0
 10
-5.5037
 20
-22.0754
 30
0.0
 10
-5.5037
 20
-22.0754
 30
0.0
 10
-5.0652
 20
-21.8387
 30
0.0
 10
-5.0652
 20
-21.8387
 30
0.0
 10
-5.0652
 20
-21.8387
 30
0.0
 10
-5.0652
 20
-21.8387
 30
0.0
 10
-5.0575
 20
-21.8387
 30
0.0
 10
-5.0575
 20
-21.8387
 30
0.0
 10
-5.0575
 20
-21.8387
 30
0.0
 10
-5.0575
 20
-21.8387
 30
0.0
 10
-5.0575
 20
-24.0429
 30
0.0
 10
-5.0575
 20
-24.0429
 30
0.0
  0
SPLINE
  5
99
330
1F
100
AcDbEntity
  8
Ilustrace
 62
   250
100
AcDbSpline
210
0.0
220
0.0
230
1.0
 70
    11
 71
     3
 72
   132
 73
   128
 74
     0
 42
0.0000000001
 43
0.0000000001
 40
0.0
 40
0.0
 40
0.0
 40
0.0
 40
0.0303030303030303
 40
0.0303030303030303
 40
0.0303030303030303
 40
0.0303030303030303
 40
0.0606060606060606
 40
0.0606060606060606
 40
0.0606060606060606
 40
0.0606060606060606
 40
0.0909090909090909
 40
0.0909090909090909
 40
0.0909090909090909
 40
0.0909090909090909
 40
0.1212121212121212
 40
0.1212121212121212
 40
0.1212121212121212
 40
0.1212121212121212
 40
0.1515151515151515
 40
0.1515151515151515
 40
0.1515151515151515
 40
0.1515151515151515
 40
0.1818181818181818
 40
0.1818181818181818
 40
0.1818181818181818
 40
0.1818181818181818
 40
0.2121212121212121
 40
0.2121212121212121
 40
0.2121212121212121
 40
0.2121212121212121
 40
0.2424242424242424
 40
0.2424242424242424
 40
0.2424242424242424
 40
0.2424242424242424
 40
0.2727272727272727
 40
0.2727272727272727
 40
0.2727272727272727
 40
0.2727272727272727
 40
0.303030303030303
 40
0.303030303030303
 40
0.303030303030303
 40
0.303030303030303
 40
0.3333333333333333
 40
0.3333333333333333
 40
0.3333333333333333
 40
0.3333333333333333
 40
0.3636363636363636
 40
0.3636363636363636
 40
0.3636363636363636
 40
0.3636363636363636
 40
0.3939393939393939
 40
0.3939393939393939
 40
0.3939393939393939
 40
0.3939393939393939
 40
0.4242424242424243
 40
0.4242424242424243
 40
0.4242424242424243
 40
0.4242424242424243
 40
0.4545454545454545
 40
0.4545454545454545
 40
0.4545454545454545
 40
0.4545454545454545
 40
0.4848484848484849
 40
0.4848484848484849
 40
0.4848484848484849
 40
0.4848484848484849
 40
0.5151515151515151
 40
0.5151515151515151
 40
0.5151515151515151
 40
0.5151515151515151
 40
0.5454545454545454
 40
0.5454545454545454
 40
0.5454545454545454
 40
0.5454545454545454
 40
0.5757575757575758
 40
0.5757575757575758
 40
0.5757575757575758
 40
0.5757575757575758
 40
0.6060606060606061
 40
0.6060606060606061
 40
0.6060606060606061
 40
0.6060606060606061
 40
0.6363636363636364
 40
0.6363636363636364
 40
0.6363636363636364
 40
0.6363636363636364
 40
0.6666666666666666
 40
0.6666666666666666
 40
0.6666666666666666
 40
0.6666666666666666
 40
0.696969696969697
 40
0.696969696969697
 40
0.696969696969697
 40
0.696969696969697
 40
0.7272727272727273
 40
0.7272727272727273
 40
0.7272727272727273
 40
0.7272727272727273
 40
0.7575757575757576
 40
0.7575757575757576
 40
0.7575757575757576
 40
0.7575757575757576
 40
0.7878787878787878
 40
0.7878787878787878
 40
0.7878787878787878
 40
0.7878787878787878
 40
0.8181818181818182
 40
0.8181818181818182
 40
0.8181818181818182
 40
0.8181818181818182
 40
0.8484848484848485
 40
0.8484848484848485
 40
0.8484848484848485
 40
0.8484848484848485
 40
0.8787878787878788
 40
0.8787878787878788
 40
0.8787878787878788
 40
0.8787878787878788
 40
0.9090909090909091
 40
0.9090909090909091
 40
0.9090909090909091
 40
0.9090909090909091
 40
0.9393939393939394
 40
0.9393939393939394
 40
0.9393939393939394
 40
0.9393939393939394
 40
1.0
 40
1.0
 40
1.0
 40
1.0
 10
-2.3023
 20
-21.5205
 30
0.0
 10
-2.3023
 20
-21.5205
 30
0.0
 10
-3.5092
 20
-21.5205
 30
0.0
 10
-3.5092
 20
-21.5205
 30
0.0
 10
-3.5092
 20
-21.5205
 30
0.0
 10
-3.5092
 20
-21.5205
 30
0.0
 10
-3.6722
 20
-22.7313
 30
0.0
 10
-3.6722
 20
-22.7313
 30
0.0
 10
-3.6722
 20
-22.7313
 30
0.0
 10
-3.6256
 20
-22.7248
 30
0.0
 10
-3.5738
 20
-22.7196
 30
0.0
 10
-3.5156
 20
-22.7151
 30
0.0
 10
-3.5156
 20
-22.7151
 30
0.0
 10
-3.4581
 20
-22.7106
 30
0.0
 10
-3.3921
 20
-22.708
 30
0.0
 10
-3.319
 20
-22.708
 30
0.0
 10
-3.319
 20
-22.708
 30
0.0
 10
-3.1522
 20
-22.7086
 30
0.0
 10
-3.0157
 20
-22.7326
 30
0.0
 10
-2.9096
 20
-22.7791
 30
0.0
 10
-2.9096
 20
-22.7791
 30
0.0
 10
-2.8029
 20
-22.8263
 30
0.0
 10
-2.724
 20
-22.891
 30
0.0
 10
-2.6729
 20
-22.9738
 30
0.0
 10
-2.6729
 20
-22.9738
 30
0.0
 10
-2.6218
 20
-23.0572
 30
0.0
 10
-2.5966
 20
-23.1536
 30
0.0
 10
-2.5972
 20
-23.2629
 30
0.0
 10
-2.5972
 20
-23.2629
 30
0.0
 10
-2.5966
 20
-23.3476
 30
0.0
 10
-2.6121
 20
-23.4233
 30
0.0
 10
-2.6438
 20
-23.4906
 30
0.0
 10
-2.6438
 20
-23.4906
 30
0.0
 10
-2.6748
 20
-23.5585
 30
0.0
 10
-2.7182
 20
-23.6154
 30
0.0
 10
-2.7731
 20
-23.6632
 30
0.0
 10
-2.7731
 20
-23.6632
 30
0.0
 10
-2.8281
 20
-23.7105
 30
0.0
 10
-2.8915
 20
-23.7467
 30
0.0
 10
-2.9633
 20
-23.7719
 30
0.0
 10
-2.9633
 20
-23.7719
 30
0.0
 10
-3.0351
 20
-23.7971
 30
0.0
 10
-3.1108
 20
-23.8101
 30
0.0
 10
-3.191
 20
-23.8101
 30
0.0
 10
-3.191
 20
-23.8101
 30
0.0
 10
-3.2692
 20
-23.8094
 30
0.0
 10
-3.3429
 20
-23.8023
 30
0.0
 10
-3.4122
 20
-23.7874
 30
0.0
 10
-3.4122
 20
-23.7874
 30
0.0
 10
-3.4814
 20
-23.7732
 30
0.0
 10
-3.5434
 20
-23.7557
 30
0.0
 10
-3.5984
 20
-23.7344
 30
0.0
 10
-3.5984
 20
-23.7344
 30
0.0
 10
-3.6534
 20
-23.713
 30
0.0
 10
-3.6987
 20
-23.6917
 30
0.0
 10
-3.7342
 20
-23.6704
 30
0.0
 10
-3.7342
 20
-23.6704
 30
0.0
 10
-3.7342
 20
-23.6704
 30
0.0
 10
-3.8196
 20
-23.9304
 30
0.0
 10
-3.8196
 20
-23.9304
 30
0.0
 10
-3.8196
 20
-23.9304
 30
0.0
 10
-3.7776
 20
-23.9569
 30
0.0
 10
-3.7252
 20
-23.9815
 30
0.0
 10
-3.6625
 20
-24.0054
 30
0.0
 10
-3.6625
 20
-24.0054
 30
0.0
 10
-3.5997
 20
-24.0287
 30
0.0
 10
-3.5286
 20
-24.0474
 30
0.0
 10
-3.449
 20
-24.0623
 30
0.0
 10
-3.449
 20
-24.0623
 30
0.0
 10
-3.3688
 20
-24.0772
 30
0.0
 10
-3.2828
 20
-24.0849
 30
0.0
 10
-3.191
 20
-24.0856
 30
0.0
 10
-3.191
 20
-24.0856
 30
0.0
 10
-3.0532
 20
-24.0849
 30
0.0
 10
-2.9277
 20
-24.0629
 30
0.0
 10
-2.8132
 20
-24.0203
 30
0.0
 10
-2.8132
 20
-24.0203
 30
0.0
 10
-2.6988
 20
-23.9776
 30
0.0
 10
-2.5998
 20
-23.9174
 30
0.0
 10
-2.5164
 20
-23.8398
 30
0.0
 10
-2.5164
 20
-23.8398
 30
0.0
 10
-2.4323
 20
-23.7622
 30
0.0
 10
-2.3676
 20
-23.671
 30
0.0
 10
-2.3217
 20
-23.5669
 30
0.0
 10
-2.3217
 20
-23.5669
 30
0.0
 10
-2.2758
 20
-23.4621
 30
0.0
 10
-2.2525
 20
-23.3476
 30
0.0
 10
-2.2519
 20
-23.2241
 30
0.0
 10
-2.2519
 20
-23.2241
 30
0.0
 10
-2.2525
 20
-23.1193
 30
0.0
 10
-2.2693
 20
-23.0249
 30
0.0
 10
-2.3017
 20
-22.9415
 30
0.0
 10
-2.3017
 20
-22.9415
 30
0.0
 10
-2.334
 20
-22.858
 30
0.0
 10
-2.3767
 20
-22.7862
 30
0.0
 10
-2.431
 20
-22.7254
 30
0.0
 10
-2.431
 20
-22.7254
 30
0.0
 10
-2.4853
 20
-22.6646
 30
0.0
 10
-2.5461
 20
-22.6161
 30
0.0
 10
-2.6127
 20
-22.5799
 30
0.0
 10
-2.6127
 20
-22.5799
 30
0.0
 10
-2.691
 20
-22.5321
 30
0.0
 10
-2.7757
 20
-22.4971
 30
0.0
 10
-2.8682
 20
-22.4758
 30
0.0
 10
-2.8682
 20
-22.4758
 30
0.0
 10
-2.9607
 20
-22.4544
 30
0.0
 10
-3.0564
 20
-22.4434
 30
0.0
 10
-3.156
 20
-22.4441
 30
0.0
 10
-3.156
 20
-22.4441
 30
0.0
 10
-3.2013
 20
-22.4441
 30
0.0
 10
-3.2401
 20
-22.4447
 30
0.0
 10
-3.2718
 20
-22.4467
 30
0.0
 10
-3.2718
 20
-22.4467
 30
0.0
 10
-3.3035
 20
-22.4486
 30
0.0
 10
-3.3332
 20
-22.4519
 30
0.0
 10
-3.3617
 20
-22.4557
 30
0.0
 10
-3.3617
 20
-22.4557
 30
0.0
 10
-3.3617
 20
-22.4557
 30
0.0
 10
-3.2647
 20
-21.8077
 30
0.0
 10
-3.2647
 20
-21.8077
 30
0.0
 10
-3.2647
 20
-21.8077
 30
0.0
 10
-3.2647
 20
-21.8077
 30
0.0
 10
-2.3023
 20
-21.8077
 30
0.0
 10
-2.3023
 20
-21.8077
 30
0.0
 10
-2.3023
 20
-21.8077
 30
0.0
 10
-2.3023
 20
-21.8077
 30
0.0
 10
-2.3023
 20
-21.5205
 30
0.0
 10
-2.3023
 20
-21.5205
 30
0.0
  0
SPLINE
  5
9A
330
1F
100
AcDbEntity
  8
Ilustrace
 62
   250
370
     9
100
AcDbSpline
210
0.0
220
0.0
230
1.0
 70
    11
 71
     3
 72
    32
 73
    28
 74
     0
 42
0.0000000001
 43
0.0000000001
 40
0.0
 40
0.0
 40
0.0
 40
0.0
 40
0.125
 40
0.125
 40
0.125
 40
0.125
 40
0.25
 40
0.25
 40
0.25
 40
0.25
 40
0.375
 40
0.375
 40
0.375
 40
0.375
 40
0.5
 40
0.5
 40
0.5
 40
0.5
 40
0.625
 40
0.625
 40
0.625
 40
0.625
 40
0.75
 40
0.75
 40
0.75
 40
0.75
 40
1.0
 40
1.0
 40
1.0
 40
1.0
 10
2.9846
 20
-24.8686
 30
0.0
 10
2.9846
 20
-24.8686
 30
0.0
 10
2.9846
 20
-24.8686
 30
0.0
 10
2.9846
 20
-24.8686
 30
0.0
 10
2.9846
 20
-24.8686
 30
0.0
 10
2.9846
 20
-24.8686
 30
0.0
 10
2.9846
 20
-24.8686
 30
0.0
 10
2.9846
 20
-24.8686
 30
0.0
 10
2.9846
 20
-24.8686
 30
0.0
 10
2.9846
 20
-24.8686
 30
0.0
 10
4.2574
 20
-24.4252
 30
0.0
 10
4.2574
 20
-24.4252
 30
0.0
 10
4.2574
 20
-24.4252
 30
0.0
 10
4.2574
 20
-24.4252
 30
0.0
 10
2.9846
 20
-23.9818
 30
0.0
 10
2.9846
 20
-23.9818
 30
0.0
 10
2.9846
 20
-23.9818
 30
0.0
 10
2.9846
 20
-23.9818
 30
0.0
 10
2.9846
 20
-23.9818
 30
0.0
 10
2.9846
 20
-23.9818
 30
0.0
 10
2.9846
 20
-23.9818
 30
0.0
 10
2.9846
 20
-23.9818
 30
0.0
 10
2.9846
 20
-23.9818
 30
0.0
 10
2.9846
 20
-23.9818
 30
0.0
 10
2.9846
 20
-23.9818
 30
0.0
 10
2.9846
 20
-23.9818
 30
0.0
 10
2.9846
 20
-24.8686
 30
0.0
 10
2.9846
 20
-24.8686
 30
0.0
  0
SPLINE
  5
9B
330
1F
100
AcDbEntity
  8
Ilustrace
 62
   250
370
     9
100
AcDbSpline
210
0.0
220
0.0
230
1.0
 70
    11
 71
     3
 72
    32
 73
    28
 74
     0
 42
0.0000000001
 43
0.0000000001
 40
0.0
 40
0.0
 40
0.0
 40
0.0
 40
0.125
 40
0.125
 40
0.125
 40
0.125
 40
0.25
 40
0.25
 40
0.25
 40
0.25
 40
0.375
 40
0.375
 40
0.375
 40
0.375
 40
0.5
 40
0.5
 40
0.5
 40
0.5
 40
0.625
 40
0.625
 40
0.625
 40
0.625
 40
0.75
 40
0.75
 40
0.75
 40
0.75
 40
1.0
 40
1.0
 40
1.0
 40
1.0
 10
-15.3953
 20
-24.8725
 30
0.0
 10
-15.3953
 20
-24.8725
 30
0.0
 10
-15.3953
 20
-24.8725
 30
0.0
 10
-15.3953
 20
-24.8725
 30
0.0
 10
-15.3953
 20
-24.8725
 30
0.0
 10
-15.3953
 20
-24.8725
 30
0.0
 10
-15.3953
 20
-24.8725
 30
0.0
 10
-15.3953
 20
-24.8725
 30
0.0
 10
-15.3953
 20
-24.8725
 30
0.0
 10
-15.3953
 20
-24.8725
 30
0.0
 10
-16.6699
 20
-24.4291
 30
0.0
 10
-16.6699
 20
-24.4291
 30
0.0
 10
-16.6699
 20
-24.4291
 30
0.0
 10
-16.6699
 20
-24.4291
 30
0.0
 10
-15.3953
 20
-23.9857
 30
0.0
 10
-15.3953
 20
-23.9857
 30
0.0
 10
-15.3953
 20
-23.9857
 30
0.0
 10
-15.3953
 20
-23.9857
 30
0.0
 10
-15.3953
 20
-23.9857
 30
0.0
 10
-15.3953
 20
-23.9857
 30
0.0
 10
-15.3953
 20
-23.9857
 30
0.0
 10
-15.3953
 20
-23.9857
 30
0.0
 10
-15.3953
 20
-23.9857
 30
0.0
 10
-15.3953
 20
-23.9857
 30
0.0
 10
-15.3953
 20
-23.9857
 30
0.0
 10
-15.3953
 20
-23.9857
 30
0.0
 10
-15.3953
 20
-24.8725
 30
0.0
 10
-15.3953
 20
-24.8725
 30
0.0
  0
SPLINE
  5
9C
330
1F
100
AcDbEntity
  8
Ilustrace
 62
   250
370
    30
100
AcDbSpline
210
0.0
220
0.0
230
1.0
 70
    24
 71
     3
 72
     8
 73
     4
 74
     0
 42
0.0000000001
 43
0.0000000001
 40
0.0
 40
0.0
 40
0.0
 40
0.0
 40
1.0
 40
1.0
 40
1.0
 40
1.0
 10
2.0758
 20
-11.8685
 30
0.0
 10
2.0758
 20
-11.8685
 30
0.0
 10
-14.4413
 20
-11.8685
 30
0.0
 10
-14.4413
 20
-11.8685
 30
0.0
  0
SPLINE
  5
9D
330
1F
100
AcDbEntity
  8
Ilustrace
 62
   250
370
    30
100
AcDbSpline
210
0.0
220
0.0
230
1.0
 70
    24
 71
     3
 72
     8
 73
     4
 74
     0
 42
0.0000000001
 43
0.0000000001
 40
0.0
 40
0.0
 40
0.0
 40
0.0
 40
1.0
 40
1.0
 40
1.0
 40
1.0
 10
-14.6167
 20
-11.4338
 30
0.0
 10
-14.6167
 20
-11.4338
 30
0.0
 10
2.2514
 20
-11.4338
 30
0.0
 10
2.2514
 20
-11.4338
 30
0.0
  0
SPLINE
  5
9E
330
1F
100
AcDbEntity
  8
Ilustrace
 62
   250
370
    30
100
AcDbSpline
210
0.0
220
0.0
230
1.0
 70
    24
 71
     3
 72
     8
 73
     4
 74
     0
 42
0.0000000001
 43
0.0000000001
 40
0.0
 40
0.0
 40
0.0
 40
0.0
 40
1.0
 40
1.0
 40
1.0
 40
1.0
 10
-14.621
 20
-11.1169
 30
0.0
 10
-14.621
 20
-11.1169
 30
0.0
 10
2.2556
 20
-11.1169
 30
0.0
 10
2.2556
 20
-11.1169
 30
0.0
  0
SPLINE
  5
9F
330
1F
100
AcDbEntity
  8
Ilustrace
 62
   250
370
    30
100
AcDbSpline
210
0.0
220
0.0
230
1.0
 70
    24
 71
     3
 72
     8
 73
     4
 74
     0
 42
0.0000000001
 43
0.0000000001
 40
0.0
 40
0.0
 40
0.0
 40
0.0
 40
1.0
 40
1.0
 40
1.0
 40
1.0
 10
2.2651
 20
-9.854
 30
0.0
 10
2.2651
 20
-9.854
 30
0.0
 10
-14.6304
 20
-9.854
 30
0.0
 10
-14.6304
 20
-9.854
 30
0.0
  0
SPLINE
  5
A0
330
1F
100
AcDbEntity
  8
Ilustrace
 62
   250
370
    30
100
AcDbSpline
210
0.0
220
0.0
230
1.0
 70
    24
 71
     3
 72
     8
 73
     4
 74
     0
 42
0.0000000001
 43
0.0000000001
 40
0.0
 40
0.0
 40
0.0
 40
0.0
 40
1.0
 40
1.0
 40
1.0
 40
1.0
 10
-14.6347
 20
-9.5372
 30
0.0
 10
-14.6347
 20
-9.5372
 30
0.0
 10
2.2694
 20
-9.5372
 30
0.0
 10
2.2694
 20
-9.5372
 30
0.0
  0
SPLINE
  5
A1
330
1F
100
AcDbEntity
  8
Ilustrace
 62
   250
370
    30
100
AcDbSpline
210
0.0
220
0.0
230
1.0
 70
    24
 71
     3
 72
     8
 73
     4
 74
     0
 42
0.0000000001
 43
0.0000000001
 40
0.0
 40
0.0
 40
0.0
 40
0.0
 40
1.0
 40
1.0
 40
1.0
 40
1.0
 10
2.3064
 20
-5.1147
 30
0.0
 10
2.3064
 20
-5.1147
 30
0.0
 10
-14.6717
 20
-5.1147
 30
0.0
 10
-14.6717
 20
-5.1147
 30
0.0
  0
SPLINE
  5
A2
330
1F
100
AcDbEntity
  8
Ilustrace
 62
   250
370
    30
100
AcDbSpline
210
0.0
220
0.0
230
1.0
 70
    24
 71
     3
 72
     8
 73
     4
 74
     0
 42
0.0000000001
 43
0.0000000001
 40
0.0
 40
0.0
 40
0.0
 40
0.0
 40
1.0
 40
1.0
 40
1.0
 40
1.0
 10
2.2969
 20
-6.3778
 30
0.0
 10
2.2969
 20
-6.3778
 30
0.0
 10
-14.6622
 20
-6.3778
 30
0.0
 10
-14.6622
 20
-6.3778
 30
0.0
  0
SPLINE
  5
A3
330
1F
100
AcDbEntity
  8
Ilustrace
 62
   250
370
    30
100
AcDbSpline
210
0.0
220
0.0
230
1.0
 70
    24
 71
     3
 72
     8
 73
     4
 74
     0
 42
0.0000000001
 43
0.0000000001
 40
0.0
 40
0.0
 40
0.0
 40
0.0
 40
1.0
 40
1.0
 40
1.0
 40
1.0
 10
2.2925
 20
-6.6944
 30
0.0
 10
2.2925
 20
-6.6944
 30
0.0
 10
-14.658
 20
-6.6944
 30
0.0
 10
-14.658
 20
-6.6944
 30
0.0
  0
SPLINE
  5
A4
330
1F
100
AcDbEntity
  8
Ilustrace
 62
   250
370
    30
100
AcDbSpline
210
0.0
220
0.0
230
1.0
 70
    24
 71
     3
 72
     8
 73
     4
 74
     0
 42
0.0000000001
 43
0.0000000001
 40
0.0
 40
0.0
 40
0.0
 40
0.0
 40
1.0
 40
1.0
 40
1.0
 40
1.0
 10
2.2831
 20
-7.9574
 30
0.0
 10
2.2831
 20
-7.9574
 30
0.0
 10
-14.6485
 20
-7.9574
 30
0.0
 10
-14.6485
 20
-7.9574
 30
0.0
  0
SPLINE
  5
A5
330
1F
100
AcDbEntity
  8
Ilustrace
 62
   250
370
    30
100
AcDbSpline
210
0.0
220
0.0
230
1.0
 70
    24
 71
     3
 72
     8
 73
     4
 74
     0
 42
0.0000000001
 43
0.0000000001
 40
0.0
 40
0.0
 40
0.0
 40
0.0
 40
1.0
 40
1.0
 40
1.0
 40
1.0
 10
2.2788
 20
-8.2742
 30
0.0
 10
2.2788
 20
-8.2742
 30
0.0
 10
-14.6441
 20
-8.2742
 30
0.0
 10
-14.6441
 20
-8.2742
 30
0.0
  0
SPLINE
  5
A6
330
1F
100
AcDbEntity
  8
Ilustrace
 62
   250
370
    30
100
AcDbSpline
210
0.0
220
0.0
230
1.0
 70
    24
 71
     3
 72
     8
 73
     4
 74
     0
 42
0.0000000001
 43
0.0000000001
 40
0.0
 40
0.0
 40
0.0
 40
0.0
 40
1.0
 40
1.0
 40
1.0
 40
1.0
 10
1.1057
 20
-11.877
 30
0.0
 10
1.1057
 20
-11.877
 30
0.0
 10
-13.4711
 20
-11.877
 30
0.0
 10
-13.4711
 20
-11.877
 30
0.0
  0
SPLINE
  5
A7
330
1F
100
AcDbEntity
  8
Ilustrace
 62
   250
370
    30
100
AcDbSpline
210
0.0
220
0.0
230
1.0
 70
     8
 71
     3
 72
     8
 73
     4
 74
     0
 42
0.0000000001
 43
0.0000000001
 40
0.0
 40
0.0
 40
0.0
 40
0.0
 40
1.0
 40
1.0
 40
1.0
 40
1.0
 10
2.2169
 20
-5.2737
 30
0.0
 10
2.2167
 20
-5.3048
 30
0.0
 10
2.1435
 20
-6.372
 30
0.0
 10
2.2969
 20
-6.3778
 30
0.0
  0
SPLINE
  5
A8
330
1F
100
AcDbEntity
  8
Ilustrace
 62
   250
370
    30
100
AcDbSpline
210
0.0
220
0.0
230
1.0
 70
     8
 71
     3
 72
    20
 73
    16
 74
     0
 42
0.0000000001
 43
0.0000000001
 40
0.0
 40
0.0
 40
0.0
 40
0.0
 40
0.2
 40
0.2
 40
0.2
 40
0.2
 40
0.4
 40
0.4
 40
0.4
 40
0.4
 40
0.6
 40
0.6
 40
0.6
 40
0.6
 40
1.0
 40
1.0
 40
1.0
 40
1.0
 10
2.2969
 20
-6.3778
 30
0.0
 10
2.2969
 20
-6.3778
 30
0.0
 10
2.6557
 20
-6.3911
 30
0.0
 10
2.6557
 20
-6.3911
 30
0.0
 10
2.6557
 20
-6.3911
 30
0.0
 10
2.6557
 20
-6.3911
 30
0.0
 10
3.6943
 20
-6.4297
 30
0.0
 10
3.6943
 20
-6.4297
 30
0.0
 10
3.6943
 20
-6.4297
 30
0.0
 10
3.6943
 20
-6.4297
 30
0.0
 10
4.0531
 20
-6.4431
 30
0.0
 10
4.0531
 20
-6.4431
 30
0.0
 10
4.0531
 20
-6.4431
 30
0.0
 10
4.0531
 20
-6.4431
 30
0.0
 10
4.0683
 20
-6.4449
 30
0.0
 10
4.0683
 20
-6.4449
 30
0.0
  0
SPLINE
  5
A9
330
1F
100
AcDbEntity
  8
Ilustrace
 62
   250
370
    30
100
AcDbSpline
210
0.0
220
0.0
230
1.0
 70
     8
 71
     3
 72
    12
 73
     8
 74
     0
 42
0.0000000001
 43
0.0000000001
 40
0.0
 40
0.0
 40
0.0
 40
0.0
 40
0.3333333333333333
 40
0.3333333333333333
 40
0.3333333333333333
 40
0.3333333333333333
 40
1.0
 40
1.0
 40
1.0
 40
1.0
 10
4.0683
 20
-6.4449
 30
0.0
 10
4.1066
 20
-6.453
 30
0.0
 10
4.1359
 20
-6.4862
 30
0.0
 10
4.1393
 20
-6.5251
 30
0.0
 10
4.1393
 20
-6.5251
 30
0.0
 10
4.1437
 20
-6.5778
 30
0.0
 10
4.1082
 20
-6.627
 30
0.0
 10
4.0531
 20
-6.629
 30
0.0
  0
SPLINE
  5
AA
330
1F
100
AcDbEntity
  8
Ilustrace
 62
   250
370
    30
100
AcDbSpline
210
0.0
220
0.0
230
1.0
 70
     8
 71
     3
 72
    20
 73
    16
 74
     0
 42
0.0000000001
 43
0.0000000001
 40
0.0
 40
0.0
 40
0.0
 40
0.0
 40
0.2
 40
0.2
 40
0.2
 40
0.2
 40
0.4
 40
0.4
 40
0.4
 40
0.4
 40
0.6
 40
0.6
 40
0.6
 40
0.6
 40
1.0
 40
1.0
 40
1.0
 40
1.0
 10
4.0531
 20
-6.629
 30
0.0
 10
4.0531
 20
-6.629
 30
0.0
 10
3.6943
 20
-6.6424
 30
0.0
 10
3.6943
 20
-6.6424
 30
0.0
 10
3.6943
 20
-6.6424
 30
0.0
 10
3.6943
 20
-6.6424
 30
0.0
 10
2.6513
 20
-6.6811
 30
0.0
 10
2.6513
 20
-6.6811
 30
0.0
 10
2.6513
 20
-6.6811
 30
0.0
 10
2.6513
 20
-6.6811
 30
0.0
 10
2.2925
 20
-6.6944
 30
0.0
 10
2.2925
 20
-6.6944
 30
0.0
 10
2.2925
 20
-6.6944
 30
0.0
 10
2.2925
 20
-6.6944
 30
0.0
 10
2.2774
 20
-6.6963
 30
0.0
 10
2.2774
 20
-6.6963
 30
0.0
  0
SPLINE
  5
AB
330
1F
100
AcDbEntity
  8
Ilustrace
 62
   250
370
    30
100
AcDbSpline
210
0.0
220
0.0
230
1.0
 70
     8
 71
     3
 72
     8
 73
     4
 74
     0
 42
0.0000000001
 43
0.0000000001
 40
0.0
 40
0.0
 40
0.0
 40
0.0
 40
1.0
 40
1.0
 40
1.0
 40
1.0
 10
2.2774
 20
-6.6963
 30
0.0
 10
2.2366
 20
-6.7048
 30
0.0
 10
2.2065
 20
-6.7417
 30
0.0
 10
2.2062
 20
-6.7833
 30
0.0
  0
SPLINE
  5
AC
330
1F
100
AcDbEntity
  8
Ilustrace
 62
   250
370
    30
100
AcDbSpline
210
0.0
220
0.0
230
1.0
 70
     8
 71
     3
 72
    16
 73
    12
 74
     0
 42
0.0000000001
 43
0.0000000001
 40
0.0
 40
0.0
 40
0.0
 40
0.0
 40
0.25
 40
0.25
 40
0.25
 40
0.25
 40
0.5
 40
0.5
 40
0.5
 40
0.5
 40
1.0
 40
1.0
 40
1.0
 40
1.0
 10
2.2062
 20
-6.7833
 30
0.0
 10
2.2062
 20
-6.7833
 30
0.0
 10
2.203
 20
-7.1424
 30
0.0
 10
2.203
 20
-7.1424
 30
0.0
 10
2.203
 20
-7.1424
 30
0.0
 10
2.203
 20
-7.1424
 30
0.0
 10
2.1998
 20
-7.508
 30
0.0
 10
2.1998
 20
-7.508
 30
0.0
 10
2.1998
 20
-7.508
 30
0.0
 10
2.1998
 20
-7.508
 30
0.0
 10
2.1966
 20
-7.867
 30
0.0
 10
2.1966
 20
-7.867
 30
0.0
  0
SPLINE
  5
AD
330
1F
100
AcDbEntity
  8
Ilustrace
 62
   250
370
    30
100
AcDbSpline
210
0.0
220
0.0
230
1.0
 70
     8
 71
     3
 72
    12
 73
     8
 74
     0
 42
0.0000000001
 43
0.0000000001
 40
0.0
 40
0.0
 40
0.0
 40
0.0
 40
0.3333333333333333
 40
0.3333333333333333
 40
0.3333333333333333
 40
0.3333333333333333
 40
1.0
 40
1.0
 40
1.0
 40
1.0
 10
2.1966
 20
-7.867
 30
0.0
 10
2.1966
 20
-7.8798
 30
0.0
 10
2.1992
 20
-7.8927
 30
0.0
 10
2.2045
 20
-7.9044
 30
0.0
 10
2.2045
 20
-7.9044
 30
0.0
 10
2.2171
 20
-7.9329
 30
0.0
 10
2.2446
 20
-7.953
 30
0.0
 10
2.2754
 20
-7.9569
 30
0.0
  0
SPLINE
  5
AE
330
1F
100
AcDbEntity
  8
Ilustrace
 62
   250
370
    30
100
AcDbSpline
210
0.0
220
0.0
230
1.0
 70
     8
 71
     3
 72
    20
 73
    16
 74
     0
 42
0.0000000001
 43
0.0000000001
 40
0.0
 40
0.0
 40
0.0
 40
0.0
 40
0.2
 40
0.2
 40
0.2
 40
0.2
 40
0.4
 40
0.4
 40
0.4
 40
0.4
 40
0.6
 40
0.6
 40
0.6
 40
0.6
 40
1.0
 40
1.0
 40
1.0
 40
1.0
 10
2.2754
 20
-7.9569
 30
0.0
 10
2.2754
 20
-7.9569
 30
0.0
 10
2.6419
 20
-7.9708
 30
0.0
 10
2.6419
 20
-7.9708
 30
0.0
 10
2.6419
 20
-7.9708
 30
0.0
 10
2.6419
 20
-7.9708
 30
0.0
 10
3.6943
 20
-8.0096
 30
0.0
 10
3.6943
 20
-8.0096
 30
0.0
 10
3.6943
 20
-8.0096
 30
0.0
 10
3.6943
 20
-8.0096
 30
0.0
 10
4.0531
 20
-8.0228
 30
0.0
 10
4.0531
 20
-8.0228
 30
0.0
 10
4.0531
 20
-8.0228
 30
0.0
 10
4.0531
 20
-8.0228
 30
0.0
 10
4.0683
 20
-8.0247
 30
0.0
 10
4.0683
 20
-8.0247
 30
0.0
  0
SPLINE
  5
AF
330
1F
100
AcDbEntity
  8
Ilustrace
 62
   250
370
    30
100
AcDbSpline
210
0.0
220
0.0
230
1.0
 70
     8
 71
     3
 72
    12
 73
     8
 74
     0
 42
0.0000000001
 43
0.0000000001
 40
0.0
 40
0.0
 40
0.0
 40
0.0
 40
0.3333333333333333
 40
0.3333333333333333
 40
0.3333333333333333
 40
0.3333333333333333
 40
1.0
 40
1.0
 40
1.0
 40
1.0
 10
4.0683
 20
-8.0247
 30
0.0
 10
4.11
 20
-8.0335
 30
0.0
 10
4.1386
 20
-8.0705
 30
0.0
 10
4.1396
 20
-8.1125
 30
0.0
 10
4.1396
 20
-8.1125
 30
0.0
 10
4.1406
 20
-8.157
 30
0.0
 10
4.113
 20
-8.1974
 30
0.0
 10
4.0683
 20
-8.2069
 30
0.0
  0
SPLINE
  5
B0
330
1F
100
AcDbEntity
  8
Ilustrace
 62
   250
370
    30
100
AcDbSpline
210
0.0
220
0.0
230
1.0
 70
     8
 71
     3
 72
    20
 73
    16
 74
     0
 42
0.0000000001
 43
0.0000000001
 40
0.0
 40
0.0
 40
0.0
 40
0.0
 40
0.2
 40
0.2
 40
0.2
 40
0.2
 40
0.4
 40
0.4
 40
0.4
 40
0.4
 40
0.6
 40
0.6
 40
0.6
 40
0.6
 40
1.0
 40
1.0
 40
1.0
 40
1.0
 10
4.0683
 20
-8.2069
 30
0.0
 10
4.0683
 20
-8.2069
 30
0.0
 10
4.0531
 20
-8.2087
 30
0.0
 10
4.0531
 20
-8.2087
 30
0.0
 10
4.0531
 20
-8.2087
 30
0.0
 10
4.0531
 20
-8.2087
 30
0.0
 10
3.6943
 20
-8.222
 30
0.0
 10
3.6943
 20
-8.222
 30
0.0
 10
3.6943
 20
-8.222
 30
0.0
 10
3.6943
 20
-8.222
 30
0.0
 10
2.6376
 20
-8.261
 30
0.0
 10
2.6376
 20
-8.261
 30
0.0
 10
2.6376
 20
-8.261
 30
0.0
 10
2.6376
 20
-8.261
 30
0.0
 10
2.2712
 20
-8.2748
 30
0.0
 10
2.2712
 20
-8.2748
 30
0.0
  0
SPLINE
  5
B1
330
1F
100
AcDbEntity
  8
Ilustrace
 62
   250
370
    30
100
AcDbSpline
210
0.0
220
0.0
230
1.0
 70
     8
 71
     3
 72
     8
 73
     4
 74
     0
 42
0.0000000001
 43
0.0000000001
 40
0.0
 40
0.0
 40
0.0
 40
0.0
 40
1.0
 40
1.0
 40
1.0
 40
1.0
 10
2.2712
 20
-8.2748
 30
0.0
 10
2.2352
 20
-8.2792
 30
0.0
 10
2.2048
 20
-8.3057
 30
0.0
 10
2.1954
 20
-8.3406
 30
0.0
  0
SPLINE
  5
B2
330
1F
100
AcDbEntity
  8
Ilustrace
 62
   250
370
    30
100
AcDbSpline
210
0.0
220
0.0
230
1.0
 70
     8
 71
     3
 72
    20
 73
    16
 74
     0
 42
0.0000000001
 43
0.0000000001
 40
0.0
 40
0.0
 40
0.0
 40
0.0
 40
0.2
 40
0.2
 40
0.2
 40
0.2
 40
0.4
 40
0.4
 40
0.4
 40
0.4
 40
0.6
 40
0.6
 40
0.6
 40
0.6
 40
1.0
 40
1.0
 40
1.0
 40
1.0
 10
2.1954
 20
-8.3406
 30
0.0
 10
2.1954
 20
-8.3406
 30
0.0
 10
2.1923
 20
-8.3631
 30
0.0
 10
2.1923
 20
-8.3631
 30
0.0
 10
2.1923
 20
-8.3631
 30
0.0
 10
2.1923
 20
-8.3631
 30
0.0
 10
2.1893
 20
-8.7222
 30
0.0
 10
2.1893
 20
-8.7222
 30
0.0
 10
2.1893
 20
-8.7222
 30
0.0
 10
2.1893
 20
-8.7222
 30
0.0
 10
2.186
 20
-9.0877
 30
0.0
 10
2.186
 20
-9.0877
 30
0.0
 10
2.186
 20
-9.0877
 30
0.0
 10
2.186
 20
-9.0877
 30
0.0
 10
2.1829
 20
-9.4467
 30
0.0
 10
2.1829
 20
-9.4467
 30
0.0
  0
SPLINE
  5
B3
330
1F
100
AcDbEntity
  8
Ilustrace
 62
   250
370
    30
100
AcDbSpline
210
0.0
220
0.0
230
1.0
 70
     8
 71
     3
 72
     8
 73
     4
 74
     0
 42
0.0000000001
 43
0.0000000001
 40
0.0
 40
0.0
 40
0.0
 40
0.0
 40
1.0
 40
1.0
 40
1.0
 40
1.0
 10
2.1829
 20
-9.4467
 30
0.0
 10
2.1825
 20
-9.489
 30
0.0
 10
2.2128
 20
-9.5266
 30
0.0
 10
2.2541
 20
-9.5353
 30
0.0
  0
SPLINE
  5
B4
330
1F
100
AcDbEntity
  8
Ilustrace
 62
   250
370
    30
100
AcDbSpline
210
0.0
220
0.0
230
1.0
 70
     8
 71
     3
 72
    24
 73
    20
 74
     0
 42
0.0000000001
 43
0.0000000001
 40
0.0
 40
0.0
 40
0.0
 40
0.0
 40
0.1666666666666667
 40
0.1666666666666667
 40
0.1666666666666667
 40
0.1666666666666667
 40
0.3333333333333333
 40
0.3333333333333333
 40
0.3333333333333333
 40
0.3333333333333333
 40
0.5
 40
0.5
 40
0.5
 40
0.5
 40
0.6666666666666666
 40
0.6666666666666666
 40
0.6666666666666666
 40
0.6666666666666666
 40
1.0
 40
1.0
 40
1.0
 40
1.0
 10
2.2541
 20
-9.5353
 30
0.0
 10
2.2541
 20
-9.5353
 30
0.0
 10
2.2694
 20
-9.5372
 30
0.0
 10
2.2694
 20
-9.5372
 30
0.0
 10
2.2694
 20
-9.5372
 30
0.0
 10
2.2694
 20
-9.5372
 30
0.0
 10
2.6281
 20
-9.5504
 30
0.0
 10
2.6281
 20
-9.5504
 30
0.0
 10
2.6281
 20
-9.5504
 30
0.0
 10
2.6281
 20
-9.5504
 30
0.0
 10
3.2455
 20
-9.573
 30
0.0
 10
3.2455
 20
-9.573
 30
0.0
 10
3.2455
 20
-9.573
 30
0.0
 10
3.2455
 20
-9.573
 30
0.0
 10
3.6043
 20
-9.5861
 30
0.0
 10
3.6043
 20
-9.5861
 30
0.0
 10
3.6043
 20
-9.5861
 30
0.0
 10
3.6043
 20
-9.5861
 30
0.0
 10
3.6195
 20
-9.5881
 30
0.0
 10
3.6195
 20
-9.5881
 30
0.0
  0
SPLINE
  5
B5
330
1F
100
AcDbEntity
  8
Ilustrace
 62
   250
370
    30
100
AcDbSpline
210
0.0
220
0.0
230
1.0
 70
     8
 71
     3
 72
    12
 73
     8
 74
     0
 42
0.0000000001
 43
0.0000000001
 40
0.0
 40
0.0
 40
0.0
 40
0.0
 40
0.3333333333333333
 40
0.3333333333333333
 40
0.3333333333333333
 40
0.3333333333333333
 40
1.0
 40
1.0
 40
1.0
 40
1.0
 10
3.6195
 20
-9.5881
 30
0.0
 10
3.6552
 20
-9.5956
 30
0.0
 10
3.6833
 20
-9.6248
 30
0.0
 10
3.6894
 20
-9.6606
 30
0.0
 10
3.6894
 20
-9.6606
 30
0.0
 10
3.73
 20
-9.8958
 30
0.0
 10
3.3563
 20
-9.8141
 30
0.0
 10
3.2455
 20
-9.8181
 30
0.0
  0
SPLINE
  5
B6
330
1F
100
AcDbEntity
  8
Ilustrace
 62
   250
370
    30
100
AcDbSpline
210
0.0
220
0.0
230
1.0
 70
     8
 71
     3
 72
    12
 73
     8
 74
     0
 42
0.0000000001
 43
0.0000000001
 40
0.0
 40
0.0
 40
0.0
 40
0.0
 40
0.3333333333333333
 40
0.3333333333333333
 40
0.3333333333333333
 40
0.3333333333333333
 40
1.0
 40
1.0
 40
1.0
 40
1.0
 10
3.2455
 20
-9.8181
 30
0.0
 10
3.2455
 20
-9.8181
 30
0.0
 10
2.6238
 20
-9.8409
 30
0.0
 10
2.6238
 20
-9.8409
 30
0.0
 10
2.6238
 20
-9.8409
 30
0.0
 10
2.6238
 20
-9.8409
 30
0.0
 10
2.2575
 20
-9.8547
 30
0.0
 10
2.2575
 20
-9.8547
 30
0.0
  0
SPLINE
  5
B7
330
1F
100
AcDbEntity
  8
Ilustrace
 62
   250
370
    30
100
AcDbSpline
210
0.0
220
0.0
230
1.0
 70
     8
 71
     3
 72
    12
 73
     8
 74
     0
 42
0.0000000001
 43
0.0000000001
 40
0.0
 40
0.0
 40
0.0
 40
0.0
 40
0.3333333333333333
 40
0.3333333333333333
 40
0.3333333333333333
 40
0.3333333333333333
 40
1.0
 40
1.0
 40
1.0
 40
1.0
 10
2.2575
 20
-9.8547
 30
0.0
 10
2.2269
 20
-9.8583
 30
0.0
 10
2.1998
 20
-9.8781
 30
0.0
 10
2.1869
 20
-9.9062
 30
0.0
 10
2.1869
 20
-9.9062
 30
0.0
 10
2.1815
 20
-9.9177
 30
0.0
 10
2.1786
 20
-9.9302
 30
0.0
 10
2.1785
 20
-9.9429
 30
0.0
  0
SPLINE
  5
B8
330
1F
100
AcDbEntity
  8
Ilustrace
 62
   250
370
    30
100
AcDbSpline
210
0.0
220
0.0
230
1.0
 70
     8
 71
     3
 72
    16
 73
    12
 74
     0
 42
0.0000000001
 43
0.0000000001
 40
0.0
 40
0.0
 40
0.0
 40
0.0
 40
0.25
 40
0.25
 40
0.25
 40
0.25
 40
0.5
 40
0.5
 40
0.5
 40
0.5
 40
1.0
 40
1.0
 40
1.0
 40
1.0
 10
2.1785
 20
-9.9429
 30
0.0
 10
2.1785
 20
-9.9429
 30
0.0
 10
2.1755
 20
-10.302
 30
0.0
 10
2.1755
 20
-10.302
 30
0.0
 10
2.1755
 20
-10.302
 30
0.0
 10
2.1755
 20
-10.302
 30
0.0
 10
2.1722
 20
-10.6675
 30
0.0
 10
2.1722
 20
-10.6675
 30
0.0
 10
2.1722
 20
-10.6675
 30
0.0
 10
2.1722
 20
-10.6675
 30
0.0
 10
2.1691
 20
-11.0264
 30
0.0
 10
2.1691
 20
-11.0264
 30
0.0
  0
SPLINE
  5
B9
330
1F
100
AcDbEntity
  8
Ilustrace
 62
   250
370
    30
100
AcDbSpline
210
0.0
220
0.0
230
1.0
 70
     8
 71
     3
 72
    12
 73
     8
 74
     0
 42
0.0000000001
 43
0.0000000001
 40
0.0
 40
0.0
 40
0.0
 40
0.0
 40
0.3333333333333333
 40
0.3333333333333333
 40
0.3333333333333333
 40
0.3333333333333333
 40
1.0
 40
1.0
 40
1.0
 40
1.0
 10
2.1691
 20
-11.0264
 30
0.0
 10
2.1689
 20
-11.055
 30
0.0
 10
2.1826
 20
-11.0824
 30
0.0
 10
2.2055
 20
-11.0994
 30
0.0
 10
2.2055
 20
-11.0994
 30
0.0
 10
2.22
 20
-11.1102
 30
0.0
 10
2.2375
 20
-11.1162
 30
0.0
 10
2.2556
 20
-11.1169
 30
0.0
  0
SPLINE
  5
BA
330
1F
100
AcDbEntity
  8
Ilustrace
 62
   250
370
    30
100
AcDbSpline
210
0.0
220
0.0
230
1.0
 70
     8
 71
     3
 72
    16
 73
    12
 74
     0
 42
0.0000000001
 43
0.0000000001
 40
0.0
 40
0.0
 40
0.0
 40
0.0
 40
0.25
 40
0.25
 40
0.25
 40
0.25
 40
0.5
 40
0.5
 40
0.5
 40
0.5
 40
1.0
 40
1.0
 40
1.0
 40
1.0
 10
2.2556
 20
-11.1169
 30
0.0
 10
2.2556
 20
-11.1169
 30
0.0
 10
2.6143
 20
-11.13
 30
0.0
 10
2.6143
 20
-11.13
 30
0.0
 10
2.6143
 20
-11.13
 30
0.0
 10
2.6143
 20
-11.13
 30
0.0
 10
2.7967
 20
-11.1366
 30
0.0
 10
2.7967
 20
-11.1366
 30
0.0
 10
2.7967
 20
-11.1366
 30
0.0
 10
2.7967
 20
-11.1366
 30
0.0
 10
3.1555
 20
-11.1498
 30
0.0
 10
3.1555
 20
-11.1498
 30
0.0
  0
SPLINE
  5
BB
330
1F
100
AcDbEntity
  8
Ilustrace
 62
   250
370
    30
100
AcDbSpline
210
0.0
220
0.0
230
1.0
 70
     8
 71
     3
 72
    16
 73
    12
 74
     0
 42
0.0000000001
 43
0.0000000001
 40
0.0
 40
0.0
 40
0.0
 40
0.0
 40
0.25
 40
0.25
 40
0.25
 40
0.25
 40
0.5
 40
0.5
 40
0.5
 40
0.5
 40
1.0
 40
1.0
 40
1.0
 40
1.0
 10
3.1555
 20
-11.1498
 30
0.0
 10
3.1811
 20
-11.1506
 30
0.0
 10
3.2056
 20
-11.1629
 30
0.0
 10
3.2219
 20
-11.1828
 30
0.0
 10
3.2219
 20
-11.1828
 30
0.0
 10
3.2655
 20
-11.2365
 30
0.0
 10
3.2598
 20
-11.3579
 30
0.0
 10
3.1922
 20
-11.3915
 30
0.0
 10
3.1922
 20
-11.3915
 30
0.0
 10
3.1808
 20
-11.3971
 30
0.0
 10
3.1683
 20
-11.4003
 30
0.0
 10
3.1555
 20
-11.4008
 30
0.0
  0
SPLINE
  5
BC
330
1F
100
AcDbEntity
  8
Ilustrace
 62
   250
370
    30
100
AcDbSpline
210
0.0
220
0.0
230
1.0
 70
     8
 71
     3
 72
    20
 73
    16
 74
     0
 42
0.0000000001
 43
0.0000000001
 40
0.0
 40
0.0
 40
0.0
 40
0.0
 40
0.2
 40
0.2
 40
0.2
 40
0.2
 40
0.4
 40
0.4
 40
0.4
 40
0.4
 40
0.6
 40
0.6
 40
0.6
 40
0.6
 40
1.0
 40
1.0
 40
1.0
 40
1.0
 10
3.1555
 20
-11.4008
 30
0.0
 10
3.1555
 20
-11.4008
 30
0.0
 10
2.7967
 20
-11.4139
 30
0.0
 10
2.7967
 20
-11.4139
 30
0.0
 10
2.7967
 20
-11.4139
 30
0.0
 10
2.7967
 20
-11.4139
 30
0.0
 10
2.6102
 20
-11.4207
 30
0.0
 10
2.6102
 20
-11.4207
 30
0.0
 10
2.6102
 20
-11.4207
 30
0.0
 10
2.6102
 20
-11.4207
 30
0.0
 10
2.2514
 20
-11.4338
 30
0.0
 10
2.2514
 20
-11.4338
 30
0.0
 10
2.2514
 20
-11.4338
 30
0.0
 10
2.2514
 20
-11.4338
 30
0.0
 10
2.2288
 20
-11.4375
 30
0.0
 10
2.2288
 20
-11.4375
 30
0.0
  0
SPLINE
  5
BD
330
1F
100
AcDbEntity
  8
Ilustrace
 62
   250
370
    30
100
AcDbSpline
210
0.0
220
0.0
230
1.0
 70
     8
 71
     3
 72
    12
 73
     8
 74
     0
 42
0.0000000001
 43
0.0000000001
 40
0.0
 40
0.0
 40
0.0
 40
0.0
 40
0.3333333333333333
 40
0.3333333333333333
 40
0.3333333333333333
 40
0.3333333333333333
 40
1.0
 40
1.0
 40
1.0
 40
1.0
 10
2.2288
 20
-11.4375
 30
0.0
 10
2.1072
 20
-11.474
 30
0.0
 10
2.1649
 20
-11.7424
 30
0.0
 10
2.1649
 20
-11.7788
 30
0.0
 10
2.1649
 20
-11.7788
 30
0.0
 10
2.1648
 20
-11.829
 30
0.0
 10
2.1244
 20
-11.866
 30
0.0
 10
2.0758
 20
-11.8685
 30
0.0
  0
SPLINE
  5
BE
330
1F
100
AcDbEntity
  8
Ilustrace
 62
   250
370
    30
100
AcDbSpline
210
0.0
220
0.0
230
1.0
 70
     8
 71
     3
 72
     8
 73
     4
 74
     0
 42
0.0000000001
 43
0.0000000001
 40
0.0
 40
0.0
 40
0.0
 40
0.0
 40
1.0
 40
1.0
 40
1.0
 40
1.0
 10
2.2191
 20
-5.2999
 30
0.0
 10
2.2197
 20
-5.2318
 30
0.0
 10
2.2067
 20
-5.1185
 30
0.0
 10
2.3064
 20
-5.1147
 30
0.0
  0
SPLINE
  5
BF
330
1F
100
AcDbEntity
  8
Ilustrace
 62
   250
370
    30
100
AcDbSpline
210
0.0
220
0.0
230
1.0
 70
     8
 71
     3
 72
    16
 73
    12
 74
     0
 42
0.0000000001
 43
0.0000000001
 40
0.0
 40
0.0
 40
0.0
 40
0.0
 40
0.25
 40
0.25
 40
0.25
 40
0.25
 40
0.5
 40
0.5
 40
0.5
 40
0.5
 40
1.0
 40
1.0
 40
1.0
 40
1.0
 10
2.3064
 20
-5.1147
 30
0.0
 10
2.3064
 20
-5.1147
 30
0.0
 10
2.6651
 20
-5.1013
 30
0.0
 10
2.6651
 20
-5.1013
 30
0.0
 10
2.6651
 20
-5.1013
 30
0.0
 10
2.6651
 20
-5.1013
 30
0.0
 10
3.6943
 20
-5.0631
 30
0.0
 10
3.6943
 20
-5.0631
 30
0.0
 10
3.6943
 20
-5.0631
 30
0.0
 10
3.6943
 20
-5.0631
 30
0.0
 10
4.0531
 20
-5.0498
 30
0.0
 10
4.0531
 20
-5.0498
 30
0.0
  0
SPLINE
  5
C0
330
1F
100
AcDbEntity
  8
Ilustrace
 62
   250
370
    30
100
AcDbSpline
210
0.0
220
0.0
230
1.0
 70
     8
 71
     3
 72
    12
 73
     8
 74
     0
 42
0.0000000001
 43
0.0000000001
 40
0.0
 40
0.0
 40
0.0
 40
0.0
 40
0.3333333333333333
 40
0.3333333333333333
 40
0.3333333333333333
 40
0.3333333333333333
 40
1.0
 40
1.0
 40
1.0
 40
1.0
 10
4.0531
 20
-5.0498
 30
0.0
 10
4.142
 20
-5.0465
 30
0.0
 10
4.1714
 20
-4.9226
 30
0.0
 10
4.0966
 20
-4.8769
 30
0.0
 10
4.0966
 20
-4.8769
 30
0.0
 10
4.0835
 20
-4.869
 30
0.0
 10
4.0685
 20
-4.8644
 30
0.0
 10
4.0531
 20
-4.8638
 30
0.0
  0
SPLINE
  5
C1
330
1F
100
AcDbEntity
  8
Ilustrace
 62
   250
370
    30
100
AcDbSpline
210
0.0
220
0.0
230
1.0
 70
     8
 71
     3
 72
    36
 73
    32
 74
     0
 42
0.0000000001
 43
0.0000000001
 40
0.0
 40
0.0
 40
0.0
 40
0.0
 40
0.1111111111111111
 40
0.1111111111111111
 40
0.1111111111111111
 40
0.1111111111111111
 40
0.2222222222222222
 40
0.2222222222222222
 40
0.2222222222222222
 40
0.2222222222222222
 40
0.3333333333333333
 40
0.3333333333333333
 40
0.3333333333333333
 40
0.3333333333333333
 40
0.4444444444444444
 40
0.4444444444444444
 40
0.4444444444444444
 40
0.4444444444444444
 40
0.5555555555555556
 40
0.5555555555555556
 40
0.5555555555555556
 40
0.5555555555555556
 40
0.6666666666666666
 40
0.6666666666666666
 40
0.6666666666666666
 40
0.6666666666666666
 40
0.7777777777777778
 40
0.7777777777777778
 40
0.7777777777777778
 40
0.7777777777777778
 40
1.0
 40
1.0
 40
1.0
 40
1.0
 10
4.0531
 20
-4.8638
 30
0.0
 10
4.0531
 20
-4.8638
 30
0.0
 10
3.6943
 20
-4.8505
 30
0.0
 10
3.6943
 20
-4.8505
 30
0.0
 10
3.6943
 20
-4.8505
 30
0.0
 10
3.6943
 20
-4.8505
 30
0.0
 10
2.3131
 20
-4.7991
 30
0.0
 10
2.3131
 20
-4.7991
 30
0.0
 10
2.3131
 20
-4.7991
 30
0.0
 10
2.3131
 20
-4.7991
 30
0.0
 10
1.5952
 20
-4.7857
 30
0.0
 10
1.5952
 20
-4.7857
 30
0.0
 10
1.5952
 20
-4.7857
 30
0.0
 10
1.5952
 20
-4.7857
 30
0.0
 10
-13.9606
 20
-4.7857
 30
0.0
 10
-13.9606
 20
-4.7857
 30
0.0
 10
-13.9606
 20
-4.7857
 30
0.0
 10
-13.9606
 20
-4.7857
 30
0.0
 10
-14.3196
 20
-4.7857
 30
0.0
 10
-14.3196
 20
-4.7857
 30
0.0
 10
-14.3196
 20
-4.7857
 30
0.0
 10
-14.3196
 20
-4.7857
 30
0.0
 10
-14.6784
 20
-4.7991
 30
0.0
 10
-14.6784
 20
-4.7991
 30
0.0
 10
-14.6784
 20
-4.7991
 30
0.0
 10
-14.6784
 20
-4.7991
 30
0.0
 10
-16.0597
 20
-4.8505
 30
0.0
 10
-16.0597
 20
-4.8505
 30
0.0
 10
-16.0597
 20
-4.8505
 30
0.0
 10
-16.0597
 20
-4.8505
 30
0.0
 10
-16.4185
 20
-4.8638
 30
0.0
 10
-16.4185
 20
-4.8638
 30
0.0
  0
SPLINE
  5
C2
330
1F
100
AcDbEntity
  8
Ilustrace
 62
   250
370
    30
100
AcDbSpline
210
0.0
220
0.0
230
1.0
 70
     8
 71
     3
 72
    12
 73
     8
 74
     0
 42
0.0000000001
 43
0.0000000001
 40
0.0
 40
0.0
 40
0.0
 40
0.0
 40
0.3333333333333333
 40
0.3333333333333333
 40
0.3333333333333333
 40
0.3333333333333333
 40
1.0
 40
1.0
 40
1.0
 40
1.0
 10
-16.4185
 20
-4.8638
 30
0.0
 10
-16.4495
 20
-4.865
 30
0.0
 10
-16.4783
 20
-4.8826
 30
0.0
 10
-16.4935
 20
-4.9096
 30
0.0
 10
-16.4935
 20
-4.9096
 30
0.0
 10
-16.5203
 20
-4.9575
 30
0.0
 10
-16.5
 20
-5.023
 30
0.0
 10
-16.4483
 20
-5.0435
 30
0.0
  0
SPLINE
  5
C3
330
1F
100
AcDbEntity
  8
Ilustrace
 62
   250
370
    30
100
AcDbSpline
210
0.0
220
0.0
230
1.0
 70
     8
 71
     3
 72
    20
 73
    16
 74
     0
 42
0.0000000001
 43
0.0000000001
 40
0.0
 40
0.0
 40
0.0
 40
0.0
 40
0.2
 40
0.2
 40
0.2
 40
0.2
 40
0.4
 40
0.4
 40
0.4
 40
0.4
 40
0.6
 40
0.6
 40
0.6
 40
0.6
 40
1.0
 40
1.0
 40
1.0
 40
1.0
 10
-16.4483
 20
-5.0435
 30
0.0
 10
-16.4483
 20
-5.0435
 30
0.0
 10
-16.4185
 20
-5.0498
 30
0.0
 10
-16.4185
 20
-5.0498
 30
0.0
 10
-16.4185
 20
-5.0498
 30
0.0
 10
-16.4185
 20
-5.0498
 30
0.0
 10
-16.0597
 20
-5.0631
 30
0.0
 10
-16.0597
 20
-5.0631
 30
0.0
 10
-16.0597
 20
-5.0631
 30
0.0
 10
-16.0597
 20
-5.0631
 30
0.0
 10
-15.0305
 20
-5.1013
 30
0.0
 10
-15.0305
 20
-5.1013
 30
0.0
 10
-15.0305
 20
-5.1013
 30
0.0
 10
-15.0305
 20
-5.1013
 30
0.0
 10
-14.6717
 20
-5.1147
 30
0.0
 10
-14.6717
 20
-5.1147
 30
0.0
  0
SPLINE
  5
C4
330
1F
100
AcDbEntity
  8
Ilustrace
 62
   250
370
    30
100
AcDbSpline
210
0.0
220
0.0
230
1.0
 70
     8
 71
     3
 72
    12
 73
     8
 74
     0
 42
0.0000000001
 43
0.0000000001
 40
0.0
 40
0.0
 40
0.0
 40
0.0
 40
0.3333333333333333
 40
0.3333333333333333
 40
0.3333333333333333
 40
0.3333333333333333
 40
1.0
 40
1.0
 40
1.0
 40
1.0
 10
-14.6717
 20
-5.1147
 30
0.0
 10
-14.6539
 20
-5.1154
 30
0.0
 10
-14.6366
 20
-5.1214
 30
0.0
 10
-14.6222
 20
-5.1319
 30
0.0
 10
-14.6222
 20
-5.1319
 30
0.0
 10
-14.5994
 20
-5.1485
 30
0.0
 10
-14.5856
 20
-5.1754
 30
0.0
 10
-14.5853
 20
-5.2036
 30
0.0
  0
SPLINE
  5
C5
330
1F
100
AcDbEntity
  8
Ilustrace
 62
   250
370
    30
100
AcDbSpline
210
0.0
220
0.0
230
1.0
 70
    24
 71
     3
 72
     8
 73
     4
 74
     0
 42
0.0000000001
 43
0.0000000001
 40
0.0
 40
0.0
 40
0.0
 40
0.0
 40
1.0
 40
1.0
 40
1.0
 40
1.0
 10
-14.5853
 20
-5.2036
 30
0.0
 10
-14.5853
 20
-5.2036
 30
0.0
 10
-14.5822
 20
-5.5626
 30
0.0
 10
-14.5822
 20
-5.5626
 30
0.0
  0
SPLINE
  5
C6
330
1F
100
AcDbEntity
  8
Ilustrace
 62
   250
370
    30
100
AcDbSpline
210
0.0
220
0.0
230
1.0
 70
     8
 71
     3
 72
    12
 73
     8
 74
     0
 42
0.0000000001
 43
0.0000000001
 40
0.0
 40
0.0
 40
0.0
 40
0.0
 40
0.3333333333333333
 40
0.3333333333333333
 40
0.3333333333333333
 40
0.3333333333333333
 40
1.0
 40
1.0
 40
1.0
 40
1.0
 10
-14.5822
 20
-5.5626
 30
0.0
 10
-14.5812
 20
-5.6812
 30
0.0
 10
-14.567
 20
-6.1767
 30
0.0
 10
-14.5762
 20
-6.295
 30
0.0
 10
-14.5762
 20
-6.295
 30
0.0
 10
-14.5791
 20
-6.3342
 30
0.0
 10
-14.6085
 20
-6.3677
 30
0.0
 10
-14.647
 20
-6.3758
 30
0.0
  0
SPLINE
  5
C7
330
1F
100
AcDbEntity
  8
Ilustrace
 62
   250
370
    30
100
AcDbSpline
210
0.0
220
0.0
230
1.0
 70
     8
 71
     3
 72
    24
 73
    20
 74
     0
 42
0.0000000001
 43
0.0000000001
 40
0.0
 40
0.0
 40
0.0
 40
0.0
 40
0.1666666666666667
 40
0.1666666666666667
 40
0.1666666666666667
 40
0.1666666666666667
 40
0.3333333333333333
 40
0.3333333333333333
 40
0.3333333333333333
 40
0.3333333333333333
 40
0.5
 40
0.5
 40
0.5
 40
0.5
 40
0.6666666666666666
 40
0.6666666666666666
 40
0.6666666666666666
 40
0.6666666666666666
 40
1.0
 40
1.0
 40
1.0
 40
1.0
 10
-14.647
 20
-6.3758
 30
0.0
 10
-14.647
 20
-6.3758
 30
0.0
 10
-14.6622
 20
-6.3778
 30
0.0
 10
-14.6622
 20
-6.3778
 30
0.0
 10
-14.6622
 20
-6.3778
 30
0.0
 10
-14.6622
 20
-6.3778
 30
0.0
 10
-15.021
 20
-6.3911
 30
0.0
 10
-15.021
 20
-6.3911
 30
0.0
 10
-15.021
 20
-6.3911
 30
0.0
 10
-15.021
 20
-6.3911
 30
0.0
 10
-16.0597
 20
-6.4297
 30
0.0
 10
-16.0597
 20
-6.4297
 30
0.0
 10
-16.0597
 20
-6.4297
 30
0.0
 10
-16.0597
 20
-6.4297
 30
0.0
 10
-16.4185
 20
-6.4431
 30
0.0
 10
-16.4185
 20
-6.4431
 30
0.0
 10
-16.4185
 20
-6.4431
 30
0.0
 10
-16.4185
 20
-6.4431
 30
0.0
 10
-16.4411
 20
-6.4469
 30
0.0
 10
-16.4411
 20
-6.4469
 30
0.0
  0
SPLINE
  5
C8
330
1F
100
AcDbEntity
  8
Ilustrace
 62
   250
370
    30
100
AcDbSpline
210
0.0
220
0.0
230
1.0
 70
     8
 71
     3
 72
    12
 73
     8
 74
     0
 42
0.0000000001
 43
0.0000000001
 40
0.0
 40
0.0
 40
0.0
 40
0.0
 40
0.3333333333333333
 40
0.3333333333333333
 40
0.3333333333333333
 40
0.3333333333333333
 40
1.0
 40
1.0
 40
1.0
 40
1.0
 10
-16.4411
 20
-6.4469
 30
0.0
 10
-16.4923
 20
-6.4623
 30
0.0
 10
-16.5172
 20
-6.5201
 30
0.0
 10
-16.4998
 20
-6.5693
 30
0.0
 10
-16.4998
 20
-6.5693
 30
0.0
 10
-16.4886
 20
-6.6011
 30
0.0
 10
-16.4596
 20
-6.6243
 30
0.0
 10
-16.4261
 20
-6.6284
 30
0.0
  0
SPLINE
  5
C9
330
1F
100
AcDbEntity
  8
Ilustrace
 62
   250
370
    30
100
AcDbSpline
210
0.0
220
0.0
230
1.0
 70
     8
 71
     3
 72
    20
 73
    16
 74
     0
 42
0.0000000001
 43
0.0000000001
 40
0.0
 40
0.0
 40
0.0
 40
0.0
 40
0.2
 40
0.2
 40
0.2
 40
0.2
 40
0.4
 40
0.4
 40
0.4
 40
0.4
 40
0.6
 40
0.6
 40
0.6
 40
0.6
 40
1.0
 40
1.0
 40
1.0
 40
1.0
 10
-16.4261
 20
-6.6284
 30
0.0
 10
-16.4261
 20
-6.6284
 30
0.0
 10
-16.0597
 20
-6.6424
 30
0.0
 10
-16.0597
 20
-6.6424
 30
0.0
 10
-16.0597
 20
-6.6424
 30
0.0
 10
-16.0597
 20
-6.6424
 30
0.0
 10
-15.0167
 20
-6.6811
 30
0.0
 10
-15.0167
 20
-6.6811
 30
0.0
 10
-15.0167
 20
-6.6811
 30
0.0
 10
-15.0167
 20
-6.6811
 30
0.0
 10
-14.658
 20
-6.6944
 30
0.0
 10
-14.658
 20
-6.6944
 30
0.0
 10
-14.658
 20
-6.6944
 30
0.0
 10
-14.658
 20
-6.6944
 30
0.0
 10
-14.6429
 20
-6.6963
 30
0.0
 10
-14.6429
 20
-6.6963
 30
0.0
  0
SPLINE
  5
CA
330
1F
100
AcDbEntity
  8
Ilustrace
 62
   250
370
    30
100
AcDbSpline
210
0.0
220
0.0
230
1.0
 70
     8
 71
     3
 72
    12
 73
     8
 74
     0
 42
0.0000000001
 43
0.0000000001
 40
0.0
 40
0.0
 40
0.0
 40
0.0
 40
0.3333333333333333
 40
0.3333333333333333
 40
0.3333333333333333
 40
0.3333333333333333
 40
1.0
 40
1.0
 40
1.0
 40
1.0
 10
-14.6429
 20
-6.6963
 30
0.0
 10
-14.6075
 20
-6.7038
 30
0.0
 10
-14.5793
 20
-6.7326
 30
0.0
 10
-14.5729
 20
-6.7683
 30
0.0
 10
-14.5729
 20
-6.7683
 30
0.0
 10
-14.5494
 20
-6.899
 30
0.0
 10
-14.5664
 20
-7.3743
 30
0.0
 10
-14.5652
 20
-7.508
 30
0.0
  0
SPLINE
  5
CB
330
1F
100
AcDbEntity
  8
Ilustrace
 62
   250
370
    30
100
AcDbSpline
210
0.0
220
0.0
230
1.0
 70
    24
 71
     3
 72
     8
 73
     4
 74
     0
 42
0.0000000001
 43
0.0000000001
 40
0.0
 40
0.0
 40
0.0
 40
0.0
 40
1.0
 40
1.0
 40
1.0
 40
1.0
 10
-14.5652
 20
-7.508
 30
0.0
 10
-14.5652
 20
-7.508
 30
0.0
 10
-14.562
 20
-7.867
 30
0.0
 10
-14.562
 20
-7.867
 30
0.0
  0
SPLINE
  5
CC
330
1F
100
AcDbEntity
  8
Ilustrace
 62
   250
370
    30
100
AcDbSpline
210
0.0
220
0.0
230
1.0
 70
     8
 71
     3
 72
    12
 73
     8
 74
     0
 42
0.0000000001
 43
0.0000000001
 40
0.0
 40
0.0
 40
0.0
 40
0.0
 40
0.3333333333333333
 40
0.3333333333333333
 40
0.3333333333333333
 40
0.3333333333333333
 40
1.0
 40
1.0
 40
1.0
 40
1.0
 10
-14.562
 20
-7.867
 30
0.0
 10
-14.5619
 20
-7.8956
 30
0.0
 10
-14.5755
 20
-7.923
 30
0.0
 10
-14.5985
 20
-7.94
 30
0.0
 10
-14.5985
 20
-7.94
 30
0.0
 10
-14.6129
 20
-7.9507
 30
0.0
 10
-14.6306
 20
-7.9568
 30
0.0
 10
-14.6485
 20
-7.9574
 30
0.0
  0
SPLINE
  5
CD
330
1F
100
AcDbEntity
  8
Ilustrace
 62
   250
370
    30
100
AcDbSpline
210
0.0
220
0.0
230
1.0
 70
     8
 71
     3
 72
    20
 73
    16
 74
     0
 42
0.0000000001
 43
0.0000000001
 40
0.0
 40
0.0
 40
0.0
 40
0.0
 40
0.2
 40
0.2
 40
0.2
 40
0.2
 40
0.4
 40
0.4
 40
0.4
 40
0.4
 40
0.6
 40
0.6
 40
0.6
 40
0.6
 40
1.0
 40
1.0
 40
1.0
 40
1.0
 10
-14.6485
 20
-7.9574
 30
0.0
 10
-14.6485
 20
-7.9574
 30
0.0
 10
-15.0072
 20
-7.9708
 30
0.0
 10
-15.0072
 20
-7.9708
 30
0.0
 10
-15.0072
 20
-7.9708
 30
0.0
 10
-15.0072
 20
-7.9708
 30
0.0
 10
-16.0597
 20
-8.0096
 30
0.0
 10
-16.0597
 20
-8.0096
 30
0.0
 10
-16.0597
 20
-8.0096
 30
0.0
 10
-16.0597
 20
-8.0096
 30
0.0
 10
-16.4185
 20
-8.0228
 30
0.0
 10
-16.4185
 20
-8.0228
 30
0.0
 10
-16.4185
 20
-8.0228
 30
0.0
 10
-16.4185
 20
-8.0228
 30
0.0
 10
-16.4411
 20
-8.0266
 30
0.0
 10
-16.4411
 20
-8.0266
 30
0.0
  0
SPLINE
  5
CE
330
1F
100
AcDbEntity
  8
Ilustrace
 62
   250
370
    30
100
AcDbSpline
210
0.0
220
0.0
230
1.0
 70
     8
 71
     3
 72
    12
 73
     8
 74
     0
 42
0.0000000001
 43
0.0000000001
 40
0.0
 40
0.0
 40
0.0
 40
0.0
 40
0.3333333333333333
 40
0.3333333333333333
 40
0.3333333333333333
 40
0.3333333333333333
 40
1.0
 40
1.0
 40
1.0
 40
1.0
 10
-16.4411
 20
-8.0266
 30
0.0
 10
-16.4897
 20
-8.0413
 30
0.0
 10
-16.5146
 20
-8.0938
 30
0.0
 10
-16.5021
 20
-8.1417
 30
0.0
 10
-16.5021
 20
-8.1417
 30
0.0
 10
-16.4928
 20
-8.1771
 30
0.0
 10
-16.4623
 20
-8.2037
 30
0.0
 10
-16.4261
 20
-8.2081
 30
0.0
  0
SPLINE
  5
CF
330
1F
100
AcDbEntity
  8
Ilustrace
 62
   250
370
    30
100
AcDbSpline
210
0.0
220
0.0
230
1.0
 70
     8
 71
     3
 72
    16
 73
    12
 74
     0
 42
0.0000000001
 43
0.0000000001
 40
0.0
 40
0.0
 40
0.0
 40
0.0
 40
0.25
 40
0.25
 40
0.25
 40
0.25
 40
0.5
 40
0.5
 40
0.5
 40
0.5
 40
1.0
 40
1.0
 40
1.0
 40
1.0
 10
-16.4261
 20
-8.2081
 30
0.0
 10
-16.4261
 20
-8.2081
 30
0.0
 10
-16.0597
 20
-8.222
 30
0.0
 10
-16.0597
 20
-8.222
 30
0.0
 10
-16.0597
 20
-8.222
 30
0.0
 10
-16.0597
 20
-8.222
 30
0.0
 10
-15.003
 20
-8.261
 30
0.0
 10
-15.003
 20
-8.261
 30
0.0
 10
-15.003
 20
-8.261
 30
0.0
 10
-15.003
 20
-8.261
 30
0.0
 10
-14.6441
 20
-8.2742
 30
0.0
 10
-14.6441
 20
-8.2742
 30
0.0
  0
SPLINE
  5
D0
330
1F
100
AcDbEntity
  8
Ilustrace
 62
   250
370
    30
100
AcDbSpline
210
0.0
220
0.0
230
1.0
 70
     8
 71
     3
 72
    12
 73
     8
 74
     0
 42
0.0000000001
 43
0.0000000001
 40
0.0
 40
0.0
 40
0.0
 40
0.0
 40
0.3333333333333333
 40
0.3333333333333333
 40
0.3333333333333333
 40
0.3333333333333333
 40
1.0
 40
1.0
 40
1.0
 40
1.0
 10
-14.6441
 20
-8.2742
 30
0.0
 10
-14.6186
 20
-8.2752
 30
0.0
 10
-14.5943
 20
-8.2872
 30
0.0
 10
-14.5781
 20
-8.3071
 30
0.0
 10
-14.5781
 20
-8.3071
 30
0.0
 10
-14.5652
 20
-8.3228
 30
0.0
 10
-14.5579
 20
-8.3427
 30
0.0
 10
-14.5577
 20
-8.3631
 30
0.0
  0
SPLINE
  5
D1
330
1F
100
AcDbEntity
  8
Ilustrace
 62
   250
370
    30
100
AcDbSpline
210
0.0
220
0.0
230
1.0
 70
     8
 71
     3
 72
    16
 73
    12
 74
     0
 42
0.0000000001
 43
0.0000000001
 40
0.0
 40
0.0
 40
0.0
 40
0.0
 40
0.25
 40
0.25
 40
0.25
 40
0.25
 40
0.5
 40
0.5
 40
0.5
 40
0.5
 40
1.0
 40
1.0
 40
1.0
 40
1.0
 10
-14.5577
 20
-8.3631
 30
0.0
 10
-14.5577
 20
-8.3631
 30
0.0
 10
-14.5546
 20
-8.7222
 30
0.0
 10
-14.5546
 20
-8.7222
 30
0.0
 10
-14.5546
 20
-8.7222
 30
0.0
 10
-14.5546
 20
-8.7222
 30
0.0
 10
-14.5514
 20
-9.0877
 30
0.0
 10
-14.5514
 20
-9.0877
 30
0.0
 10
-14.5514
 20
-9.0877
 30
0.0
 10
-14.5514
 20
-9.0877
 30
0.0
 10
-14.5483
 20
-9.4467
 30
0.0
 10
-14.5483
 20
-9.4467
 30
0.0
  0
SPLINE
  5
D2
330
1F
100
AcDbEntity
  8
Ilustrace
 62
   250
370
    30
100
AcDbSpline
210
0.0
220
0.0
230
1.0
 70
     8
 71
     3
 72
    12
 73
     8
 74
     0
 42
0.0000000001
 43
0.0000000001
 40
0.0
 40
0.0
 40
0.0
 40
0.0
 40
0.3333333333333333
 40
0.3333333333333333
 40
0.3333333333333333
 40
0.3333333333333333
 40
1.0
 40
1.0
 40
1.0
 40
1.0
 10
-14.5483
 20
-9.4467
 30
0.0
 10
-14.548
 20
-9.4779
 30
0.0
 10
-14.5644
 20
-9.5076
 30
0.0
 10
-14.591
 20
-9.524
 30
0.0
 10
-14.591
 20
-9.524
 30
0.0
 10
-14.6042
 20
-9.5321
 30
0.0
 10
-14.6193
 20
-9.5367
 30
0.0
 10
-14.6347
 20
-9.5372
 30
0.0
  0
SPLINE
  5
D3
330
1F
100
AcDbEntity
  8
Ilustrace
 62
   250
370
    30
100
AcDbSpline
210
0.0
220
0.0
230
1.0
 70
     8
 71
     3
 72
    20
 73
    16
 74
     0
 42
0.0000000001
 43
0.0000000001
 40
0.0
 40
0.0
 40
0.0
 40
0.0
 40
0.2
 40
0.2
 40
0.2
 40
0.2
 40
0.4
 40
0.4
 40
0.4
 40
0.4
 40
0.6
 40
0.6
 40
0.6
 40
0.6
 40
1.0
 40
1.0
 40
1.0
 40
1.0
 10
-14.6347
 20
-9.5372
 30
0.0
 10
-14.6347
 20
-9.5372
 30
0.0
 10
-14.9936
 20
-9.5504
 30
0.0
 10
-14.9936
 20
-9.5504
 30
0.0
 10
-14.9936
 20
-9.5504
 30
0.0
 10
-14.9936
 20
-9.5504
 30
0.0
 10
-15.6109
 20
-9.573
 30
0.0
 10
-15.6109
 20
-9.573
 30
0.0
 10
-15.6109
 20
-9.573
 30
0.0
 10
-15.6109
 20
-9.573
 30
0.0
 10
-15.9697
 20
-9.5861
 30
0.0
 10
-15.9697
 20
-9.5861
 30
0.0
 10
-15.9697
 20
-9.5861
 30
0.0
 10
-15.9697
 20
-9.5861
 30
0.0
 10
-15.9849
 20
-9.5881
 30
0.0
 10
-15.9849
 20
-9.5881
 30
0.0
  0
SPLINE
  5
D4
330
1F
100
AcDbEntity
  8
Ilustrace
 62
   250
370
    30
100
AcDbSpline
210
0.0
220
0.0
230
1.0
 70
     8
 71
     3
 72
    12
 73
     8
 74
     0
 42
0.0000000001
 43
0.0000000001
 40
0.0
 40
0.0
 40
0.0
 40
0.0
 40
0.3333333333333333
 40
0.3333333333333333
 40
0.3333333333333333
 40
0.3333333333333333
 40
1.0
 40
1.0
 40
1.0
 40
1.0
 10
-15.9849
 20
-9.5881
 30
0.0
 10
-16.0231
 20
-9.5961
 30
0.0
 10
-16.0524
 20
-9.6292
 30
0.0
 10
-16.0559
 20
-9.6682
 30
0.0
 10
-16.0559
 20
-9.6682
 30
0.0
 10
-16.0754
 20
-9.8965
 30
0.0
 10
-15.7471
 20
-9.8131
 30
0.0
 10
-15.6109
 20
-9.8181
 30
0.0
  0
SPLINE
  5
D5
330
1F
100
AcDbEntity
  8
Ilustrace
 62
   250
370
    30
100
AcDbSpline
210
0.0
220
0.0
230
1.0
 70
     8
 71
     3
 72
    12
 73
     8
 74
     0
 42
0.0000000001
 43
0.0000000001
 40
0.0
 40
0.0
 40
0.0
 40
0.0
 40
0.3333333333333333
 40
0.3333333333333333
 40
0.3333333333333333
 40
0.3333333333333333
 40
1.0
 40
1.0
 40
1.0
 40
1.0
 10
-15.6109
 20
-9.8181
 30
0.0
 10
-15.6109
 20
-9.8181
 30
0.0
 10
-14.9893
 20
-9.8409
 30
0.0
 10
-14.9893
 20
-9.8409
 30
0.0
 10
-14.9893
 20
-9.8409
 30
0.0
 10
-14.9893
 20
-9.8409
 30
0.0
 10
-14.6228
 20
-9.8547
 30
0.0
 10
-14.6228
 20
-9.8547
 30
0.0
  0
SPLINE
  5
D6
330
1F
100
AcDbEntity
  8
Ilustrace
 62
   250
370
    30
100
AcDbSpline
210
0.0
220
0.0
230
1.0
 70
     8
 71
     3
 72
    12
 73
     8
 74
     0
 42
0.0000000001
 43
0.0000000001
 40
0.0
 40
0.0
 40
0.0
 40
0.0
 40
0.3333333333333333
 40
0.3333333333333333
 40
0.3333333333333333
 40
0.3333333333333333
 40
1.0
 40
1.0
 40
1.0
 40
1.0
 10
-14.6228
 20
-9.8547
 30
0.0
 10
-14.5922
 20
-9.8583
 30
0.0
 10
-14.5651
 20
-9.8781
 30
0.0
 10
-14.5522
 20
-9.9062
 30
0.0
 10
-14.5522
 20
-9.9062
 30
0.0
 10
-14.5468
 20
-9.9177
 30
0.0
 10
-14.5441
 20
-9.9302
 30
0.0
 10
-14.5439
 20
-9.9429
 30
0.0
  0
SPLINE
  5
D7
330
1F
100
AcDbEntity
  8
Ilustrace
 62
   250
370
    30
100
AcDbSpline
210
0.0
220
0.0
230
1.0
 70
     8
 71
     3
 72
    16
 73
    12
 74
     0
 42
0.0000000001
 43
0.0000000001
 40
0.0
 40
0.0
 40
0.0
 40
0.0
 40
0.25
 40
0.25
 40
0.25
 40
0.25
 40
0.5
 40
0.5
 40
0.5
 40
0.5
 40
1.0
 40
1.0
 40
1.0
 40
1.0
 10
-14.5439
 20
-9.9429
 30
0.0
 10
-14.5439
 20
-9.9429
 30
0.0
 10
-14.5408
 20
-10.302
 30
0.0
 10
-14.5408
 20
-10.302
 30
0.0
 10
-14.5408
 20
-10.302
 30
0.0
 10
-14.5408
 20
-10.302
 30
0.0
 10
-14.5377
 20
-10.6674
 30
0.0
 10
-14.5377
 20
-10.6674
 30
0.0
 10
-14.5377
 20
-10.6674
 30
0.0
 10
-14.5377
 20
-10.6674
 30
0.0
 10
-14.5344
 20
-11.0264
 30
0.0
 10
-14.5344
 20
-11.0264
 30
0.0
  0
SPLINE
  5
D8
330
1F
100
AcDbEntity
  8
Ilustrace
 62
   250
370
    30
100
AcDbSpline
210
0.0
220
0.0
230
1.0
 70
     8
 71
     3
 72
    12
 73
     8
 74
     0
 42
0.0000000001
 43
0.0000000001
 40
0.0
 40
0.0
 40
0.0
 40
0.0
 40
0.3333333333333333
 40
0.3333333333333333
 40
0.3333333333333333
 40
0.3333333333333333
 40
1.0
 40
1.0
 40
1.0
 40
1.0
 10
-14.5344
 20
-11.0264
 30
0.0
 10
-14.5343
 20
-11.055
 30
0.0
 10
-14.548
 20
-11.0824
 30
0.0
 10
-14.5709
 20
-11.0994
 30
0.0
 10
-14.5709
 20
-11.0994
 30
0.0
 10
-14.5853
 20
-11.1102
 30
0.0
 10
-14.603
 20
-11.1162
 30
0.0
 10
-14.621
 20
-11.1169
 30
0.0
  0
SPLINE
  5
D9
330
1F
100
AcDbEntity
  8
Ilustrace
 62
   250
370
    30
100
AcDbSpline
210
0.0
220
0.0
230
1.0
 70
     8
 71
     3
 72
    16
 73
    12
 74
     0
 42
0.0000000001
 43
0.0000000001
 40
0.0
 40
0.0
 40
0.0
 40
0.0
 40
0.25
 40
0.25
 40
0.25
 40
0.25
 40
0.5
 40
0.5
 40
0.5
 40
0.5
 40
1.0
 40
1.0
 40
1.0
 40
1.0
 10
-14.621
 20
-11.1169
 30
0.0
 10
-14.621
 20
-11.1169
 30
0.0
 10
-14.9798
 20
-11.13
 30
0.0
 10
-14.9798
 20
-11.13
 30
0.0
 10
-14.9798
 20
-11.13
 30
0.0
 10
-14.9798
 20
-11.13
 30
0.0
 10
-15.1621
 20
-11.1366
 30
0.0
 10
-15.1621
 20
-11.1366
 30
0.0
 10
-15.1621
 20
-11.1366
 30
0.0
 10
-15.1621
 20
-11.1366
 30
0.0
 10
-15.5209
 20
-11.1498
 30
0.0
 10
-15.5209
 20
-11.1498
 30
0.0
  0
SPLINE
  5
DA
330
1F
100
AcDbEntity
  8
Ilustrace
 62
   250
370
    30
100
AcDbSpline
210
0.0
220
0.0
230
1.0
 70
     8
 71
     3
 72
    16
 73
    12
 74
     0
 42
0.0000000001
 43
0.0000000001
 40
0.0
 40
0.0
 40
0.0
 40
0.0
 40
0.25
 40
0.25
 40
0.25
 40
0.25
 40
0.5
 40
0.5
 40
0.5
 40
0.5
 40
1.0
 40
1.0
 40
1.0
 40
1.0
 10
-15.5209
 20
-11.1498
 30
0.0
 10
-15.5466
 20
-11.1506
 30
0.0
 10
-15.5711
 20
-11.1629
 30
0.0
 10
-15.5873
 20
-11.1828
 30
0.0
 10
-15.5873
 20
-11.1828
 30
0.0
 10
-15.6309
 20
-11.2365
 30
0.0
 10
-15.6252
 20
-11.3579
 30
0.0
 10
-15.5576
 20
-11.3915
 30
0.0
 10
-15.5576
 20
-11.3915
 30
0.0
 10
-15.5462
 20
-11.3971
 30
0.0
 10
-15.5336
 20
-11.4003
 30
0.0
 10
-15.5209
 20
-11.4008
 30
0.0
  0
SPLINE
  5
DB
330
1F
100
AcDbEntity
  8
Ilustrace
 62
   250
370
    30
100
AcDbSpline
210
0.0
220
0.0
230
1.0
 70
     8
 71
     3
 72
    20
 73
    16
 74
     0
 42
0.0000000001
 43
0.0000000001
 40
0.0
 40
0.0
 40
0.0
 40
0.0
 40
0.2
 40
0.2
 40
0.2
 40
0.2
 40
0.4
 40
0.4
 40
0.4
 40
0.4
 40
0.6
 40
0.6
 40
0.6
 40
0.6
 40
1.0
 40
1.0
 40
1.0
 40
1.0
 10
-15.5209
 20
-11.4008
 30
0.0
 10
-15.5209
 20
-11.4008
 30
0.0
 10
-15.1621
 20
-11.4139
 30
0.0
 10
-15.1621
 20
-11.4139
 30
0.0
 10
-15.1621
 20
-11.4139
 30
0.0
 10
-15.1621
 20
-11.4139
 30
0.0
 10
-14.9755
 20
-11.4207
 30
0.0
 10
-14.9755
 20
-11.4207
 30
0.0
 10
-14.9755
 20
-11.4207
 30
0.0
 10
-14.9755
 20
-11.4207
 30
0.0
 10
-14.6167
 20
-11.4338
 30
0.0
 10
-14.6167
 20
-11.4338
 30
0.0
 10
-14.6167
 20
-11.4338
 30
0.0
 10
-14.6167
 20
-11.4338
 30
0.0
 10
-14.5942
 20
-11.4375
 30
0.0
 10
-14.5942
 20
-11.4375
 30
0.0
  0
SPLINE
  5
DC
330
1F
100
AcDbEntity
  8
Ilustrace
 62
   250
370
    30
100
AcDbSpline
210
0.0
220
0.0
230
1.0
 70
     8
 71
     3
 72
    12
 73
     8
 74
     0
 42
0.0000000001
 43
0.0000000001
 40
0.0
 40
0.0
 40
0.0
 40
0.0
 40
0.3333333333333333
 40
0.3333333333333333
 40
0.3333333333333333
 40
0.3333333333333333
 40
1.0
 40
1.0
 40
1.0
 40
1.0
 10
-14.5942
 20
-11.4375
 30
0.0
 10
-14.4726
 20
-11.474
 30
0.0
 10
-14.5302
 20
-11.7424
 30
0.0
 10
-14.5302
 20
-11.7788
 30
0.0
 10
-14.5302
 20
-11.7788
 30
0.0
 10
-14.5302
 20
-11.829
 30
0.0
 10
-14.4899
 20
-11.866
 30
0.0
 10
-14.4413
 20
-11.8685
 30
0.0
  0
SPLINE
  5
DD
330
1F
100
AcDbEntity
  8
Ilustrace
 62
   250
370
    30
100
AcDbSpline
210
0.0
220
0.0
230
1.0
 70
    24
 71
     3
 72
     8
 73
     4
 74
     0
 42
0.0000000001
 43
0.0000000001
 40
0.0
 40
0.0
 40
0.0
 40
0.0
 40
1.0
 40
1.0
 40
1.0
 40
1.0
 10
-14.1849
 20
7.201
 30
0.0
 10
-14.1849
 20
7.201
 30
0.0
 10
9.1118
 20
7.201
 30
0.0
 10
9.1118
 20
7.201
 30
0.0
  0
SPLINE
  5
DE
330
1F
100
AcDbEntity
  8
Ilustrace
 62
   250
370
    30
100
AcDbSpline
210
0.0
220
0.0
230
1.0
 70
    24
 71
     3
 72
     8
 73
     4
 74
     0
 42
0.0000000001
 43
0.0000000001
 40
0.0
 40
0.0
 40
0.0
 40
0.0
 40
1.0
 40
1.0
 40
1.0
 40
1.0
 10
8.0282
 20
6.0541
 30
0.0
 10
8.0282
 20
6.0541
 30
0.0
 10
-13.1014
 20
6.0541
 30
0.0
 10
-13.1014
 20
6.0541
 30
0.0
  0
SPLINE
  5
DF
330
1F
100
AcDbEntity
  8
Ilustrace
 62
   250
370
    30
100
AcDbSpline
210
0.0
220
0.0
230
1.0
 70
     8
 71
     3
 72
     8
 73
     4
 74
     0
 42
0.0000000001
 43
0.0000000001
 40
0.0
 40
0.0
 40
0.0
 40
0.0
 40
1.0
 40
1.0
 40
1.0
 40
1.0
 10
-13.1027
 20
6.0855
 30
0.0
 10
-13.1129
 20
6.2023
 30
0.0
 10
-13.1809
 20
6.3082
 30
0.0
 10
-13.282
 20
6.367
 30
0.0
  0
SPLINE
  5
E0
330
1F
100
AcDbEntity
  8
Ilustrace
 62
   250
370
    30
100
AcDbSpline
210
0.0
220
0.0
230
1.0
 70
    24
 71
     3
 72
     8
 73
     4
 74
     0
 42
0.0000000001
 43
0.0000000001
 40
0.0
 40
0.0
 40
0.0
 40
0.0
 40
1.0
 40
1.0
 40
1.0
 40
1.0
 10
-13.282
 20
6.367
 30
0.0
 10
-13.282
 20
6.367
 30
0.0
 10
-13.6013
 20
6.5513
 30
0.0
 10
-13.6013
 20
6.5513
 30
0.0
  0
SPLINE
  5
E1
330
1F
100
AcDbEntity
  8
Ilustrace
 62
   250
370
    30
100
AcDbSpline
210
0.0
220
0.0
230
1.0
 70
     8
 71
     3
 72
    12
 73
     8
 74
     0
 42
0.0000000001
 43
0.0000000001
 40
0.0
 40
0.0
 40
0.0
 40
0.0
 40
0.3333333333333333
 40
0.3333333333333333
 40
0.3333333333333333
 40
0.3333333333333333
 40
1.0
 40
1.0
 40
1.0
 40
1.0
 10
-13.6013
 20
6.5513
 30
0.0
 10
-13.7599
 20
6.6429
 30
0.0
 10
-13.9738
 20
6.7287
 30
0.0
 10
-14.0869
 20
6.8903
 30
0.0
 10
-14.0869
 20
6.8903
 30
0.0
 10
-14.2248
 20
7.0873
 30
0.0
 10
-14.1849
 20
7.3359
 30
0.0
 10
-14.1849
 20
7.5622
 30
0.0
  0
SPLINE
  5
E2
330
1F
100
AcDbEntity
  8
Ilustrace
 62
   250
370
    30
100
AcDbSpline
210
0.0
220
0.0
230
1.0
 70
    24
 71
     3
 72
    12
 73
     8
 74
     0
 42
0.0000000001
 43
0.0000000001
 40
0.0
 40
0.0
 40
0.0
 40
0.0
 40
0.3333333333333333
 40
0.3333333333333333
 40
0.3333333333333333
 40
0.3333333333333333
 40
1.0
 40
1.0
 40
1.0
 40
1.0
 10
-14.1849
 20
7.5622
 30
0.0
 10
-14.1849
 20
7.5622
 30
0.0
 10
-14.1849
 20
8.1944
 30
0.0
 10
-14.1849
 20
8.1944
 30
0.0
 10
-14.1849
 20
8.1944
 30
0.0
 10
-14.1849
 20
8.1944
 30
0.0
 10
-14.1849
 20
8.5555
 30
0.0
 10
-14.1849
 20
8.5555
 30
0.0
  0
SPLINE
  5
E3
330
1F
100
AcDbEntity
  8
Ilustrace
 62
   250
370
    30
100
AcDbSpline
210
0.0
220
0.0
230
1.0
 70
    24
 71
     3
 72
    12
 73
     8
 74
     0
 42
0.0000000001
 43
0.0000000001
 40
0.0
 40
0.0
 40
0.0
 40
0.0
 40
0.3333333333333333
 40
0.3333333333333333
 40
0.3333333333333333
 40
0.3333333333333333
 40
1.0
 40
1.0
 40
1.0
 40
1.0
 10
9.1118
 20
8.5555
 30
0.0
 10
9.1118
 20
8.5555
 30
0.0
 10
9.1118
 20
8.1944
 30
0.0
 10
9.1118
 20
8.1944
 30
0.0
 10
9.1118
 20
8.1944
 30
0.0
 10
9.1118
 20
8.1944
 30
0.0
 10
9.1118
 20
7.5622
 30
0.0
 10
9.1118
 20
7.5622
 30
0.0
  0
SPLINE
  5
E4
330
1F
100
AcDbEntity
  8
Ilustrace
 62
   250
370
    30
100
AcDbSpline
210
0.0
220
0.0
230
1.0
 70
     8
 71
     3
 72
    12
 73
     8
 74
     0
 42
0.0000000001
 43
0.0000000001
 40
0.0
 40
0.0
 40
0.0
 40
0.0
 40
0.3333333333333333
 40
0.3333333333333333
 40
0.3333333333333333
 40
0.3333333333333333
 40
1.0
 40
1.0
 40
1.0
 40
1.0
 10
9.1118
 20
7.5622
 30
0.0
 10
9.1118
 20
7.3359
 30
0.0
 10
9.1518
 20
7.0873
 30
0.0
 10
9.0139
 20
6.8903
 30
0.0
 10
9.0139
 20
6.8903
 30
0.0
 10
8.9007
 20
6.7287
 30
0.0
 10
8.6867
 20
6.6429
 30
0.0
 10
8.5281
 20
6.5513
 30
0.0
  0
SPLINE
  5
E5
330
1F
100
AcDbEntity
  8
Ilustrace
 62
   250
370
    30
100
AcDbSpline
210
0.0
220
0.0
230
1.0
 70
    24
 71
     3
 72
     8
 73
     4
 74
     0
 42
0.0000000001
 43
0.0000000001
 40
0.0
 40
0.0
 40
0.0
 40
0.0
 40
1.0
 40
1.0
 40
1.0
 40
1.0
 10
8.5281
 20
6.5513
 30
0.0
 10
8.5281
 20
6.5513
 30
0.0
 10
8.2089
 20
6.367
 30
0.0
 10
8.2089
 20
6.367
 30
0.0
  0
SPLINE
  5
E6
330
1F
100
AcDbEntity
  8
Ilustrace
 62
   250
370
    30
100
AcDbSpline
210
0.0
220
0.0
230
1.0
 70
     8
 71
     3
 72
     8
 73
     4
 74
     0
 42
0.0000000001
 43
0.0000000001
 40
0.0
 40
0.0
 40
0.0
 40
0.0
 40
1.0
 40
1.0
 40
1.0
 40
1.0
 10
8.2089
 20
6.367
 30
0.0
 10
8.1077
 20
6.3082
 30
0.0
 10
8.0399
 20
6.2023
 30
0.0
 10
8.0296
 20
6.0855
 30
0.0
  0
SPLINE
  5
E7
330
1F
100
AcDbEntity
  8
Ilustrace
 62
   250
370
    30
100
AcDbSpline
210
0.0
220
0.0
230
1.0
 70
    24
 71
     3
 72
     8
 73
     4
 74
     0
 42
0.0000000001
 43
0.0000000001
 40
0.0
 40
0.0
 40
0.0
 40
0.0
 40
1.0
 40
1.0
 40
1.0
 40
1.0
 10
-14.9253
 20
10.7226
 30
0.0
 10
-14.9253
 20
10.7226
 30
0.0
 10
9.8522
 20
10.7226
 30
0.0
 10
9.8522
 20
10.7226
 30
0.0
  0
SPLINE
  5
E8
330
1F
100
AcDbEntity
  8
Ilustrace
 62
   250
370
    30
100
AcDbSpline
210
0.0
220
0.0
230
1.0
 70
    24
 71
     3
 72
     8
 73
     4
 74
     0
 42
0.0000000001
 43
0.0000000001
 40
0.0
 40
0.0
 40
0.0
 40
0.0
 40
1.0
 40
1.0
 40
1.0
 40
1.0
 10
9.8901
 20
8.5555
 30
0.0
 10
9.8901
 20
8.5555
 30
0.0
 10
9.8522
 20
10.7226
 30
0.0
 10
9.8522
 20
10.7226
 30
0.0
  0
SPLINE
  5
E9
330
1F
100
AcDbEntity
  8
Ilustrace
 62
   250
370
    30
100
AcDbSpline
210
0.0
220
0.0
230
1.0
 70
    24
 71
     3
 72
     8
 73
     4
 74
     0
 42
0.0000000001
 43
0.0000000001
 40
0.0
 40
0.0
 40
0.0
 40
0.0
 40
1.0
 40
1.0
 40
1.0
 40
1.0
 10
-14.9632
 20
8.5555
 30
0.0
 10
-14.9632
 20
8.5555
 30
0.0
 10
9.8901
 20
8.5555
 30
0.0
 10
9.8901
 20
8.5555
 30
0.0
  0
SPLINE
  5
EA
330
1F
100
AcDbEntity
  8
Ilustrace
 62
   250
370
    30
100
AcDbSpline
210
0.0
220
0.0
230
1.0
 70
    24
 71
     3
 72
     8
 73
     4
 74
     0
 42
0.0000000001
 43
0.0000000001
 40
0.0
 40
0.0
 40
0.0
 40
0.0
 40
1.0
 40
1.0
 40
1.0
 40
1.0
 10
-14.9253
 20
10.7226
 30
0.0
 10
-14.9253
 20
10.7226
 30
0.0
 10
-14.9632
 20
8.5555
 30
0.0
 10
-14.9632
 20
8.5555
 30
0.0
  0
SPLINE
  5
EB
330
1F
100
AcDbEntity
  8
Ilustrace
 62
   250
370
    30
100
AcDbSpline
210
0.0
220
0.0
230
1.0
 70
     8
 71
     3
 72
    12
 73
     8
 74
     0
 42
0.0000000001
 43
0.0000000001
 40
0.0
 40
0.0
 40
0.0
 40
0.0
 40
0.3333333333333333
 40
0.3333333333333333
 40
0.3333333333333333
 40
0.3333333333333333
 40
1.0
 40
1.0
 40
1.0
 40
1.0
 10
3.5686
 20
0.53
 30
0.0
 10
3.5686
 20
0.53
 30
0.0
 10
3.5376
 20
0.5305
 30
0.0
 10
3.5376
 20
0.5305
 30
0.0
 10
3.5376
 20
0.5305
 30
0.0
 10
3.5376
 20
0.5305
 30
0.0
 10
3.534
 20
0.5305
 30
0.0
 10
3.534
 20
0.5305
 30
0.0
  0
SPLINE
  5
EC
330
1F
100
AcDbEntity
  8
Ilustrace
 62
   250
370
    30
100
AcDbSpline
210
0.0
220
0.0
230
1.0
 70
    24
 71
     3
 72
     8
 73
     4
 74
     0
 42
0.0000000001
 43
0.0000000001
 40
0.0
 40
0.0
 40
0.0
 40
0.0
 40
1.0
 40
1.0
 40
1.0
 40
1.0
 10
-14.0134
 20
0.3276
 30
0.0
 10
-14.0134
 20
0.3276
 30
0.0
 10
-14.0208
 20
0.3285
 30
0.0
 10
-14.0208
 20
0.3285
 30
0.0
  0
SPLINE
  5
ED
330
1F
100
AcDbEntity
  8
Ilustrace
 62
   250
370
    30
100
AcDbSpline
210
0.0
220
0.0
230
1.0
 70
     8
 71
     3
 72
    12
 73
     8
 74
     0
 42
0.0000000001
 43
0.0000000001
 40
0.0
 40
0.0
 40
0.0
 40
0.0
 40
0.3333333333333333
 40
0.3333333333333333
 40
0.3333333333333333
 40
0.3333333333333333
 40
1.0
 40
1.0
 40
1.0
 40
1.0
 10
-14.0208
 20
0.3285
 30
0.0
 10
-13.4607
 20
0.2562
 30
0.0
 10
-12.9063
 20
0.1604
 30
0.0
 10
-12.3572
 20
0.0272
 30
0.0
 10
-12.3572
 20
0.0272
 30
0.0
 10
-12.1703
 20
-0.0182
 30
0.0
 10
-11.9848
 20
-0.0706
 30
0.0
 10
-11.8007
 20
-0.126
 30
0.0
  0
SPLINE
  5
EE
330
1F
100
AcDbEntity
  8
Ilustrace
 62
   250
370
    30
100
AcDbSpline
210
0.0
220
0.0
230
1.0
 70
    24
 71
     3
 72
     8
 73
     4
 74
     0
 42
0.0000000001
 43
0.0000000001
 40
0.0
 40
0.0
 40
0.0
 40
0.0
 40
1.0
 40
1.0
 40
1.0
 40
1.0
 10
-11.8007
 20
-0.126
 30
0.0
 10
-11.8007
 20
-0.126
 30
0.0
 10
-11.6089
 20
-0.1856
 30
0.0
 10
-11.6089
 20
-0.1856
 30
0.0
  0
SPLINE
  5
EF
330
1F
100
AcDbEntity
  8
Ilustrace
 62
   250
370
    30
100
AcDbSpline
210
0.0
220
0.0
230
1.0
 70
     8
 71
     3
 72
     8
 73
     4
 74
     0
 42
0.0000000001
 43
0.0000000001
 40
0.0
 40
0.0
 40
0.0
 40
0.0
 40
1.0
 40
1.0
 40
1.0
 40
1.0
 10
-11.6089
 20
-0.1856
 30
0.0
 10
-11.0884
 20
-0.2962
 30
0.0
 10
-10.5667
 20
-0.4018
 30
0.0
 10
-10.0447
 20
-0.5044
 30
0.0
  0
SPLINE
  5
F0
330
1F
100
AcDbEntity
  8
Ilustrace
 62
   250
370
    30
100
AcDbSpline
210
0.0
220
0.0
230
1.0
 70
     8
 71
     3
 72
    12
 73
     8
 74
     0
 42
0.0000000001
 43
0.0000000001
 40
0.0
 40
0.0
 40
0.0
 40
0.0
 40
0.3333333333333333
 40
0.3333333333333333
 40
0.3333333333333333
 40
0.3333333333333333
 40
1.0
 40
1.0
 40
1.0
 40
1.0
 10
-10.0428
 20
-0.5048
 30
0.0
 10
-8.3556
 20
-0.8326
 30
0.0
 10
-6.6607
 20
-1.1143
 30
0.0
 10
-4.9555
 20
-1.3298
 30
0.0
 10
-4.9555
 20
-1.3298
 30
0.0
 10
-2.6559
 20
-1.6201
 30
0.0
 10
-0.3444
 20
-1.8008
 30
0.0
 10
1.969
 20
-1.9364
 30
0.0
  0
SPLINE
  5
F1
330
1F
100
AcDbEntity
  8
Ilustrace
 62
   250
370
    30
100
AcDbSpline
210
0.0
220
0.0
230
1.0
 70
    24
 71
     3
 72
    12
 73
     8
 74
     0
 42
0.0000000001
 43
0.0000000001
 40
0.0
 40
0.0
 40
0.0
 40
0.0
 40
0.3333333333333333
 40
0.3333333333333333
 40
0.3333333333333333
 40
0.3333333333333333
 40
1.0
 40
1.0
 40
1.0
 40
1.0
 10
-13.0727
 20
6.0742
 30
0.0
 10
-13.0727
 20
6.0742
 30
0.0
 10
-13.0727
 20
3.4133
 30
0.0
 10
-13.0727
 20
3.4133
 30
0.0
 10
-13.0727
 20
3.4133
 30
0.0
 10
-13.0727
 20
3.4133
 30
0.0
 10
-13.0727
 20
3.0024
 30
0.0
 10
-13.0727
 20
3.0024
 30
0.0
  0
SPLINE
  5
F2
330
1F
100
AcDbEntity
  8
Ilustrace
 62
   250
370
    30
100
AcDbSpline
210
0.0
220
0.0
230
1.0
 70
     8
 71
     3
 72
    12
 73
     8
 74
     0
 42
0.0000000001
 43
0.0000000001
 40
0.0
 40
0.0
 40
0.0
 40
0.0
 40
0.3333333333333333
 40
0.3333333333333333
 40
0.3333333333333333
 40
0.3333333333333333
 40
1.0
 40
1.0
 40
1.0
 40
1.0
 10
-13.0727
 20
3.0024
 30
0.0
 10
-13.0803
 20
2.7562
 30
0.0
 10
-13.0942
 20
2.6053
 30
0.0
 10
-13.161
 20
2.3652
 30
0.0
 10
-13.161
 20
2.3652
 30
0.0
 10
-13.2171
 20
2.1632
 30
0.0
 10
-13.327
 20
1.9297
 30
0.0
 10
-13.409
 20
1.7406
 30
0.0
  0
SPLINE
  5
F3
330
1F
100
AcDbEntity
  8
Ilustrace
 62
   250
370
    30
100
AcDbSpline
210
0.0
220
0.0
230
1.0
 70
    24
 71
     3
 72
     8
 73
     4
 74
     0
 42
0.0000000001
 43
0.0000000001
 40
0.0
 40
0.0
 40
0.0
 40
0.0
 40
1.0
 40
1.0
 40
1.0
 40
1.0
 10
-13.409
 20
1.7406
 30
0.0
 10
-13.409
 20
1.7406
 30
0.0
 10
-13.8776
 20
0.6591
 30
0.0
 10
-13.8776
 20
0.6591
 30
0.0
  0
SPLINE
  5
F4
330
1F
100
AcDbEntity
  8
Ilustrace
 62
   250
370
    30
100
AcDbSpline
210
0.0
220
0.0
230
1.0
 70
     8
 71
     3
 72
    12
 73
     8
 74
     0
 42
0.0000000001
 43
0.0000000001
 40
0.0
 40
0.0
 40
0.0
 40
0.0
 40
0.3333333333333333
 40
0.3333333333333333
 40
0.3333333333333333
 40
0.3333333333333333
 40
1.0
 40
1.0
 40
1.0
 40
1.0
 10
-13.8776
 20
0.6591
 30
0.0
 10
-13.9886
 20
0.4031
 30
0.0
 10
-14.0605
 20
0.2571
 30
0.0
 10
-14.1418
 20
-0.0106
 30
0.0
 10
-14.1418
 20
-0.0106
 30
0.0
 10
-14.2493
 20
-0.3654
 30
0.0
 10
-14.2436
 20
-0.74
 30
0.0
 10
-14.2436
 20
-1.1062
 30
0.0
  0
SPLINE
  5
F5
330
1F
100
AcDbEntity
  8
Ilustrace
 62
   250
370
    30
100
AcDbSpline
210
0.0
220
0.0
230
1.0
 70
    24
 71
     3
 72
    12
 73
     8
 74
     0
 42
0.0000000001
 43
0.0000000001
 40
0.0
 40
0.0
 40
0.0
 40
0.0
 40
0.3333333333333333
 40
0.3333333333333333
 40
0.3333333333333333
 40
0.3333333333333333
 40
1.0
 40
1.0
 40
1.0
 40
1.0
 10
-14.2436
 20
-1.1062
 30
0.0
 10
-14.2436
 20
-1.1062
 30
0.0
 10
-14.2436
 20
-4.4282
 30
0.0
 10
-14.2436
 20
-4.4282
 30
0.0
 10
-14.2436
 20
-4.4282
 30
0.0
 10
-14.2436
 20
-4.4282
 30
0.0
 10
-14.2436
 20
-4.7885
 30
0.0
 10
-14.2436
 20
-4.7885
 30
0.0
  0
SPLINE
  5
F6
330
1F
100
AcDbEntity
  8
Ilustrace
 62
   250
370
    30
100
AcDbSpline
210
0.0
220
0.0
230
1.0
 70
    24
 71
     3
 72
    12
 73
     8
 74
     0
 42
0.0000000001
 43
0.0000000001
 40
0.0
 40
0.0
 40
0.0
 40
0.0
 40
0.3333333333333333
 40
0.3333333333333333
 40
0.3333333333333333
 40
0.3333333333333333
 40
1.0
 40
1.0
 40
1.0
 40
1.0
 10
1.9706
 20
-4.7885
 30
0.0
 10
1.9706
 20
-4.7885
 30
0.0
 10
1.9706
 20
-4.4282
 30
0.0
 10
1.9706
 20
-4.4282
 30
0.0
 10
1.9706
 20
-4.4282
 30
0.0
 10
1.9706
 20
-4.4282
 30
0.0
 10
1.9706
 20
-2.2967
 30
0.0
 10
1.9706
 20
-2.2967
 30
0.0
  0
SPLINE
  5
F7
330
1F
100
AcDbEntity
  8
Ilustrace
 62
   250
370
    30
100
AcDbSpline
210
0.0
220
0.0
230
1.0
 70
     8
 71
     3
 72
    16
 73
    12
 74
     0
 42
0.0000000001
 43
0.0000000001
 40
0.0
 40
0.0
 40
0.0
 40
0.0
 40
0.25
 40
0.25
 40
0.25
 40
0.25
 40
0.5
 40
0.5
 40
0.5
 40
0.5
 40
1.0
 40
1.0
 40
1.0
 40
1.0
 10
1.9706
 20
-2.2967
 30
0.0
 10
1.9706
 20
-1.9236
 30
0.0
 10
1.9697
 20
-1.5641
 30
0.0
 10
2.0723
 20
-1.202
 30
0.0
 10
2.0723
 20
-1.202
 30
0.0
 10
2.2431
 20
-0.5986
 30
0.0
 10
2.6248
 20
-0.0661
 30
0.0
 10
3.1412
 20
0.2899
 30
0.0
 10
3.1412
 20
0.2899
 30
0.0
 10
3.377
 20
0.4524
 30
0.0
 10
3.6372
 20
0.5607
 30
0.0
 10
3.8974
 20
0.6772
 30
0.0
  0
SPLINE
  5
F8
330
1F
100
AcDbEntity
  8
Ilustrace
 62
   250
370
    30
100
AcDbSpline
210
0.0
220
0.0
230
1.0
 70
    24
 71
     3
 72
     8
 73
     4
 74
     0
 42
0.0000000001
 43
0.0000000001
 40
0.0
 40
0.0
 40
0.0
 40
0.0
 40
1.0
 40
1.0
 40
1.0
 40
1.0
 10
3.8974
 20
0.6772
 30
0.0
 10
3.8974
 20
0.6772
 30
0.0
 10
6.3986
 20
1.7972
 30
0.0
 10
6.3986
 20
1.7972
 30
0.0
  0
SPLINE
  5
F9
330
1F
100
AcDbEntity
  8
Ilustrace
 62
   250
370
    30
100
AcDbSpline
210
0.0
220
0.0
230
1.0
 70
     8
 71
     3
 72
    16
 73
    12
 74
     0
 42
0.0000000001
 43
0.0000000001
 40
0.0
 40
0.0
 40
0.0
 40
0.0
 40
0.25
 40
0.25
 40
0.25
 40
0.25
 40
0.5
 40
0.5
 40
0.5
 40
0.5
 40
1.0
 40
1.0
 40
1.0
 40
1.0
 10
6.3986
 20
1.7972
 30
0.0
 10
6.7544
 20
1.9564
 30
0.0
 10
7.1044
 20
2.1154
 30
0.0
 10
7.3815
 20
2.3977
 30
0.0
 10
7.3815
 20
2.3977
 30
0.0
 10
7.68
 20
2.7019
 30
0.0
 10
7.9015
 20
3.1033
 30
0.0
 10
7.9703
 20
3.5269
 30
0.0
 10
7.9703
 20
3.5269
 30
0.0
 10
8.0103
 20
3.7737
 30
0.0
 10
8.0059
 20
4.0296
 30
0.0
 10
8.0059
 20
4.2778
 30
0.0
  0
SPLINE
  5
FA
330
1F
100
AcDbEntity
  8
Ilustrace
 62
   250
370
    30
100
AcDbSpline
210
0.0
220
0.0
230
1.0
 70
     8
 71
     3
 72
    16
 73
    12
 74
     0
 42
0.0000000001
 43
0.0000000001
 40
0.0
 40
0.0
 40
0.0
 40
0.0
 40
0.25
 40
0.25
 40
0.25
 40
0.25
 40
0.5
 40
0.5
 40
0.5
 40
0.5
 40
1.0
 40
1.0
 40
1.0
 40
1.0
 10
8.0059
 20
4.2778
 30
0.0
 10
8.0059
 20
4.2778
 30
0.0
 10
8.0059
 20
5.6964
 30
0.0
 10
8.0059
 20
5.6964
 30
0.0
 10
8.0059
 20
5.6964
 30
0.0
 10
8.0059
 20
5.6964
 30
0.0
 10
8.0059
 20
6.0568
 30
0.0
 10
8.0059
 20
6.0568
 30
0.0
 10
8.0059
 20
6.0568
 30
0.0
 10
8.0059
 20
6.0568
 30
0.0
 10
8.0114
 20
6.1193
 30
0.0
 10
8.0114
 20
6.1193
 30
0.0
  0
SPLINE
  5
FB
330
1F
100
AcDbEntity
  8
Ilustrace
 62
   250
370
    30
100
AcDbSpline
210
0.0
220
0.0
230
1.0
 70
    24
 71
     3
 72
     8
 73
     4
 74
     0
 42
0.0000000001
 43
0.0000000001
 40
0.0
 40
0.0
 40
0.0
 40
0.0
 40
1.0
 40
1.0
 40
1.0
 40
1.0
 10
-13.2657
 20
2.0712
 30
0.0
 10
-13.2657
 20
2.0712
 30
0.0
 10
-13.2607
 20
2.0722
 30
0.0
 10
-13.2607
 20
2.0722
 30
0.0
  0
SPLINE
  5
FC
330
1F
100
AcDbEntity
  8
Ilustrace
 62
   250
370
    30
100
AcDbSpline
210
0.0
220
0.0
230
1.0
 70
     8
 71
     3
 72
    20
 73
    16
 74
     0
 42
0.0000000001
 43
0.0000000001
 40
0.0
 40
0.0
 40
0.0
 40
0.0
 40
0.2
 40
0.2
 40
0.2
 40
0.2
 40
0.4
 40
0.4
 40
0.4
 40
0.4
 40
0.6
 40
0.6
 40
0.6
 40
0.6
 40
1.0
 40
1.0
 40
1.0
 40
1.0
 10
-9.5832
 20
2.5059
 30
0.0
 10
-8.3524
 20
2.3001
 30
0.0
 10
-7.1232
 20
2.0894
 30
0.0
 10
-5.8794
 20
1.977
 30
0.0
 10
-5.8794
 20
1.977
 30
0.0
 10
-3.6387
 20
1.7744
 30
0.0
 10
-1.3779
 20
1.8183
 30
0.0
 10
0.869
 20
1.8476
 30
0.0
 10
0.869
 20
1.8476
 30
0.0
 10
2.1273
 20
1.8639
 30
0.0
 10
3.3855
 20
1.8864
 30
0.0
 10
4.6435
 20
1.9085
 30
0.0
 10
4.6435
 20
1.9085
 30
0.0
 10
5.3373
 20
1.9206
 30
0.0
 10
6.0326
 20
1.9206
 30
0.0
 10
6.7259
 20
1.9443
 30
0.0
  0
SPLINE
  5
FD
330
1F
100
AcDbEntity
  8
Ilustrace
 62
   250
370
    30
100
AcDbSpline
210
0.0
220
0.0
230
1.0
 70
    24
 71
     3
 72
     8
 73
     4
 74
     0
 42
0.0000000001
 43
0.0000000001
 40
0.0
 40
0.0
 40
0.0
 40
0.0
 40
1.0
 40
1.0
 40
1.0
 40
1.0
 10
-13.0683
 20
3.0018
 30
0.0
 10
-13.0683
 20
3.0018
 30
0.0
 10
-13.0727
 20
3.0024
 30
0.0
 10
-13.0727
 20
3.0024
 30
0.0
  0
SPLINE
  5
FE
330
1F
100
AcDbEntity
  8
Ilustrace
 62
   250
370
    30
100
AcDbSpline
210
0.0
220
0.0
230
1.0
 70
     8
 71
     3
 72
     8
 73
     4
 74
     0
 42
0.0000000001
 43
0.0000000001
 40
0.0
 40
0.0
 40
0.0
 40
0.0
 40
1.0
 40
1.0
 40
1.0
 40
1.0
 10
-13.0727
 20
3.0024
 30
0.0
 10
-12.0343
 20
2.8602
 30
0.0
 10
-10.6669
 20
2.6575
 30
0.0
 10
-9.629
 20
2.5118
 30
0.0
  0
SPLINE
  5
FF
330
1F
100
AcDbEntity
  8
Ilustrace
 62
   250
100
AcDbSpline
210
0.0
220
0.0
230
1.0
 70
    11
 71
     3
 72
    36
 73
    32
 74
     0
 42
0.0000000001
 43
0.0000000001
 40
0.0
 40
0.0
 40
0.0
 40
0.0
 40
0.1111111111111111
 40
0.1111111111111111
 40
0.1111111111111111
 40
0.1111111111111111
 40
0.2222222222222222
 40
0.2222222222222222
 40
0.2222222222222222
 40
0.2222222222222222
 40
0.3333333333333333
 40
0.3333333333333333
 40
0.3333333333333333
 40
0.3333333333333333
 40
0.4444444444444444
 40
0.4444444444444444
 40
0.4444444444444444
 40
0.4444444444444444
 40
0.5555555555555556
 40
0.5555555555555556
 40
0.5555555555555556
 40
0.5555555555555556
 40
0.6666666666666666
 40
0.6666666666666666
 40
0.6666666666666666
 40
0.6666666666666666
 40
0.7777777777777778
 40
0.7777777777777778
 40
0.7777777777777778
 40
0.7777777777777778
 40
1.0
 40
1.0
 40
1.0
 40
1.0
 10
15.6997
 20
-6.5414
 30
0.0
 10
15.6997
 20
-6.5414
 30
0.0
 10
15.6997
 20
-6.2115
 30
0.0
 10
15.6997
 20
-6.2115
 30
0.0
 10
15.6997
 20
-6.2115
 30
0.0
 10
15.6997
 20
-6.2115
 30
0.0
 10
13.1773
 20
-6.2115
 30
0.0
 10
13.1773
 20
-6.2115
 30
0.0
 10
13.1773
 20
-6.2115
 30
0.0
 10
13.1773
 20
-6.2115
 30
0.0
 10
13.1773
 20
-6.5026
 30
0.0
 10
13.1773
 20
-6.5026
 30
0.0
 10
13.1773
 20
-6.5026
 30
0.0
 10
13.1773
 20
-6.5026
 30
0.0
 10
13.4722
 20
-7.0536
 30
0.0
 10
13.4722
 20
-7.0536
 30
0.0
 10
13.4722
 20
-7.0536
 30
0.0
 10
13.4722
 20
-7.0536
 30
0.0
 10
13.7322
 20
-6.9876
 30
0.0
 10
13.7322
 20
-6.9876
 30
0.0
 10
13.7322
 20
-6.9876
 30
0.0
 10
13.7322
 20
-6.9876
 30
0.0
 10
13.4955
 20
-6.5491
 30
0.0
 10
13.4955
 20
-6.5491
 30
0.0
 10
13.4955
 20
-6.5491
 30
0.0
 10
13.4955
 20
-6.5491
 30
0.0
 10
13.4955
 20
-6.5414
 30
0.0
 10
13.4955
 20
-6.5414
 30
0.0
 10
13.4955
 20
-6.5414
 30
0.0
 10
13.4955
 20
-6.5414
 30
0.0
 10
15.6997
 20
-6.5414
 30
0.0
 10
15.6997
 20
-6.5414
 30
0.0
  0
SPLINE
  5
100
330
1F
100
AcDbEntity
  8
Ilustrace
 62
   250
100
AcDbSpline
210
0.0
220
0.0
230
1.0
 70
    11
 71
     3
 72
    56
 73
    52
 74
     0
 42
0.0000000001
 43
0.0000000001
 40
0.0
 40
0.0
 40
0.0
 40
0.0
 40
0.0714285714285714
 40
0.0714285714285714
 40
0.0714285714285714
 40
0.0714285714285714
 40
0.1428571428571428
 40
0.1428571428571428
 40
0.1428571428571428
 40
0.1428571428571428
 40
0.2142857142857143
 40
0.2142857142857143
 40
0.2142857142857143
 40
0.2142857142857143
 40
0.2857142857142857
 40
0.2857142857142857
 40
0.2857142857142857
 40
0.2857142857142857
 40
0.3571428571428572
 40
0.3571428571428572
 40
0.3571428571428572
 40
0.3571428571428572
 40
0.4285714285714285
 40
0.4285714285714285
 40
0.4285714285714285
 40
0.4285714285714285
 40
0.5
 40
0.5
 40
0.5
 40
0.5
 40
0.5714285714285714
 40
0.5714285714285714
 40
0.5714285714285714
 40
0.5714285714285714
 40
0.6428571428571429
 40
0.6428571428571429
 40
0.6428571428571429
 40
0.6428571428571429
 40
0.7142857142857143
 40
0.7142857142857143
 40
0.7142857142857143
 40
0.7142857142857143
 40
0.7857142857142857
 40
0.7857142857142857
 40
0.7857142857142857
 40
0.7857142857142857
 40
0.8571428571428571
 40
0.8571428571428571
 40
0.8571428571428571
 40
0.8571428571428571
 40
1.0
 40
1.0
 40
1.0
 40
1.0
 10
13.1346
 20
-4.4459
 30
0.0
 10
13.1346
 20
-4.5746
 30
0.0
 10
13.1631
 20
-4.6923
 30
0.0
 10
13.22
 20
-4.7997
 30
0.0
 10
13.22
 20
-4.7997
 30
0.0
 10
13.2769
 20
-4.907
 30
0.0
 10
13.3603
 20
-4.9995
 30
0.0
 10
13.4716
 20
-5.0784
 30
0.0
 10
13.4716
 20
-5.0784
 30
0.0
 10
13.5828
 20
-5.1573
 30
0.0
 10
13.7199
 20
-5.2181
 30
0.0
 10
13.8829
 20
-5.2615
 30
0.0
 10
13.8829
 20
-5.2615
 30
0.0
 10
14.0459
 20
-5.3042
 30
0.0
 10
14.2335
 20
-5.3262
 30
0.0
 10
14.4463
 20
-5.3268
 30
0.0
 10
14.4463
 20
-5.3268
 30
0.0
 10
14.725
 20
-5.3229
 30
0.0
 10
14.9604
 20
-5.2861
 30
0.0
 10
15.1532
 20
-5.2156
 30
0.0
 10
15.1532
 20
-5.2156
 30
0.0
 10
15.3459
 20
-5.1451
 30
0.0
 10
15.4921
 20
-5.0474
 30
0.0
 10
15.5917
 20
-4.9232
 30
0.0
 10
15.5917
 20
-4.9232
 30
0.0
 10
15.6913
 20
-4.799
 30
0.0
 10
15.7417
 20
-4.6542
 30
0.0
 10
15.7424
 20
-4.4886
 30
0.0
 10
15.7424
 20
-4.4886
 30
0.0
 10
15.7417
 20
-4.303
 30
0.0
 10
15.69
 20
-4.1452
 30
0.0
 10
15.5878
 20
-4.0145
 30
0.0
 10
15.5878
 20
-4.0145
 30
0.0
 10
15.4856
 20
-3.8839
 30
0.0
 10
15.3356
 20
-3.7843
 30
0.0
 10
15.1377
 20
-3.7157
 30
0.0
 10
15.1377
 20
-3.7157
 30
0.0
 10
14.9397
 20
-3.6465
 30
0.0
 10
14.6979
 20
-3.6122
 30
0.0
 10
14.4113
 20
-3.6116
 30
0.0
 10
14.4113
 20
-3.6116
 30
0.0
 10
14.1429
 20
-3.6122
 30
0.0
 10
13.9133
 20
-3.6452
 30
0.0
 10
13.7232
 20
-3.7105
 30
0.0
 10
13.7232
 20
-3.7105
 30
0.0
 10
13.533
 20
-3.7759
 30
0.0
 10
13.3875
 20
-3.8709
 30
0.0
 10
13.2873
 20
-3.9951
 30
0.0
 10
13.2873
 20
-3.9951
 30
0.0
 10
13.1864
 20
-4.1193
 30
0.0
 10
13.1353
 20
-4.2693
 30
0.0
 10
13.1346
 20
-4.4459
 30
0.0
  0
SPLINE
  5
101
330
1F
100
AcDbEntity
  8
Ilustrace
 62
   250
100
AcDbSpline
210
0.0
220
0.0
230
1.0
 70
    11
 71
     3
 72
    56
 73
    52
 74
     0
 42
0.0000000001
 43
0.0000000001
 40
0.0
 40
0.0
 40
0.0
 40
0.0
 40
0.0714285714285714
 40
0.0714285714285714
 40
0.0714285714285714
 40
0.0714285714285714
 40
0.1428571428571428
 40
0.1428571428571428
 40
0.1428571428571428
 40
0.1428571428571428
 40
0.2142857142857143
 40
0.2142857142857143
 40
0.2142857142857143
 40
0.2142857142857143
 40
0.2857142857142857
 40
0.2857142857142857
 40
0.2857142857142857
 40
0.2857142857142857
 40
0.3571428571428572
 40
0.3571428571428572
 40
0.3571428571428572
 40
0.3571428571428572
 40
0.4285714285714285
 40
0.4285714285714285
 40
0.4285714285714285
 40
0.4285714285714285
 40
0.5
 40
0.5
 40
0.5
 40
0.5
 40
0.5714285714285714
 40
0.5714285714285714
 40
0.5714285714285714
 40
0.5714285714285714
 40
0.6428571428571429
 40
0.6428571428571429
 40
0.6428571428571429
 40
0.6428571428571429
 40
0.7142857142857143
 40
0.7142857142857143
 40
0.7142857142857143
 40
0.7142857142857143
 40
0.7857142857142857
 40
0.7857142857142857
 40
0.7857142857142857
 40
0.7857142857142857
 40
0.8571428571428571
 40
0.8571428571428571
 40
0.8571428571428571
 40
0.8571428571428571
 40
1.0
 40
1.0
 40
1.0
 40
1.0
 10
13.3985
 20
-4.4692
 30
0.0
 10
13.3992
 20
-4.3799
 30
0.0
 10
13.4231
 20
-4.303
 30
0.0
 10
13.4716
 20
-4.2383
 30
0.0
 10
13.4716
 20
-4.2383
 30
0.0
 10
13.5201
 20
-4.1736
 30
0.0
 10
13.5893
 20
-4.1206
 30
0.0
 10
13.6798
 20
-4.0792
 30
0.0
 10
13.6798
 20
-4.0792
 30
0.0
 10
13.7697
 20
-4.0378
 30
0.0
 10
13.8784
 20
-4.0067
 30
0.0
 10
14.0039
 20
-3.9867
 30
0.0
 10
14.0039
 20
-3.9867
 30
0.0
 10
14.13
 20
-3.9666
 30
0.0
 10
14.271
 20
-3.9569
 30
0.0
 10
14.4269
 20
-3.9569
 30
0.0
 10
14.4269
 20
-3.9569
 30
0.0
 10
14.6429
 20
-3.9569
 30
0.0
 10
14.8292
 20
-3.9757
 30
0.0
 10
14.9857
 20
-4.0132
 30
0.0
 10
14.9857
 20
-4.0132
 30
0.0
 10
15.1428
 20
-4.0501
 30
0.0
 10
15.2638
 20
-4.107
 30
0.0
 10
15.3492
 20
-4.1827
 30
0.0
 10
15.3492
 20
-4.1827
 30
0.0
 10
15.4345
 20
-4.2583
 30
0.0
 10
15.4772
 20
-4.3541
 30
0.0
 10
15.4785
 20
-4.4692
 30
0.0
 10
15.4785
 20
-4.4692
 30
0.0
 10
15.4779
 20
-4.5733
 30
0.0
 10
15.4378
 20
-4.6632
 30
0.0
 10
15.3576
 20
-4.7402
 30
0.0
 10
15.3576
 20
-4.7402
 30
0.0
 10
15.2774
 20
-4.8165
 30
0.0
 10
15.1609
 20
-4.8754
 30
0.0
 10
15.0083
 20
-4.9174
 30
0.0
 10
15.0083
 20
-4.9174
 30
0.0
 10
14.855
 20
-4.9594
 30
0.0
 10
14.6694
 20
-4.9808
 30
0.0
 10
14.4501
 20
-4.9814
 30
0.0
 10
14.4501
 20
-4.9814
 30
0.0
 10
14.2205
 20
-4.9808
 30
0.0
 10
14.0285
 20
-4.9581
 30
0.0
 10
13.8719
 20
-4.9142
 30
0.0
 10
13.8719
 20
-4.9142
 30
0.0
 10
13.7161
 20
-4.8702
 30
0.0
 10
13.5984
 20
-4.81
 30
0.0
 10
13.5182
 20
-4.7331
 30
0.0
 10
13.5182
 20
-4.7331
 30
0.0
 10
13.4386
 20
-4.6561
 30
0.0
 10
13.3985
 20
-4.5681
 30
0.0
 10
13.3985
 20
-4.4692
 30
0.0
  0
SPLINE
  5
102
330
1F
100
AcDbEntity
  8
Ilustrace
 62
   250
100
AcDbSpline
210
0.0
220
0.0
230
1.0
 70
    11
 71
     3
 72
    56
 73
    52
 74
     0
 42
0.0000000001
 43
0.0000000001
 40
0.0
 40
0.0
 40
0.0
 40
0.0
 40
0.0714285714285714
 40
0.0714285714285714
 40
0.0714285714285714
 40
0.0714285714285714
 40
0.1428571428571428
 40
0.1428571428571428
 40
0.1428571428571428
 40
0.1428571428571428
 40
0.2142857142857143
 40
0.2142857142857143
 40
0.2142857142857143
 40
0.2142857142857143
 40
0.2857142857142857
 40
0.2857142857142857
 40
0.2857142857142857
 40
0.2857142857142857
 40
0.3571428571428572
 40
0.3571428571428572
 40
0.3571428571428572
 40
0.3571428571428572
 40
0.4285714285714285
 40
0.4285714285714285
 40
0.4285714285714285
 40
0.4285714285714285
 40
0.5
 40
0.5
 40
0.5
 40
0.5
 40
0.5714285714285714
 40
0.5714285714285714
 40
0.5714285714285714
 40
0.5714285714285714
 40
0.6428571428571429
 40
0.6428571428571429
 40
0.6428571428571429
 40
0.6428571428571429
 40
0.7142857142857143
 40
0.7142857142857143
 40
0.7142857142857143
 40
0.7142857142857143
 40
0.7857142857142857
 40
0.7857142857142857
 40
0.7857142857142857
 40
0.7857142857142857
 40
0.8571428571428571
 40
0.8571428571428571
 40
0.8571428571428571
 40
0.8571428571428571
 40
1.0
 40
1.0
 40
1.0
 40
1.0
 10
13.1346
 20
-2.4552
 30
0.0
 10
13.1346
 20
-2.5839
 30
0.0
 10
13.1631
 20
-2.7016
 30
0.0
 10
13.22
 20
-2.809
 30
0.0
 10
13.22
 20
-2.809
 30
0.0
 10
13.2769
 20
-2.9163
 30
0.0
 10
13.3603
 20
-3.0088
 30
0.0
 10
13.4716
 20
-3.0877
 30
0.0
 10
13.4716
 20
-3.0877
 30
0.0
 10
13.5828
 20
-3.1666
 30
0.0
 10
13.7199
 20
-3.2274
 30
0.0
 10
13.8829
 20
-3.2708
 30
0.0
 10
13.8829
 20
-3.2708
 30
0.0
 10
14.0459
 20
-3.3135
 30
0.0
 10
14.2335
 20
-3.3355
 30
0.0
 10
14.4463
 20
-3.3361
 30
0.0
 10
14.4463
 20
-3.3361
 30
0.0
 10
14.725
 20
-3.3322
 30
0.0
 10
14.9604
 20
-3.2954
 30
0.0
 10
15.1532
 20
-3.2249
 30
0.0
 10
15.1532
 20
-3.2249
 30
0.0
 10
15.3459
 20
-3.1544
 30
0.0
 10
15.4921
 20
-3.0567
 30
0.0
 10
15.5917
 20
-2.9325
 30
0.0
 10
15.5917
 20
-2.9325
 30
0.0
 10
15.6913
 20
-2.8083
 30
0.0
 10
15.7417
 20
-2.6635
 30
0.0
 10
15.7424
 20
-2.4979
 30
0.0
 10
15.7424
 20
-2.4979
 30
0.0
 10
15.7417
 20
-2.3123
 30
0.0
 10
15.69
 20
-2.1545
 30
0.0
 10
15.5878
 20
-2.0238
 30
0.0
 10
15.5878
 20
-2.0238
 30
0.0
 10
15.4856
 20
-1.8932
 30
0.0
 10
15.3356
 20
-1.7936
 30
0.0
 10
15.1377
 20
-1.725
 30
0.0
 10
15.1377
 20
-1.725
 30
0.0
 10
14.9397
 20
-1.6558
 30
0.0
 10
14.6979
 20
-1.6215
 30
0.0
 10
14.4113
 20
-1.6209
 30
0.0
 10
14.4113
 20
-1.6209
 30
0.0
 10
14.1429
 20
-1.6215
 30
0.0
 10
13.9133
 20
-1.6545
 30
0.0
 10
13.7232
 20
-1.7198
 30
0.0
 10
13.7232
 20
-1.7198
 30
0.0
 10
13.533
 20
-1.7852
 30
0.0
 10
13.3875
 20
-1.8802
 30
0.0
 10
13.2873
 20
-2.0044
 30
0.0
 10
13.2873
 20
-2.0044
 30
0.0
 10
13.1864
 20
-2.1286
 30
0.0
 10
13.1353
 20
-2.2786
 30
0.0
 10
13.1346
 20
-2.4552
 30
0.0
  0
SPLINE
  5
103
330
1F
100
AcDbEntity
  8
Ilustrace
 62
   250
100
AcDbSpline
210
0.0
220
0.0
230
1.0
 70
    11
 71
     3
 72
    56
 73
    52
 74
     0
 42
0.0000000001
 43
0.0000000001
 40
0.0
 40
0.0
 40
0.0
 40
0.0
 40
0.0714285714285714
 40
0.0714285714285714
 40
0.0714285714285714
 40
0.0714285714285714
 40
0.1428571428571428
 40
0.1428571428571428
 40
0.1428571428571428
 40
0.1428571428571428
 40
0.2142857142857143
 40
0.2142857142857143
 40
0.2142857142857143
 40
0.2142857142857143
 40
0.2857142857142857
 40
0.2857142857142857
 40
0.2857142857142857
 40
0.2857142857142857
 40
0.3571428571428572
 40
0.3571428571428572
 40
0.3571428571428572
 40
0.3571428571428572
 40
0.4285714285714285
 40
0.4285714285714285
 40
0.4285714285714285
 40
0.4285714285714285
 40
0.5
 40
0.5
 40
0.5
 40
0.5
 40
0.5714285714285714
 40
0.5714285714285714
 40
0.5714285714285714
 40
0.5714285714285714
 40
0.6428571428571429
 40
0.6428571428571429
 40
0.6428571428571429
 40
0.6428571428571429
 40
0.7142857142857143
 40
0.7142857142857143
 40
0.7142857142857143
 40
0.7142857142857143
 40
0.7857142857142857
 40
0.7857142857142857
 40
0.7857142857142857
 40
0.7857142857142857
 40
0.8571428571428571
 40
0.8571428571428571
 40
0.8571428571428571
 40
0.8571428571428571
 40
1.0
 40
1.0
 40
1.0
 40
1.0
 10
13.3985
 20
-2.4785
 30
0.0
 10
13.3992
 20
-2.3892
 30
0.0
 10
13.4231
 20
-2.3123
 30
0.0
 10
13.4716
 20
-2.2476
 30
0.0
 10
13.4716
 20
-2.2476
 30
0.0
 10
13.5201
 20
-2.1829
 30
0.0
 10
13.5893
 20
-2.1299
 30
0.0
 10
13.6798
 20
-2.0885
 30
0.0
 10
13.6798
 20
-2.0885
 30
0.0
 10
13.7697
 20
-2.0471
 30
0.0
 10
13.8784
 20
-2.016
 30
0.0
 10
14.0039
 20
-1.996
 30
0.0
 10
14.0039
 20
-1.996
 30
0.0
 10
14.13
 20
-1.9759
 30
0.0
 10
14.271
 20
-1.9662
 30
0.0
 10
14.4269
 20
-1.9662
 30
0.0
 10
14.4269
 20
-1.9662
 30
0.0
 10
14.6429
 20
-1.9662
 30
0.0
 10
14.8292
 20
-1.985
 30
0.0
 10
14.9857
 20
-2.0225
 30
0.0
 10
14.9857
 20
-2.0225
 30
0.0
 10
15.1428
 20
-2.0594
 30
0.0
 10
15.2638
 20
-2.1163
 30
0.0
 10
15.3492
 20
-2.192
 30
0.0
 10
15.3492
 20
-2.192
 30
0.0
 10
15.4345
 20
-2.2676
 30
0.0
 10
15.4772
 20
-2.3634
 30
0.0
 10
15.4785
 20
-2.4785
 30
0.0
 10
15.4785
 20
-2.4785
 30
0.0
 10
15.4779
 20
-2.5826
 30
0.0
 10
15.4378
 20
-2.6725
 30
0.0
 10
15.3576
 20
-2.7495
 30
0.0
 10
15.3576
 20
-2.7495
 30
0.0
 10
15.2774
 20
-2.8258
 30
0.0
 10
15.1609
 20
-2.8847
 30
0.0
 10
15.0083
 20
-2.9267
 30
0.0
 10
15.0083
 20
-2.9267
 30
0.0
 10
14.855
 20
-2.9687
 30
0.0
 10
14.6694
 20
-2.9901
 30
0.0
 10
14.4501
 20
-2.9907
 30
0.0
 10
14.4501
 20
-2.9907
 30
0.0
 10
14.2205
 20
-2.9901
 30
0.0
 10
14.0285
 20
-2.9674
 30
0.0
 10
13.8719
 20
-2.9235
 30
0.0
 10
13.8719
 20
-2.9235
 30
0.0
 10
13.7161
 20
-2.8795
 30
0.0
 10
13.5984
 20
-2.8193
 30
0.0
 10
13.5182
 20
-2.7424
 30
0.0
 10
13.5182
 20
-2.7424
 30
0.0
 10
13.4386
 20
-2.6654
 30
0.0
 10
13.3985
 20
-2.5774
 30
0.0
 10
13.3985
 20
-2.4785
 30
0.0
  0
SPLINE
  5
104
330
1F
100
AcDbEntity
  8
Ilustrace
 62
   250
100
AcDbSpline
210
0.0
220
0.0
230
1.0
 70
    11
 71
     3
 72
    36
 73
    32
 74
     0
 42
0.0000000001
 43
0.0000000001
 40
0.0
 40
0.0
 40
0.0
 40
0.0
 40
0.1111111111111111
 40
0.1111111111111111
 40
0.1111111111111111
 40
0.1111111111111111
 40
0.2222222222222222
 40
0.2222222222222222
 40
0.2222222222222222
 40
0.2222222222222222
 40
0.3333333333333333
 40
0.3333333333333333
 40
0.3333333333333333
 40
0.3333333333333333
 40
0.4444444444444444
 40
0.4444444444444444
 40
0.4444444444444444
 40
0.4444444444444444
 40
0.5555555555555556
 40
0.5555555555555556
 40
0.5555555555555556
 40
0.5555555555555556
 40
0.6666666666666666
 40
0.6666666666666666
 40
0.6666666666666666
 40
0.6666666666666666
 40
0.7777777777777778
 40
0.7777777777777778
 40
0.7777777777777778
 40
0.7777777777777778
 40
1.0
 40
1.0
 40
1.0
 40
1.0
 10
15.6997
 20
1.371
 30
0.0
 10
15.6997
 20
1.371
 30
0.0
 10
15.6997
 20
1.7009
 30
0.0
 10
15.6997
 20
1.7009
 30
0.0
 10
15.6997
 20
1.7009
 30
0.0
 10
15.6997
 20
1.7009
 30
0.0
 10
13.1773
 20
1.7009
 30
0.0
 10
13.1773
 20
1.7009
 30
0.0
 10
13.1773
 20
1.7009
 30
0.0
 10
13.1773
 20
1.7009
 30
0.0
 10
13.1773
 20
1.4098
 30
0.0
 10
13.1773
 20
1.4098
 30
0.0
 10
13.1773
 20
1.4098
 30
0.0
 10
13.1773
 20
1.4098
 30
0.0
 10
13.4722
 20
0.8588
 30
0.0
 10
13.4722
 20
0.8588
 30
0.0
 10
13.4722
 20
0.8588
 30
0.0
 10
13.4722
 20
0.8588
 30
0.0
 10
13.7322
 20
0.9248
 30
0.0
 10
13.7322
 20
0.9248
 30
0.0
 10
13.7322
 20
0.9248
 30
0.0
 10
13.7322
 20
0.9248
 30
0.0
 10
13.4955
 20
1.3633
 30
0.0
 10
13.4955
 20
1.3633
 30
0.0
 10
13.4955
 20
1.3633
 30
0.0
 10
13.4955
 20
1.3633
 30
0.0
 10
13.4955
 20
1.371
 30
0.0
 10
13.4955
 20
1.371
 30
0.0
 10
13.4955
 20
1.371
 30
0.0
 10
13.4955
 20
1.371
 30
0.0
 10
15.6997
 20
1.371
 30
0.0
 10
15.6997
 20
1.371
 30
0.0
  0
SPLINE
  5
105
330
1F
100
AcDbEntity
  8
Ilustrace
 62
   250
100
AcDbSpline
210
0.0
220
0.0
230
1.0
 70
    11
 71
     3
 72
   124
 73
   120
 74
     0
 42
0.0000000001
 43
0.0000000001
 40
0.0
 40
0.0
 40
0.0
 40
0.0
 40
0.032258064516129
 40
0.032258064516129
 40
0.032258064516129
 40
0.032258064516129
 40
0.0645161290322581
 40
0.0645161290322581
 40
0.0645161290322581
 40
0.0645161290322581
 40
0.0967741935483871
 40
0.0967741935483871
 40
0.0967741935483871
 40
0.0967741935483871
 40
0.1290322580645161
 40
0.1290322580645161
 40
0.1290322580645161
 40
0.1290322580645161
 40
0.1612903225806452
 40
0.1612903225806452
 40
0.1612903225806452
 40
0.1612903225806452
 40
0.1935483870967742
 40
0.1935483870967742
 40
0.1935483870967742
 40
0.1935483870967742
 40
0.2258064516129032
 40
0.2258064516129032
 40
0.2258064516129032
 40
0.2258064516129032
 40
0.2580645161290323
 40
0.2580645161290323
 40
0.2580645161290323
 40
0.2580645161290323
 40
0.2903225806451613
 40
0.2903225806451613
 40
0.2903225806451613
 40
0.2903225806451613
 40
0.3225806451612903
 40
0.3225806451612903
 40
0.3225806451612903
 40
0.3225806451612903
 40
0.3548387096774194
 40
0.3548387096774194
 40
0.3548387096774194
 40
0.3548387096774194
 40
0.3870967741935484
 40
0.3870967741935484
 40
0.3870967741935484
 40
0.3870967741935484
 40
0.4193548387096774
 40
0.4193548387096774
 40
0.4193548387096774
 40
0.4193548387096774
 40
0.4516129032258064
 40
0.4516129032258064
 40
0.4516129032258064
 40
0.4516129032258064
 40
0.4838709677419355
 40
0.4838709677419355
 40
0.4838709677419355
 40
0.4838709677419355
 40
0.5161290322580645
 40
0.5161290322580645
 40
0.5161290322580645
 40
0.5161290322580645
 40
0.5483870967741935
 40
0.5483870967741935
 40
0.5483870967741935
 40
0.5483870967741935
 40
0.5806451612903226
 40
0.5806451612903226
 40
0.5806451612903226
 40
0.5806451612903226
 40
0.6129032258064516
 40
0.6129032258064516
 40
0.6129032258064516
 40
0.6129032258064516
 40
0.6451612903225806
 40
0.6451612903225806
 40
0.6451612903225806
 40
0.6451612903225806
 40
0.6774193548387096
 40
0.6774193548387096
 40
0.6774193548387096
 40
0.6774193548387096
 40
0.7096774193548387
 40
0.7096774193548387
 40
0.7096774193548387
 40
0.7096774193548387
 40
0.7419354838709677
 40
0.7419354838709677
 40
0.7419354838709677
 40
0.7419354838709677
 40
0.7741935483870968
 40
0.7741935483870968
 40
0.7741935483870968
 40
0.7741935483870968
 40
0.8064516129032258
 40
0.8064516129032258
 40
0.8064516129032258
 40
0.8064516129032258
 40
0.8387096774193549
 40
0.8387096774193549
 40
0.8387096774193549
 40
0.8387096774193549
 40
0.8709677419354839
 40
0.8709677419354839
 40
0.8709677419354839
 40
0.8709677419354839
 40
0.9032258064516129
 40
0.9032258064516129
 40
0.9032258064516129
 40
0.9032258064516129
 40
0.9354838709677419
 40
0.9354838709677419
 40
0.9354838709677419
 40
0.9354838709677419
 40
1.0
 40
1.0
 40
1.0
 40
1.0
 10
15.6997
 20
4.231
 30
0.0
 10
15.6997
 20
4.231
 30
0.0
 10
15.4164
 20
4.231
 30
0.0
 10
15.4164
 20
4.231
 30
0.0
 10
15.4164
 20
4.231
 30
0.0
 10
15.4164
 20
4.231
 30
0.0
 10
15.4164
 20
3.1017
 30
0.0
 10
15.4164
 20
3.1017
 30
0.0
 10
15.4164
 20
3.1017
 30
0.0
 10
15.4164
 20
3.1017
 30
0.0
 10
15.4087
 20
3.1017
 30
0.0
 10
15.4087
 20
3.1017
 30
0.0
 10
15.4087
 20
3.1017
 30
0.0
 10
15.4087
 20
3.1017
 30
0.0
 10
15.2224
 20
3.2996
 30
0.0
 10
15.2224
 20
3.2996
 30
0.0
 10
15.2224
 20
3.2996
 30
0.0
 10
15.095
 20
3.4329
 30
0.0
 10
14.974
 20
3.5532
 30
0.0
 10
14.8602
 20
3.6599
 30
0.0
 10
14.8602
 20
3.6599
 30
0.0
 10
14.7464
 20
3.7666
 30
0.0
 10
14.6351
 20
3.8578
 30
0.0
 10
14.5278
 20
3.9335
 30
0.0
 10
14.5278
 20
3.9335
 30
0.0
 10
14.4204
 20
4.0098
 30
0.0
 10
14.3124
 20
4.0673
 30
0.0
 10
14.2037
 20
4.1081
 30
0.0
 10
14.2037
 20
4.1081
 30
0.0
 10
14.0957
 20
4.1482
 30
0.0
 10
13.9838
 20
4.1682
 30
0.0
 10
13.8681
 20
4.1689
 30
0.0
 10
13.8681
 20
4.1689
 30
0.0
 10
13.7769
 20
4.1689
 30
0.0
 10
13.6876
 20
4.1547
 30
0.0
 10
13.6009
 20
4.1249
 30
0.0
 10
13.6009
 20
4.1249
 30
0.0
 10
13.5143
 20
4.0952
 30
0.0
 10
13.436
 20
4.0486
 30
0.0
 10
13.3662
 20
3.9865
 30
0.0
 10
13.3662
 20
3.9865
 30
0.0
 10
13.2957
 20
3.9244
 30
0.0
 10
13.24
 20
3.8442
 30
0.0
 10
13.1987
 20
3.7465
 30
0.0
 10
13.1987
 20
3.7465
 30
0.0
 10
13.1566
 20
3.6489
 30
0.0
 10
13.1353
 20
3.5325
 30
0.0
 10
13.1346
 20
3.3966
 30
0.0
 10
13.1346
 20
3.3966
 30
0.0
 10
13.1353
 20
3.3009
 30
0.0
 10
13.1463
 20
3.2097
 30
0.0
 10
13.1689
 20
3.1231
 30
0.0
 10
13.1689
 20
3.1231
 30
0.0
 10
13.1915
 20
3.0364
 30
0.0
 10
13.2219
 20
2.9562
 30
0.0
 10
13.2607
 20
2.8825
 30
0.0
 10
13.2607
 20
2.8825
 30
0.0
 10
13.2989
 20
2.8094
 30
0.0
 10
13.3422
 20
2.7441
 30
0.0
 10
13.3907
 20
2.6865
 30
0.0
 10
13.3907
 20
2.6865
 30
0.0
 10
13.3907
 20
2.6865
 30
0.0
 10
13.6313
 20
2.7952
 30
0.0
 10
13.6313
 20
2.7952
 30
0.0
 10
13.6313
 20
2.7952
 30
0.0
 10
13.5984
 20
2.834
 30
0.0
 10
13.5654
 20
2.8805
 30
0.0
 10
13.533
 20
2.9349
 30
0.0
 10
13.533
 20
2.9349
 30
0.0
 10
13.5
 20
2.9892
 30
0.0
 10
13.4735
 20
3.0493
 30
0.0
 10
13.4515
 20
3.116
 30
0.0
 10
13.4515
 20
3.116
 30
0.0
 10
13.4302
 20
3.1826
 30
0.0
 10
13.4186
 20
3.2544
 30
0.0
 10
13.4179
 20
3.3307
 30
0.0
 10
13.4179
 20
3.3307
 30
0.0
 10
13.4186
 20
3.4245
 30
0.0
 10
13.4321
 20
3.5034
 30
0.0
 10
13.4587
 20
3.5674
 30
0.0
 10
13.4587
 20
3.5674
 30
0.0
 10
13.4858
 20
3.6308
 30
0.0
 10
13.522
 20
3.6819
 30
0.0
 10
13.568
 20
3.72
 30
0.0
 10
13.568
 20
3.72
 30
0.0
 10
13.6145
 20
3.7582
 30
0.0
 10
13.6669
 20
3.786
 30
0.0
 10
13.7258
 20
3.8028
 30
0.0
 10
13.7258
 20
3.8028
 30
0.0
 10
13.7846
 20
3.8196
 30
0.0
 10
13.8461
 20
3.828
 30
0.0
 10
13.9107
 20
3.8274
 30
0.0
 10
13.9107
 20
3.8274
 30
0.0
 10
14.0052
 20
3.8274
 30
0.0
 10
14.0983
 20
3.8086
 30
0.0
 10
14.1908
 20
3.7711
 30
0.0
 10
14.1908
 20
3.7711
 30
0.0
 10
14.2839
 20
3.7336
 30
0.0
 10
14.3809
 20
3.6767
 30
0.0
 10
14.4831
 20
3.5997
 30
0.0
 10
14.4831
 20
3.5997
 30
0.0
 10
14.5853
 20
3.5228
 30
0.0
 10
14.6972
 20
3.4251
 30
0.0
 10
14.8188
 20
3.3067
 30
0.0
 10
14.8188
 20
3.3067
 30
0.0
 10
14.9404
 20
3.189
 30
0.0
 10
15.0775
 20
3.0493
 30
0.0
 10
15.2301
 20
2.8883
 30
0.0
 10
15.2301
 20
2.8883
 30
0.0
 10
15.2301
 20
2.8883
 30
0.0
 10
15.4901
 20
2.6205
 30
0.0
 10
15.4901
 20
2.6205
 30
0.0
 10
15.4901
 20
2.6205
 30
0.0
 10
15.4901
 20
2.6205
 30
0.0
 10
15.6997
 20
2.6205
 30
0.0
 10
15.6997
 20
2.6205
 30
0.0
 10
15.6997
 20
2.6205
 30
0.0
 10
15.6997
 20
2.6205
 30
0.0
 10
15.6997
 20
4.231
 30
0.0
 10
15.6997
 20
4.231
 30
0.0
  0
SPLINE
  5
106
330
1F
100
AcDbEntity
  8
Ilustrace
 62
   250
100
AcDbSpline
210
0.0
220
0.0
230
1.0
 70
    11
 71
     3
 72
   132
 73
   128
 74
     0
 42
0.0000000001
 43
0.0000000001
 40
0.0
 40
0.0
 40
0.0
 40
0.0
 40
0.0303030303030303
 40
0.0303030303030303
 40
0.0303030303030303
 40
0.0303030303030303
 40
0.0606060606060606
 40
0.0606060606060606
 40
0.0606060606060606
 40
0.0606060606060606
 40
0.0909090909090909
 40
0.0909090909090909
 40
0.0909090909090909
 40
0.0909090909090909
 40
0.1212121212121212
 40
0.1212121212121212
 40
0.1212121212121212
 40
0.1212121212121212
 40
0.1515151515151515
 40
0.1515151515151515
 40
0.1515151515151515
 40
0.1515151515151515
 40
0.1818181818181818
 40
0.1818181818181818
 40
0.1818181818181818
 40
0.1818181818181818
 40
0.2121212121212121
 40
0.2121212121212121
 40
0.2121212121212121
 40
0.2121212121212121
 40
0.2424242424242424
 40
0.2424242424242424
 40
0.2424242424242424
 40
0.2424242424242424
 40
0.2727272727272727
 40
0.2727272727272727
 40
0.2727272727272727
 40
0.2727272727272727
 40
0.303030303030303
 40
0.303030303030303
 40
0.303030303030303
 40
0.303030303030303
 40
0.3333333333333333
 40
0.3333333333333333
 40
0.3333333333333333
 40
0.3333333333333333
 40
0.3636363636363636
 40
0.3636363636363636
 40
0.3636363636363636
 40
0.3636363636363636
 40
0.3939393939393939
 40
0.3939393939393939
 40
0.3939393939393939
 40
0.3939393939393939
 40
0.4242424242424243
 40
0.4242424242424243
 40
0.4242424242424243
 40
0.4242424242424243
 40
0.4545454545454545
 40
0.4545454545454545
 40
0.4545454545454545
 40
0.4545454545454545
 40
0.4848484848484849
 40
0.4848484848484849
 40
0.4848484848484849
 40
0.4848484848484849
 40
0.5151515151515151
 40
0.5151515151515151
 40
0.5151515151515151
 40
0.5151515151515151
 40
0.5454545454545454
 40
0.5454545454545454
 40
0.5454545454545454
 40
0.5454545454545454
 40
0.5757575757575758
 40
0.5757575757575758
 40
0.5757575757575758
 40
0.5757575757575758
 40
0.6060606060606061
 40
0.6060606060606061
 40
0.6060606060606061
 40
0.6060606060606061
 40
0.6363636363636364
 40
0.6363636363636364
 40
0.6363636363636364
 40
0.6363636363636364
 40
0.6666666666666666
 40
0.6666666666666666
 40
0.6666666666666666
 40
0.6666666666666666
 40
0.696969696969697
 40
0.696969696969697
 40
0.696969696969697
 40
0.696969696969697
 40
0.7272727272727273
 40
0.7272727272727273
 40
0.7272727272727273
 40
0.7272727272727273
 40
0.7575757575757576
 40
0.7575757575757576
 40
0.7575757575757576
 40
0.7575757575757576
 40
0.7878787878787878
 40
0.7878787878787878
 40
0.7878787878787878
 40
0.7878787878787878
 40
0.8181818181818182
 40
0.8181818181818182
 40
0.8181818181818182
 40
0.8181818181818182
 40
0.8484848484848485
 40
0.8484848484848485
 40
0.8484848484848485
 40
0.8484848484848485
 40
0.8787878787878788
 40
0.8787878787878788
 40
0.8787878787878788
 40
0.8787878787878788
 40
0.9090909090909091
 40
0.9090909090909091
 40
0.9090909090909091
 40
0.9090909090909091
 40
0.9393939393939394
 40
0.9393939393939394
 40
0.9393939393939394
 40
0.9393939393939394
 40
1.0
 40
1.0
 40
1.0
 40
1.0
 10
13.1773
 20
6.1169
 30
0.0
 10
13.1773
 20
6.1169
 30
0.0
 10
13.1773
 20
4.91
 30
0.0
 10
13.1773
 20
4.91
 30
0.0
 10
13.1773
 20
4.91
 30
0.0
 10
13.1773
 20
4.91
 30
0.0
 10
14.3881
 20
4.747
 30
0.0
 10
14.3881
 20
4.747
 30
0.0
 10
14.3881
 20
4.747
 30
0.0
 10
14.3816
 20
4.7936
 30
0.0
 10
14.3764
 20
4.8454
 30
0.0
 10
14.3719
 20
4.9036
 30
0.0
 10
14.3719
 20
4.9036
 30
0.0
 10
14.3674
 20
4.9611
 30
0.0
 10
14.3648
 20
5.0271
 30
0.0
 10
14.3648
 20
5.1002
 30
0.0
 10
14.3648
 20
5.1002
 30
0.0
 10
14.3654
 20
5.267
 30
0.0
 10
14.3894
 20
5.4035
 30
0.0
 10
14.4359
 20
5.5096
 30
0.0
 10
14.4359
 20
5.5096
 30
0.0
 10
14.4831
 20
5.6163
 30
0.0
 10
14.5478
 20
5.6952
 30
0.0
 10
14.6306
 20
5.7463
 30
0.0
 10
14.6306
 20
5.7463
 30
0.0
 10
14.714
 20
5.7974
 30
0.0
 10
14.8104
 20
5.8226
 30
0.0
 10
14.9197
 20
5.822
 30
0.0
 10
14.9197
 20
5.822
 30
0.0
 10
15.0044
 20
5.8226
 30
0.0
 10
15.0801
 20
5.8071
 30
0.0
 10
15.1474
 20
5.7754
 30
0.0
 10
15.1474
 20
5.7754
 30
0.0
 10
15.2153
 20
5.7444
 30
0.0
 10
15.2722
 20
5.701
 30
0.0
 10
15.32
 20
5.6461
 30
0.0
 10
15.32
 20
5.6461
 30
0.0
 10
15.3673
 20
5.5911
 30
0.0
 10
15.4035
 20
5.5277
 30
0.0
 10
15.4287
 20
5.4559
 30
0.0
 10
15.4287
 20
5.4559
 30
0.0
 10
15.4539
 20
5.3841
 30
0.0
 10
15.4669
 20
5.3084
 30
0.0
 10
15.4669
 20
5.2282
 30
0.0
 10
15.4669
 20
5.2282
 30
0.0
 10
15.4662
 20
5.15
 30
0.0
 10
15.4591
 20
5.0763
 30
0.0
 10
15.4442
 20
5.007
 30
0.0
 10
15.4442
 20
5.007
 30
0.0
 10
15.43
 20
4.9378
 30
0.0
 10
15.4125
 20
4.8758
 30
0.0
 10
15.3912
 20
4.8208
 30
0.0
 10
15.3912
 20
4.8208
 30
0.0
 10
15.3698
 20
4.7658
 30
0.0
 10
15.3485
 20
4.7205
 30
0.0
 10
15.3272
 20
4.685
 30
0.0
 10
15.3272
 20
4.685
 30
0.0
 10
15.3272
 20
4.685
 30
0.0
 10
15.5872
 20
4.5996
 30
0.0
 10
15.5872
 20
4.5996
 30
0.0
 10
15.5872
 20
4.5996
 30
0.0
 10
15.6137
 20
4.6416
 30
0.0
 10
15.6383
 20
4.694
 30
0.0
 10
15.6622
 20
4.7567
 30
0.0
 10
15.6622
 20
4.7567
 30
0.0
 10
15.6855
 20
4.8195
 30
0.0
 10
15.7042
 20
4.8906
 30
0.0
 10
15.7191
 20
4.9702
 30
0.0
 10
15.7191
 20
4.9702
 30
0.0
 10
15.734
 20
5.0504
 30
0.0
 10
15.7417
 20
5.1364
 30
0.0
 10
15.7424
 20
5.2282
 30
0.0
 10
15.7424
 20
5.2282
 30
0.0
 10
15.7417
 20
5.366
 30
0.0
 10
15.7197
 20
5.4915
 30
0.0
 10
15.6771
 20
5.606
 30
0.0
 10
15.6771
 20
5.606
 30
0.0
 10
15.6344
 20
5.7204
 30
0.0
 10
15.5742
 20
5.8194
 30
0.0
 10
15.4966
 20
5.9028
 30
0.0
 10
15.4966
 20
5.9028
 30
0.0
 10
15.419
 20
5.9869
 30
0.0
 10
15.3278
 20
6.0516
 30
0.0
 10
15.2237
 20
6.0975
 30
0.0
 10
15.2237
 20
6.0975
 30
0.0
 10
15.1189
 20
6.1434
 30
0.0
 10
15.0044
 20
6.1667
 30
0.0
 10
14.8809
 20
6.1673
 30
0.0
 10
14.8809
 20
6.1673
 30
0.0
 10
14.7761
 20
6.1667
 30
0.0
 10
14.6817
 20
6.1499
 30
0.0
 10
14.5983
 20
6.1175
 30
0.0
 10
14.5983
 20
6.1175
 30
0.0
 10
14.5148
 20
6.0852
 30
0.0
 10
14.443
 20
6.0425
 30
0.0
 10
14.3822
 20
5.9882
 30
0.0
 10
14.3822
 20
5.9882
 30
0.0
 10
14.3214
 20
5.9339
 30
0.0
 10
14.2729
 20
5.8731
 30
0.0
 10
14.2367
 20
5.8065
 30
0.0
 10
14.2367
 20
5.8065
 30
0.0
 10
14.1889
 20
5.7282
 30
0.0
 10
14.1539
 20
5.6435
 30
0.0
 10
14.1326
 20
5.551
 30
0.0
 10
14.1326
 20
5.551
 30
0.0
 10
14.1112
 20
5.4585
 30
0.0
 10
14.1002
 20
5.3628
 30
0.0
 10
14.1009
 20
5.2632
 30
0.0
 10
14.1009
 20
5.2632
 30
0.0
 10
14.1009
 20
5.2179
 30
0.0
 10
14.1015
 20
5.1791
 30
0.0
 10
14.1035
 20
5.1474
 30
0.0
 10
14.1035
 20
5.1474
 30
0.0
 10
14.1054
 20
5.1157
 30
0.0
 10
14.1087
 20
5.086
 30
0.0
 10
14.1125
 20
5.0575
 30
0.0
 10
14.1125
 20
5.0575
 30
0.0
 10
14.1125
 20
5.0575
 30
0.0
 10
13.4645
 20
5.1545
 30
0.0
 10
13.4645
 20
5.1545
 30
0.0
 10
13.4645
 20
5.1545
 30
0.0
 10
13.4645
 20
5.1545
 30
0.0
 10
13.4645
 20
6.1169
 30
0.0
 10
13.4645
 20
6.1169
 30
0.0
 10
13.4645
 20
6.1169
 30
0.0
 10
13.4645
 20
6.1169
 30
0.0
 10
13.1773
 20
6.1169
 30
0.0
 10
13.1773
 20
6.1169
 30
0.0
  0
SPLINE
  5
107
330
1F
100
AcDbEntity
  8
Ilustrace
 62
   250
100
AcDbSpline
210
0.0
220
0.0
230
1.0
 70
    11
 71
     3
 72
    20
 73
    16
 74
     0
 42
0.0000000001
 43
0.0000000001
 40
0.0
 40
0.0
 40
0.0
 40
0.0
 40
0.2
 40
0.2
 40
0.2
 40
0.2
 40
0.4
 40
0.4
 40
0.4
 40
0.4
 40
0.6
 40
0.6
 40
0.6
 40
0.6
 40
1.0
 40
1.0
 40
1.0
 40
1.0
 10
14.5976
 20
-1.3687
 30
0.0
 10
14.5976
 20
-1.3687
 30
0.0
 10
14.8304
 20
-1.3687
 30
0.0
 10
14.8304
 20
-1.3687
 30
0.0
 10
14.8304
 20
-1.3687
 30
0.0
 10
14.8304
 20
-1.3687
 30
0.0
 10
14.8304
 20
0.3388
 30
0.0
 10
14.8304
 20
0.3388
 30
0.0
 10
14.8304
 20
0.3388
 30
0.0
 10
14.8304
 20
0.3388
 30
0.0
 10
14.5976
 20
0.3388
 30
0.0
 10
14.5976
 20
0.3388
 30
0.0
 10
14.5976
 20
0.3388
 30
0.0
 10
14.5976
 20
0.3388
 30
0.0
 10
14.5976
 20
-1.3687
 30
0.0
 10
14.5976
 20
-1.3687
 30
0.0
  0
ENDSEC
  0
SECTION
  2
OBJECTS
  0
DICTIONARY
  5
C
330
0
100
AcDbDictionary
281
     1
  3
ACAD_GROUP
350
D
  3
ACAD_LAYOUT
350
1A
  3
ACAD_MATERIAL
350
3B
  3
ACAD_MLEADERSTYLE
350
10A
  3
ACAD_MLINESTYLE
350
17
  3
ACAD_PLOTSETTINGS
350
19
  3
ACAD_PLOTSTYLENAME
350
E
  3
ACAD_VISUALSTYLE
350
2A
  3
AcDbVariableDictionary
350
108
  0
DICTIONARY
  5
D
102
{ACAD_REACTORS
330
C
102
}
330
C
100
AcDbDictionary
281
     1
  0
DICTIONARY
  5
1A
102
{ACAD_REACTORS
330
C
102
}
330
C
100
AcDbDictionary
281
     1
  3
Layout1
350
1E
  3
Layout2
350
26
  3
Model
350
22
  0
DICTIONARY
  5
3B
102
{ACAD_REACTORS
330
C
102
}
330
C
100
AcDbDictionary
281
     1
  3
ByBlock
350
3D
  3
ByLayer
350
3C
  3
Global
350
3E
  0
DICTIONARY
  5
10A
102
{ACAD_REACTORS
330
C
102
}
330
C
100
AcDbDictionary
281
     1
  0
DICTIONARY
  5
17
102
{ACAD_REACTORS
330
C
102
}
330
C
100
AcDbDictionary
281
     1
  3
Standard
350
18
  0
DICTIONARY
  5
19
102
{ACAD_REACTORS
330
C
102
}
330
C
100
AcDbDictionary
281
     1
  0
ACDBDICTIONARYWDFLT
  5
E
102
{ACAD_REACTORS
330
C
102
}
330
C
100
AcDbDictionary
281
     1
  3
Normal
350
F
100
AcDbDictionaryWithDefault
340
F
  0
DICTIONARY
  5
2A
102
{ACAD_REACTORS
330
C
102
}
330
C
100
AcDbDictionary
281
     1
  3
2dWireframe
350
2F
  3
3D Hidden
350
31
  3
3dWireframe
350
30
  3
Basic
350
32
  3
Brighten
350
36
  3
ColorChange
350
3A
  3
Conceptual
350
34
  3
Dim
350
35
  3
Facepattern
350
39
  3
Flat
350
2B
  3
FlatWithEdges
350
2C
  3
Gouraud
350
2D
  3
GouraudWithEdges
350
2E
  3
Linepattern
350
38
  3
Realistic
350
33
  3
Thicken
350
37
  0
DICTIONARY
  5
108
102
{ACAD_REACTORS
330
C
102
}
330
C
100
AcDbDictionary
281
     1
  3
DIMASSOC
350
10B
  3
HIDETEXT
350
10C
  0
LAYOUT
  5
1E
102
{ACAD_REACTORS
330
1A
102
}
330
1A
100
AcDbPlotSettings
  1

  2
none_device
  4

  6

 40
0.0
 41
0.0
 42
0.0
 43
0.0
 44
0.0
 45
0.0
 46
0.0
 47
0.0
 48
0.0
 49
0.0
140
0.0
141
0.0
142
1.0
143
1.0
 70
   688
 72
     0
 73
     0
 74
     5
  7

 75
    16
147
1.0
148
0.0
149
0.0
100
AcDbLayout
  1
Layout1
 70
     1
 71
     1
 10
0.0
 20
0.0
 11
12.0
 21
9.0
 12
0.0
 22
0.0
 32
0.0
 14
1.000000000000000E+20
 24
1.000000000000000E+20
 34
1.000000000000000E+20
 15
-1.000000000000000E+20
 25
-1.000000000000000E+20
 35
-1.000000000000000E+20
146
0.0
 13
0.0
 23
0.0
 33
0.0
 16
1.0
 26
0.0
 36
0.0
 17
0.0
 27
1.0
 37
0.0
 76
     0
330
1B
  0
LAYOUT
  5
26
102
{ACAD_REACTORS
330
1A
102
}
330
1A
100
AcDbPlotSettings
  1

  2
none_device
  4

  6

 40
0.0
 41
0.0
 42
0.0
 43
0.0
 44
0.0
 45
0.0
 46
0.0
 47
0.0
 48
0.0
 49
0.0
140
0.0
141
0.0
142
1.0
143
1.0
 70
   688
 72
     0
 73
     0
 74
     5
  7

 75
    16
147
1.0
148
0.0
149
0.0
100
AcDbLayout
  1
Layout2
 70
     1
 71
     2
 10
0.0
 20
0.0
 11
0.0
 21
0.0
 12
0.0
 22
0.0
 32
0.0
 14
0.0
 24
0.0
 34
0.0
 15
0.0
 25
0.0
 35
0.0
146
0.0
 13
0.0
 23
0.0
 33
0.0
 16
1.0
 26
0.0
 36
0.0
 17
0.0
 27
1.0
 37
0.0
 76
     0
330
23
  0
LAYOUT
  5
22
102
{ACAD_REACTORS
330
1A
102
}
330
1A
100
AcDbPlotSettings
  1

  2
none_device
  4

  6

 40
0.0
 41
0.0
 42
0.0
 43
0.0
 44
0.0
 45
0.0
 46
0.0
 47
0.0
 48
0.0
 49
0.0
140
0.0
141
0.0
142
1.0
143
1.0
 70
  1712
 72
     0
 73
     0
 74
     0
  7

 75
     0
147
1.0
148
0.0
149
0.0
100
AcDbLayout
  1
Model
 70
     1
 71
     0
 10
0.0
 20
0.0
 11
12.0
 21
9.0
 12
0.0
 22
0.0
 32
0.0
 14
-16.8381
 24
-24.9261
 34
0.0
 15
16.7752
 25
24.8726
 35
0.0
146
0.0
 13
0.0
 23
0.0
 33
0.0
 16
1.0
 26
0.0
 36
0.0
 17
0.0
 27
1.0
 37
0.0
 76
     0
330
1F
331
29
  0
MATERIAL
  5
3D
102
{ACAD_REACTORS
330
3B
102
}
102
{ACAD_XDICTIONARY
360
12F
102
}
330
3B
100
AcDbMaterial
  1
ByBlock
  0
MATERIAL
  5
3C
102
{ACAD_REACTORS
330
3B
102
}
102
{ACAD_XDICTIONARY
360
12D
102
}
330
3B
100
AcDbMaterial
  1
ByLayer
  0
MATERIAL
  5
3E
102
{ACAD_REACTORS
330
3B
102
}
102
{ACAD_XDICTIONARY
360
131
102
}
330
3B
100
AcDbMaterial
  1
Global
  0
MLINESTYLE
  5
18
102
{ACAD_REACTORS
330
17
102
}
330
17
100
AcDbMlineStyle
  2
Standard
 70
     0
  3

 62
   256
 51
90.0
 52
90.0
 71
     2
 49
0.5
 62
   256
  6
BYLAYER
 49
-0.5
 62
   256
  6
BYLAYER
  0
ACDBPLACEHOLDER
  5
F
102
{ACAD_REACTORS
330
E
102
}
330
E
  0
VISUALSTYLE
  5
2F
102
{ACAD_REACTORS
330
2A
102
}
102
{ACAD_XDICTIONARY
360
115
102
}
330
2A
100
AcDbVisualStyle
  2
2dWireframe
 70
     4
 71
     0
 72
     2
 73
     0
 90
        0
 40
-0.6
 41
-30.0
 62
     5
 63
     7
 74
     1
 91
        4
 64
     7
 65
   257
 75
     1
175
     1
 42
1.0
 92
        0
 66
   257
 43
1.0
 76
     1
 77
     6
 78
     2
 67
     7
 79
     5
170
     0
171
     0
290
     0
174
     0
 93
        1
 44
0.0
173
     0
291
     0
 45
0.0
1001
ACAD
1000
AcDbSavedByObjectVersion
1070
     0
  0
VISUALSTYLE
  5
31
102
{ACAD_REACTORS
330
2A
102
}
102
{ACAD_XDICTIONARY
360
119
102
}
330
2A
100
AcDbVisualStyle
  2
3D Hidden
 70
     6
 71
     1
 72
     2
 73
     2
 90
        0
 40
-0.6
 41
-30.0
 62
     5
 63
     7
 74
     2
 91
        2
 64
     7
 65
   257
 75
     2
175
     1
 42
40.0
 92
        0
 66
   257
 43
1.0
 76
     1
 77
     6
 78
     2
 67
     7
 79
     3
170
     0
171
     0
290
     0
174
     0
 93
        1
 44
0.0
173
     0
291
     0
 45
0.0
1001
ACAD
1000
AcDbSavedByObjectVersion
1070
     0
  0
VISUALSTYLE
  5
30
102
{ACAD_REACTORS
330
2A
102
}
102
{ACAD_XDICTIONARY
360
117
102
}
330
2A
100
AcDbVisualStyle
  2
3dWireframe
 70
     5
 71
     0
 72
     2
 73
     0
 90
        0
 40
-0.6
 41
-30.0
 62
     5
 63
     7
 74
     1
 91
        4
 64
     7
 65
   257
 75
     1
175
     1
 42
1.0
 92
        0
 66
   257
 43
1.0
 76
     1
 77
     6
 78
     2
 67
     7
 79
     5
170
     0
171
     0
290
     0
174
     0
 93
        1
 44
0.0
173
     0
291
     0
 45
0.0
1001
ACAD
1000
AcDbSavedByObjectVersion
1070
     0
  0
VISUALSTYLE
  5
32
102
{ACAD_REACTORS
330
2A
102
}
102
{ACAD_XDICTIONARY
360
11B
102
}
330
2A
100
AcDbVisualStyle
  2
Basic
 70
     7
 71
     1
 72
     0
 73
     1
 90
        0
 40
-0.6
 41
-30.0
 62
     5
 63
     7
 74
     0
 91
        4
 64
     7
 65
   257
 75
     1
175
     1
 42
1.0
 92
        8
 66
     7
 43
1.0
 76
     1
 77
     6
 78
     2
 67
     7
 79
     5
170
     0
171
     0
290
     0
174
     0
 93
        1
 44
0.0
173
     0
291
     1
 45
0.0
1001
ACAD
1000
AcDbSavedByObjectVersion
1070
     0
  0
VISUALSTYLE
  5
36
102
{ACAD_REACTORS
330
2A
102
}
102
{ACAD_XDICTIONARY
360
123
102
}
330
2A
100
AcDbVisualStyle
  2
Brighten
 70
    12
 71
     2
 72
     2
 73
     0
 90
        0
 40
-0.6
 41
-30.0
 62
     5
 63
     7
 74
     1
 91
        4
 64
     7
 65
   257
 75
     1
175
     1
 42
1.0
 92
        8
 66
     7
 43
1.0
 76
     1
 77
     6
 78
     2
 67
     7
 79
     5
170
     0
171
     0
290
     0
174
     0
 93
        1
 44
50.0
173
     0
291
     1
 45
0.0
1001
ACAD
1000
AcDbSavedByObjectVersion
1070
     0
  0
VISUALSTYLE
  5
3A
102
{ACAD_REACTORS
330
2A
102
}
102
{ACAD_XDICTIONARY
360
12B
102
}
330
2A
100
AcDbVisualStyle
  2
ColorChange
 70
    16
 71
     2
 72
     2
 73
     3
 90
        0
 40
-0.6
 41
-30.0
 62
     5
 63
     8
 74
     1
 91
        4
 64
     7
 65
   257
 75
     1
175
     1
 42
1.0
 92
        8
 66
     8
 43
1.0
 76
     1
 77
     6
 78
     2
 67
     7
 79
     5
170
     0
171
     0
290
     0
174
     0
 93
        1
 44
0.0
173
     0
291
     1
 45
0.0
1001
ACAD
1000
AcDbSavedByObjectVersion
1070
     0
  0
VISUALSTYLE
  5
34
102
{ACAD_REACTORS
330
2A
102
}
102
{ACAD_XDICTIONARY
360
11F
102
}
330
2A
100
AcDbVisualStyle
  2
Conceptual
 70
     9
 71
     3
 72
     2
 73
     0
 90
        0
 40
-0.6
 41
-30.0
 62
     5
 63
     7
 74
     2
 91
        2
 64
     7
 65
   257
 75
     1
175
     1
 42
40.0
 92
        8
 66
     7
 43
1.0
 76
     1
 77
     6
 78
     2
 67
     7
 79
     3
170
     0
171
     0
290
     0
174
     0
 93
        1
 44
0.0
173
     0
291
     0
 45
0.0
1001
ACAD
1000
AcDbSavedByObjectVersion
1070
     0
  0
VISUALSTYLE
  5
35
102
{ACAD_REACTORS
330
2A
102
}
102
{ACAD_XDICTIONARY
360
121
102
}
330
2A
100
AcDbVisualStyle
  2
Dim
 70
    11
 71
     2
 72
     2
 73
     0
 90
        0
 40
-0.6
 41
-30.0
 62
     5
 63
     7
 74
     1
 91
        4
 64
     7
 65
   257
 75
     1
175
     1
 42
1.0
 92
        8
 66
     7
 43
1.0
 76
     1
 77
     6
 78
     2
 67
     7
 79
     5
170
     0
171
     0
290
     0
174
     0
 93
        1
 44
-50.0
173
     0
291
     1
 45
0.0
1001
ACAD
1000
AcDbSavedByObjectVersion
1070
     0
  0
VISUALSTYLE
  5
39
102
{ACAD_REACTORS
330
2A
102
}
102
{ACAD_XDICTIONARY
360
129
102
}
330
2A
100
AcDbVisualStyle
  2
Facepattern
 70
    15
 71
     2
 72
     2
 73
     0
 90
        0
 40
-0.6
 41
-30.0
 62
     5
 63
     7
 74
     1
 91
        4
 64
     7
 65
   257
 75
     1
175
     1
 42
1.0
 92
        8
 66
     7
 43
1.0
 76
     1
 77
     6
 78
     2
 67
     7
 79
     5
170
     0
171
     0
290
     0
174
     0
 93
        1
 44
0.0
173
     0
291
     1
 45
0.0
1001
ACAD
1000
AcDbSavedByObjectVersion
1070
     0
  0
VISUALSTYLE
  5
2B
102
{ACAD_REACTORS
330
2A
102
}
102
{ACAD_XDICTIONARY
360
10D
102
}
330
2A
100
AcDbVisualStyle
  2
Flat
 70
     0
 71
     2
 72
     1
 73
     1
 90
        2
 40
-0.6
 41
30.0
 62
     5
 63
     7
 74
     0
 91
        4
 64
     7
 65
   257
 75
     1
175
     1
 42
1.0
 92
        8
 66
     7
 43
1.0
 76
     1
 77
     6
 78
     2
 67
     7
 79
     5
170
     0
171
     0
290
     0
174
     0
 93
       13
 44
0.0
173
     0
291
     1
 45
0.0
1001
ACAD
1000
AcDbSavedByObjectVersion
1070
     0
  0
VISUALSTYLE
  5
2C
102
{ACAD_REACTORS
330
2A
102
}
102
{ACAD_XDICTIONARY
360
10F
102
}
330
2A
100
AcDbVisualStyle
  2
FlatWithEdges
 70
     1
 71
     2
 72
     1
 73
     1
 90
        2
 40
-0.6
 41
30.0
 62
     5
 63
     7
 74
     1
 91
        4
 64
     7
 65
   257
 75
     1
175
     1
 42
1.0
 92
        0
 66
   257
 43
1.0
 76
     1
 77
     6
 78
     2
 67
     7
 79
     5
170
     0
171
     0
290
     0
174
     0
 93
       13
 44
0.0
173
     0
291
     1
 45
0.0
1001
ACAD
1000
AcDbSavedByObjectVersion
1070
     0
  0
VISUALSTYLE
  5
2D
102
{ACAD_REACTORS
330
2A
102
}
102
{ACAD_XDICTIONARY
360
111
102
}
330
2A
100
AcDbVisualStyle
  2
Gouraud
 70
     2
 71
     2
 72
     2
 73
     1
 90
        2
 40
-0.6
 41
30.0
 62
     5
 63
     7
 74
     0
 91
        4
 64
     7
 65
   257
 75
     1
175
     1
 42
1.0
 92
        0
 66
     7
 43
1.0
 76
     1
 77
     6
 78
     2
 67
     7
 79
     5
170
     0
171
     0
290
     0
174
     0
 93
       13
 44
0.0
173
     0
291
     1
 45
0.0
1001
ACAD
1000
AcDbSavedByObjectVersion
1070
     0
  0
VISUALSTYLE
  5
2E
102
{ACAD_REACTORS
330
2A
102
}
102
{ACAD_XDICTIONARY
360
113
102
}
330
2A
100
AcDbVisualStyle
  2
GouraudWithEdges
 70
     3
 71
     2
 72
     2
 73
     1
 90
        2
 40
-0.6
 41
30.0
 62
     5
 63
     7
 74
     1
 91
        4
 64
     7
 65
   257
 75
     1
175
     1
 42
1.0
 92
        0
 66
   257
 43
1.0
 76
     1
 77
     6
 78
     2
 67
     7
 79
     5
170
     0
171
     0
290
     0
174
     0
 93
       13
 44
0.0
173
     0
291
     1
 45
0.0
1001
ACAD
1000
AcDbSavedByObjectVersion
1070
     0
  0
VISUALSTYLE
  5
38
102
{ACAD_REACTORS
330
2A
102
}
102
{ACAD_XDICTIONARY
360
127
102
}
330
2A
100
AcDbVisualStyle
  2
Linepattern
 70
    14
 71
     2
 72
     2
 73
     0
 90
        0
 40
-0.6
 41
-30.0
 62
     5
 63
     7
 74
     1
 91
        4
 64
     7
 65
   257
 75
     7
175
     7
 42
1.0
 92
        8
 66
     7
 43
1.0
 76
     1
 77
     6
 78
     2
 67
     7
 79
     5
170
     0
171
     0
290
     0
174
     0
 93
        1
 44
0.0
173
     0
291
     1
 45
0.0
1001
ACAD
1000
AcDbSavedByObjectVersion
1070
     0
  0
VISUALSTYLE
  5
33
102
{ACAD_REACTORS
330
2A
102
}
102
{ACAD_XDICTIONARY
360
11D
102
}
330
2A
100
AcDbVisualStyle
  2
Realistic
 70
     8
 71
     2
 72
     2
 73
     0
 90
        0
 40
-0.6
 41
-30.0
 62
     5
 63
     7
 74
     1
 91
        0
 64
     7
 65
   257
 75
     1
175
     1
 42
1.0
 92
        8
 66
     8
 43
1.0
 76
     1
 77
     6
 78
     2
 67
     7
 79
     5
170
     0
171
     0
290
     0
174
     0
 93
       13
 44
0.0
173
     0
291
     0
 45
0.0
1001
ACAD
1000
AcDbSavedByObjectVersion
1070
     0
  0
VISUALSTYLE
  5
37
102
{ACAD_REACTORS
330
2A
102
}
102
{ACAD_XDICTIONARY
360
125
102
}
330
2A
100
AcDbVisualStyle
  2
Thicken
 70
    13
 71
     2
 72
     2
 73
     0
 90
        0
 40
-0.6
 41
-30.0
 62
     5
 63
     7
 74
     1
 91
        4
 64
     7
 65
   257
 75
     1
175
     1
 42
1.0
 92
       12
 66
     7
 43
1.0
 76
     1
 77
     6
 78
     2
 67
     7
 79
     5
170
     0
171
     0
290
     0
174
     0
 93
        1
 44
0.0
173
     0
291
     1
 45
0.0
1001
ACAD
1000
AcDbSavedByObjectVersion
1070
     0
  0
DICTIONARYVAR
  5
10B
102
{ACAD_REACTORS
330
108
102
}
330
108
100
DictionaryVariables
280
     0
  1
2
  0
DICTIONARYVAR
  5
10C
102
{ACAD_REACTORS
330
108
102
}
330
108
100
DictionaryVariables
280
     0
  1
1
  0
DICTIONARY
  5
12F
330
3D
100
AcDbDictionary
280
     1
281
     1
  3
ACAD_XREC_ROUNDTRIP
360
130
  0
DICTIONARY
  5
12D
330
3C
100
AcDbDictionary
280
     1
281
     1
  3
ACAD_XREC_ROUNDTRIP
360
12E
  0
DICTIONARY
  5
131
330
3E
100
AcDbDictionary
280
     1
281
     1
  3
ACAD_XREC_ROUNDTRIP
360
132
  0
DICTIONARY
  5
115
330
2F
100
AcDbDictionary
280
     1
281
     1
  3
ACAD_XREC_ROUNDTRIP
360
116
  0
DICTIONARY
  5
119
330
31
100
AcDbDictionary
280
     1
281
     1
  3
ACAD_XREC_ROUNDTRIP
360
11A
  0
DICTIONARY
  5
117
330
30
100
AcDbDictionary
280
     1
281
     1
  3
ACAD_XREC_ROUNDTRIP
360
118
  0
DICTIONARY
  5
11B
330
32
100
AcDbDictionary
280
     1
281
     1
  3
ACAD_XREC_ROUNDTRIP
360
11C
  0
DICTIONARY
  5
123
330
36
100
AcDbDictionary
280
     1
281
     1
  3
ACAD_XREC_ROUNDTRIP
360
124
  0
DICTIONARY
  5
12B
330
3A
100
AcDbDictionary
280
     1
281
     1
  3
ACAD_XREC_ROUNDTRIP
360
12C
  0
DICTIONARY
  5
11F
330
34
100
AcDbDictionary
280
     1
281
     1
  3
ACAD_XREC_ROUNDTRIP
360
120
  0
DICTIONARY
  5
121
330
35
100
AcDbDictionary
280
     1
281
     1
  3
ACAD_XREC_ROUNDTRIP
360
122
  0
DICTIONARY
  5
129
330
39
100
AcDbDictionary
280
     1
281
     1
  3
ACAD_XREC_ROUNDTRIP
360
12A
  0
DICTIONARY
  5
10D
330
2B
100
AcDbDictionary
280
     1
281
     1
  3
ACAD_XREC_ROUNDTRIP
360
10E
  0
DICTIONARY
  5
10F
330
2C
100
AcDbDictionary
280
     1
281
     1
  3
ACAD_XREC_ROUNDTRIP
360
110
  0
DICTIONARY
  5
111
330
2D
100
AcDbDictionary
280
     1
281
     1
  3
ACAD_XREC_ROUNDTRIP
360
112
  0
DICTIONARY
  5
113
330
2E
100
AcDbDictionary
280
     1
281
     1
  3
ACAD_XREC_ROUNDTRIP
360
114
  0
DICTIONARY
  5
127
330
38
100
AcDbDictionary
280
     1
281
     1
  3
ACAD_XREC_ROUNDTRIP
360
128
  0
DICTIONARY
  5
11D
330
33
100
AcDbDictionary
280
     1
281
     1
  3
ACAD_XREC_ROUNDTRIP
360
11E
  0
DICTIONARY
  5
125
330
37
100
AcDbDictionary
280
     1
281
     1
  3
ACAD_XREC_ROUNDTRIP
360
126
  0
XRECORD
  5
130
102
{ACAD_REACTORS
330
12F
102
}
330
12F
100
AcDbXrecord
280
     1
102
MATERIAL
148
0.0
149
0.0
149
0.0
 93
        0
 94
      127
282
     0
 72
     1
 77
     1
171
     1
175
     1
179
     1
273
     0
  0
XRECORD
  5
12E
102
{ACAD_REACTORS
330
12D
102
}
330
12D
100
AcDbXrecord
280
     1
102
MATERIAL
148
0.0
149
0.0
149
0.0
 93
        0
 94
      127
282
     0
 72
     1
 77
     1
171
     1
175
     1
179
     1
273
     0
  0
XRECORD
  5
132
102
{ACAD_REACTORS
330
131
102
}
330
131
100
AcDbXrecord
280
     1
102
MATERIAL
148
0.0
149
0.0
149
0.0
 93
        0
 94
      127
282
     0
 72
     1
 77
     1
171
     1
175
     1
179
     1
273
     0
  0
XRECORD
  5
116
102
{ACAD_REACTORS
330
115
102
}
330
115
100
AcDbXrecord
280
     1
102
RTVSPropertyOp0
 70
     1
102
RTVSPropertyOp1
 70
     1
102
RTVSPropertyOp2
 70
     1
102
RTVSPropertyOp3
 70
     1
102
RTVSPropertyOp4
 70
     1
102
RTVSPropertyOp5
 70
     1
102
RTVSPropertyOp6
 70
     1
102
RTVSPropertyOp7
 70
     1
102
RTVSPropertyOp8
 70
     1
102
RTVSPropertyOp9
 70
     1
102
RTVSPropertyOp10
 70
     1
102
RTVSPropertyOp11
 70
     1
102
RTVSPropertyOp12
 70
     1
102
RTVSPropertyOp13
 70
     1
102
RTVSPropertyOp14
 70
     1
102
RTVSPropertyOp15
 70
     1
102
RTVSPropertyOp16
 70
     1
102
RTVSPropertyOp17
 70
     1
102
RTVSPropertyOp18
 70
     1
102
RTVSPropertyOp19
 70
     1
102
RTVSPropertyOp20
 70
     1
102
RTVSPropertyOp21
 70
     1
102
RTVSPropertyOp22
 70
     1
102
RTVSPropertyOp23
 70
     1
102
RTVSPropertyOp24
 70
     1
102
RTVSPropertyOp25
 70
     1
102
RTVSPropertyOp26
 70
     1
102
RTVSPropertyOp27
 70
     1
  0
XRECORD
  5
11A
102
{ACAD_REACTORS
330
119
102
}
330
119
100
AcDbXrecord
280
     1
102
RTVSPropertyOp0
 70
     1
102
RTVSPropertyOp1
 70
     1
102
RTVSPropertyOp2
 70
     1
102
RTVSPropertyOp3
 70
     1
102
RTVSPropertyOp4
 70
     1
102
RTVSPropertyOp5
 70
     1
102
RTVSPropertyOp6
 70
     1
102
RTVSPropertyOp7
 70
     1
102
RTVSPropertyOp8
 70
     1
102
RTVSPropertyOp9
 70
     1
102
RTVSPropertyOp10
 70
     1
102
RTVSPropertyOp11
 70
     1
102
RTVSPropertyOp12
 70
     1
102
RTVSPropertyOp13
 70
     1
102
RTVSPropertyOp14
 70
     1
102
RTVSPropertyOp15
 70
     1
102
RTVSPropertyOp16
 70
     1
102
RTVSPropertyOp17
 70
     1
102
RTVSPropertyOp18
 70
     1
102
RTVSPropertyOp19
 70
     1
102
RTVSPropertyOp20
 70
     1
102
RTVSPropertyOp21
 70
     1
102
RTVSPropertyOp22
 70
     1
102
RTVSPropertyOp23
 70
     1
102
RTVSPropertyOp24
 70
     1
102
RTVSPropertyOp25
 70
     1
102
RTVSPropertyOp26
 70
     1
102
RTVSPropertyOp27
 70
     1
  0
XRECORD
  5
118
102
{ACAD_REACTORS
330
117
102
}
330
117
100
AcDbXrecord
280
     1
102
RTVSPropertyOp0
 70
     1
102
RTVSPropertyOp1
 70
     1
102
RTVSPropertyOp2
 70
     1
102
RTVSPropertyOp3
 70
     1
102
RTVSPropertyOp4
 70
     1
102
RTVSPropertyOp5
 70
     1
102
RTVSPropertyOp6
 70
     1
102
RTVSPropertyOp7
 70
     1
102
RTVSPropertyOp8
 70
     1
102
RTVSPropertyOp9
 70
     1
102
RTVSPropertyOp10
 70
     1
102
RTVSPropertyOp11
 70
     1
102
RTVSPropertyOp12
 70
     1
102
RTVSPropertyOp13
 70
     1
102
RTVSPropertyOp14
 70
     1
102
RTVSPropertyOp15
 70
     1
102
RTVSPropertyOp16
 70
     1
102
RTVSPropertyOp17
 70
     1
102
RTVSPropertyOp18
 70
     1
102
RTVSPropertyOp19
 70
     1
102
RTVSPropertyOp20
 70
     1
102
RTVSPropertyOp21
 70
     1
102
RTVSPropertyOp22
 70
     1
102
RTVSPropertyOp23
 70
     1
102
RTVSPropertyOp24
 70
     1
102
RTVSPropertyOp25
 70
     1
102
RTVSPropertyOp26
 70
     1
102
RTVSPropertyOp27
 70
     1
  0
XRECORD
  5
11C
102
{ACAD_REACTORS
330
11B
102
}
330
11B
100
AcDbXrecord
280
     1
102
RTVSPropertyOp0
 70
     1
102
RTVSPropertyOp1
 70
     1
102
RTVSPropertyOp2
 70
     1
102
RTVSPropertyOp3
 70
     1
102
RTVSPropertyOp4
 70
     1
102
RTVSPropertyOp5
 70
     1
102
RTVSPropertyOp6
 70
     1
102
RTVSPropertyOp7
 70
     1
102
RTVSPropertyOp8
 70
     1
102
RTVSPropertyOp9
 70
     1
102
RTVSPropertyOp10
 70
     1
102
RTVSPropertyOp11
 70
     1
102
RTVSPropertyOp12
 70
     1
102
RTVSPropertyOp13
 70
     1
102
RTVSPropertyOp14
 70
     1
102
RTVSPropertyOp15
 70
     1
102
RTVSPropertyOp16
 70
     1
102
RTVSPropertyOp17
 70
     1
102
RTVSPropertyOp18
 70
     1
102
RTVSPropertyOp19
 70
     1
102
RTVSPropertyOp20
 70
     1
102
RTVSPropertyOp21
 70
     1
102
RTVSPropertyOp22
 70
     1
102
RTVSPropertyOp23
 70
     1
102
RTVSPropertyOp24
 70
     1
102
RTVSPropertyOp25
 70
     1
102
RTVSPropertyOp26
 70
     1
102
RTVSPropertyOp27
 70
     1
  0
XRECORD
  5
124
102
{ACAD_REACTORS
330
123
102
}
330
123
100
AcDbXrecord
280
     1
102
RTVSPropertyOp0
 70
     1
102
RTVSPropertyOp1
 70
     1
102
RTVSPropertyOp2
 70
     1
102
RTVSPropertyOp3
 70
     1
102
RTVSPropertyOp4
 70
     1
102
RTVSPropertyOp5
 70
     1
102
RTVSPropertyOp6
 70
     1
102
RTVSPropertyOp7
 70
     1
102
RTVSPropertyOp8
 70
     1
102
RTVSPropertyOp9
 70
     1
102
RTVSPropertyOp10
 70
     1
102
RTVSPropertyOp11
 70
     1
102
RTVSPropertyOp12
 70
     1
102
RTVSPropertyOp13
 70
     1
102
RTVSPropertyOp14
 70
     1
102
RTVSPropertyOp15
 70
     1
102
RTVSPropertyOp16
 70
     1
102
RTVSPropertyOp17
 70
     1
102
RTVSPropertyOp18
 70
     1
102
RTVSPropertyOp19
 70
     1
102
RTVSPropertyOp20
 70
     1
102
RTVSPropertyOp21
 70
     1
102
RTVSPropertyOp22
 70
     1
102
RTVSPropertyOp23
 70
     1
102
RTVSPropertyOp24
 70
     1
102
RTVSPropertyOp25
 70
     1
102
RTVSPropertyOp26
 70
     1
102
RTVSPropertyOp27
 70
     1
  0
XRECORD
  5
12C
102
{ACAD_REACTORS
330
12B
102
}
330
12B
100
AcDbXrecord
280
     1
102
RTVSPropertyOp0
 70
     1
102
RTVSPropertyOp1
 70
     1
102
RTVSPropertyOp2
 70
     1
102
RTVSPropertyOp3
 70
     1
102
RTVSPropertyOp4
 70
     1
102
RTVSPropertyOp5
 70
     1
102
RTVSPropertyOp6
 70
     1
102
RTVSPropertyOp7
 70
     1
102
RTVSPropertyOp8
 70
     1
102
RTVSPropertyOp9
 70
     1
102
RTVSPropertyOp10
 70
     1
102
RTVSPropertyOp11
 70
     1
102
RTVSPropertyOp12
 70
     1
102
RTVSPropertyOp13
 70
     1
102
RTVSPropertyOp14
 70
     1
102
RTVSPropertyOp15
 70
     1
102
RTVSPropertyOp16
 70
     1
102
RTVSPropertyOp17
 70
     1
102
RTVSPropertyOp18
 70
     1
102
RTVSPropertyOp19
 70
     1
102
RTVSPropertyOp20
 70
     1
102
RTVSPropertyOp21
 70
     1
102
RTVSPropertyOp22
 70
     1
102
RTVSPropertyOp23
 70
     1
102
RTVSPropertyOp24
 70
     1
102
RTVSPropertyOp25
 70
     1
102
RTVSPropertyOp26
 70
     1
102
RTVSPropertyOp27
 70
     1
  0
XRECORD
  5
120
102
{ACAD_REACTORS
330
11F
102
}
330
11F
100
AcDbXrecord
280
     1
102
RTVSPropertyOp0
 70
     1
102
RTVSPropertyOp1
 70
     1
102
RTVSPropertyOp2
 70
     1
102
RTVSPropertyOp3
 70
     1
102
RTVSPropertyOp4
 70
     1
102
RTVSPropertyOp5
 70
     1
102
RTVSPropertyOp6
 70
     1
102
RTVSPropertyOp7
 70
     1
102
RTVSPropertyOp8
 70
     1
102
RTVSPropertyOp9
 70
     1
102
RTVSPropertyOp10
 70
     1
102
RTVSPropertyOp11
 70
     1
102
RTVSPropertyOp12
 70
     1
102
RTVSPropertyOp13
 70
     1
102
RTVSPropertyOp14
 70
     1
102
RTVSPropertyOp15
 70
     1
102
RTVSPropertyOp16
 70
     1
102
RTVSPropertyOp17
 70
     1
102
RTVSPropertyOp18
 70
     1
102
RTVSPropertyOp19
 70
     1
102
RTVSPropertyOp20
 70
     1
102
RTVSPropertyOp21
 70
     1
102
RTVSPropertyOp22
 70
     1
102
RTVSPropertyOp23
 70
     1
102
RTVSPropertyOp24
 70
     1
102
RTVSPropertyOp25
 70
     1
102
RTVSPropertyOp26
 70
     1
102
RTVSPropertyOp27
 70
     1
  0
XRECORD
  5
122
102
{ACAD_REACTORS
330
121
102
}
330
121
100
AcDbXrecord
280
     1
102
RTVSPropertyOp0
 70
     1
102
RTVSPropertyOp1
 70
     1
102
RTVSPropertyOp2
 70
     1
102
RTVSPropertyOp3
 70
     1
102
RTVSPropertyOp4
 70
     1
102
RTVSPropertyOp5
 70
     1
102
RTVSPropertyOp6
 70
     1
102
RTVSPropertyOp7
 70
     1
102
RTVSPropertyOp8
 70
     1
102
RTVSPropertyOp9
 70
     1
102
RTVSPropertyOp10
 70
     1
102
RTVSPropertyOp11
 70
     1
102
RTVSPropertyOp12
 70
     1
102
RTVSPropertyOp13
 70
     1
102
RTVSPropertyOp14
 70
     1
102
RTVSPropertyOp15
 70
     1
102
RTVSPropertyOp16
 70
     1
102
RTVSPropertyOp17
 70
     1
102
RTVSPropertyOp18
 70
     1
102
RTVSPropertyOp19
 70
     1
102
RTVSPropertyOp20
 70
     1
102
RTVSPropertyOp21
 70
     1
102
RTVSPropertyOp22
 70
     1
102
RTVSPropertyOp23
 70
     1
102
RTVSPropertyOp24
 70
     1
102
RTVSPropertyOp25
 70
     1
102
RTVSPropertyOp26
 70
     1
102
RTVSPropertyOp27
 70
     1
  0
XRECORD
  5
12A
102
{ACAD_REACTORS
330
129
102
}
330
129
100
AcDbXrecord
280
     1
102
RTVSPropertyOp0
 70
     1
102
RTVSPropertyOp1
 70
     1
102
RTVSPropertyOp2
 70
     1
102
RTVSPropertyOp3
 70
     1
102
RTVSPropertyOp4
 70
     1
102
RTVSPropertyOp5
 70
     1
102
RTVSPropertyOp6
 70
     1
102
RTVSPropertyOp7
 70
     1
102
RTVSPropertyOp8
 70
     1
102
RTVSPropertyOp9
 70
     1
102
RTVSPropertyOp10
 70
     1
102
RTVSPropertyOp11
 70
     1
102
RTVSPropertyOp12
 70
     1
102
RTVSPropertyOp13
 70
     1
102
RTVSPropertyOp14
 70
     1
102
RTVSPropertyOp15
 70
     1
102
RTVSPropertyOp16
 70
     1
102
RTVSPropertyOp17
 70
     1
102
RTVSPropertyOp18
 70
     1
102
RTVSPropertyOp19
 70
     1
102
RTVSPropertyOp20
 70
     1
102
RTVSPropertyOp21
 70
     1
102
RTVSPropertyOp22
 70
     1
102
RTVSPropertyOp23
 70
     1
102
RTVSPropertyOp24
 70
     1
102
RTVSPropertyOp25
 70
     1
102
RTVSPropertyOp26
 70
     1
102
RTVSPropertyOp27
 70
     1
  0
XRECORD
  5
10E
102
{ACAD_REACTORS
330
10D
102
}
330
10D
100
AcDbXrecord
280
     1
102
RTVSPropertyOp0
 70
     1
102
RTVSPropertyOp1
 70
     1
102
RTVSPropertyOp2
 70
     1
102
RTVSPropertyOp3
 70
     1
102
RTVSPropertyOp4
 70
     1
102
RTVSPropertyOp5
 70
     1
102
RTVSPropertyOp6
 70
     1
102
RTVSPropertyOp7
 70
     1
102
RTVSPropertyOp8
 70
     1
102
RTVSPropertyOp9
 70
     1
102
RTVSPropertyOp10
 70
     1
102
RTVSPropertyOp11
 70
     1
102
RTVSPropertyOp12
 70
     1
102
RTVSPropertyOp13
 70
     1
102
RTVSPropertyOp14
 70
     1
102
RTVSPropertyOp15
 70
     1
102
RTVSPropertyOp16
 70
     1
102
RTVSPropertyOp17
 70
     1
102
RTVSPropertyOp18
 70
     1
102
RTVSPropertyOp19
 70
     1
102
RTVSPropertyOp20
 70
     1
102
RTVSPropertyOp21
 70
     1
102
RTVSPropertyOp22
 70
     1
102
RTVSPropertyOp23
 70
     1
102
RTVSPropertyOp24
 70
     1
102
RTVSPropertyOp25
 70
     1
102
RTVSPropertyOp26
 70
     1
102
RTVSPropertyOp27
 70
     1
  0
XRECORD
  5
110
102
{ACAD_REACTORS
330
10F
102
}
330
10F
100
AcDbXrecord
280
     1
102
RTVSPropertyOp0
 70
     1
102
RTVSPropertyOp1
 70
     1
102
RTVSPropertyOp2
 70
     1
102
RTVSPropertyOp3
 70
     1
102
RTVSPropertyOp4
 70
     1
102
RTVSPropertyOp5
 70
     1
102
RTVSPropertyOp6
 70
     1
102
RTVSPropertyOp7
 70
     1
102
RTVSPropertyOp8
 70
     1
102
RTVSPropertyOp9
 70
     1
102
RTVSPropertyOp10
 70
     1
102
RTVSPropertyOp11
 70
     1
102
RTVSPropertyOp12
 70
     1
102
RTVSPropertyOp13
 70
     1
102
RTVSPropertyOp14
 70
     1
102
RTVSPropertyOp15
 70
     1
102
RTVSPropertyOp16
 70
     1
102
RTVSPropertyOp17
 70
     1
102
RTVSPropertyOp18
 70
     1
102
RTVSPropertyOp19
 70
     1
102
RTVSPropertyOp20
 70
     1
102
RTVSPropertyOp21
 70
     1
102
RTVSPropertyOp22
 70
     1
102
RTVSPropertyOp23
 70
     1
102
RTVSPropertyOp24
 70
     1
102
RTVSPropertyOp25
 70
     1
102
RTVSPropertyOp26
 70
     1
102
RTVSPropertyOp27
 70
     1
  0
XRECORD
  5
112
102
{ACAD_REACTORS
330
111
102
}
330
111
100
AcDbXrecord
280
     1
102
RTVSPropertyOp0
 70
     1
102
RTVSPropertyOp1
 70
     1
102
RTVSPropertyOp2
 70
     1
102
RTVSPropertyOp3
 70
     1
102
RTVSPropertyOp4
 70
     1
102
RTVSPropertyOp5
 70
     1
102
RTVSPropertyOp6
 70
     1
102
RTVSPropertyOp7
 70
     1
102
RTVSPropertyOp8
 70
     1
102
RTVSPropertyOp9
 70
     1
102
RTVSPropertyOp10
 70
     1
102
RTVSPropertyOp11
 70
     1
102
RTVSPropertyOp12
 70
     1
102
RTVSPropertyOp13
 70
     1
102
RTVSPropertyOp14
 70
     1
102
RTVSPropertyOp15
 70
     1
102
RTVSPropertyOp16
 70
     1
102
RTVSPropertyOp17
 70
     1
102
RTVSPropertyOp18
 70
     1
102
RTVSPropertyOp19
 70
     1
102
RTVSPropertyOp20
 70
     1
102
RTVSPropertyOp21
 70
     1
102
RTVSPropertyOp22
 70
     1
102
RTVSPropertyOp23
 70
     1
102
RTVSPropertyOp24
 70
     1
102
RTVSPropertyOp25
 70
     1
102
RTVSPropertyOp26
 70
     1
102
RTVSPropertyOp27
 70
     1
  0
XRECORD
  5
114
102
{ACAD_REACTORS
330
113
102
}
330
113
100
AcDbXrecord
280
     1
102
RTVSPropertyOp0
 70
     1
102
RTVSPropertyOp1
 70
     1
102
RTVSPropertyOp2
 70
     1
102
RTVSPropertyOp3
 70
     1
102
RTVSPropertyOp4
 70
     1
102
RTVSPropertyOp5
 70
     1
102
RTVSPropertyOp6
 70
     1
102
RTVSPropertyOp7
 70
     1
102
RTVSPropertyOp8
 70
     1
102
RTVSPropertyOp9
 70
     1
102
RTVSPropertyOp10
 70
     1
102
RTVSPropertyOp11
 70
     1
102
RTVSPropertyOp12
 70
     1
102
RTVSPropertyOp13
 70
     1
102
RTVSPropertyOp14
 70
     1
102
RTVSPropertyOp15
 70
     1
102
RTVSPropertyOp16
 70
     1
102
RTVSPropertyOp17
 70
     1
102
RTVSPropertyOp18
 70
     1
102
RTVSPropertyOp19
 70
     1
102
RTVSPropertyOp20
 70
     1
102
RTVSPropertyOp21
 70
     1
102
RTVSPropertyOp22
 70
     1
102
RTVSPropertyOp23
 70
     1
102
RTVSPropertyOp24
 70
     1
102
RTVSPropertyOp25
 70
     1
102
RTVSPropertyOp26
 70
     1
102
RTVSPropertyOp27
 70
     1
  0
XRECORD
  5
128
102
{ACAD_REACTORS
330
127
102
}
330
127
100
AcDbXrecord
280
     1
102
RTVSPropertyOp0
 70
     1
102
RTVSPropertyOp1
 70
     1
102
RTVSPropertyOp2
 70
     1
102
RTVSPropertyOp3
 70
     1
102
RTVSPropertyOp4
 70
     1
102
RTVSPropertyOp5
 70
     1
102
RTVSPropertyOp6
 70
     1
102
RTVSPropertyOp7
 70
     1
102
RTVSPropertyOp8
 70
     1
102
RTVSPropertyOp9
 70
     1
102
RTVSPropertyOp10
 70
     1
102
RTVSPropertyOp11
 70
     1
102
RTVSPropertyOp12
 70
     1
102
RTVSPropertyOp13
 70
     1
102
RTVSPropertyOp14
 70
     1
102
RTVSPropertyOp15
 70
     1
102
RTVSPropertyOp16
 70
     1
102
RTVSPropertyOp17
 70
     1
102
RTVSPropertyOp18
 70
     1
102
RTVSPropertyOp19
 70
     1
102
RTVSPropertyOp20
 70
     1
102
RTVSPropertyOp21
 70
     1
102
RTVSPropertyOp22
 70
     1
102
RTVSPropertyOp23
 70
     1
102
RTVSPropertyOp24
 70
     1
102
RTVSPropertyOp25
 70
     1
102
RTVSPropertyOp26
 70
     1
102
RTVSPropertyOp27
 70
     1
  0
XRECORD
  5
11E
102
{ACAD_REACTORS
330
11D
102
}
330
11D
100
AcDbXrecord
280
     1
102
RTVSPropertyOp0
 70
     1
102
RTVSPropertyOp1
 70
     1
102
RTVSPropertyOp2
 70
     1
102
RTVSPropertyOp3
 70
     1
102
RTVSPropertyOp4
 70
     1
102
RTVSPropertyOp5
 70
     1
102
RTVSPropertyOp6
 70
     1
102
RTVSPropertyOp7
 70
     1
102
RTVSPropertyOp8
 70
     1
102
RTVSPropertyOp9
 70
     1
102
RTVSPropertyOp10
 70
     1
102
RTVSPropertyOp11
 70
     1
102
RTVSPropertyOp12
 70
     1
102
RTVSPropertyOp13
 70
     1
102
RTVSPropertyOp14
 70
     1
102
RTVSPropertyOp15
 70
     1
102
RTVSPropertyOp16
 70
     1
102
RTVSPropertyOp17
 70
     1
102
RTVSPropertyOp18
 70
     1
102
RTVSPropertyOp19
 70
     1
102
RTVSPropertyOp20
 70
     1
102
RTVSPropertyOp21
 70
     1
102
RTVSPropertyOp22
 70
     1
102
RTVSPropertyOp23
 70
     1
102
RTVSPropertyOp24
 70
     1
102
RTVSPropertyOp25
 70
     1
102
RTVSPropertyOp26
 70
     1
102
RTVSPropertyOp27
 70
     1
  0
XRECORD
  5
126
102
{ACAD_REACTORS
330
125
102
}
330
125
100
AcDbXrecord
280
     1
102
RTVSPropertyOp0
 70
     1
102
RTVSPropertyOp1
 70
     1
102
RTVSPropertyOp2
 70
     1
102
RTVSPropertyOp3
 70
     1
102
RTVSPropertyOp4
 70
     1
102
RTVSPropertyOp5
 70
     1
102
RTVSPropertyOp6
 70
     1
102
RTVSPropertyOp7
 70
     1
102
RTVSPropertyOp8
 70
     1
102
RTVSPropertyOp9
 70
     1
102
RTVSPropertyOp10
 70
     1
102
RTVSPropertyOp11
 70
     1
102
RTVSPropertyOp12
 70
     1
102
RTVSPropertyOp13
 70
     1
102
RTVSPropertyOp14
 70
     1
102
RTVSPropertyOp15
 70
     1
102
RTVSPropertyOp16
 70
     1
102
RTVSPropertyOp17
 70
     1
102
RTVSPropertyOp18
 70
     1
102
RTVSPropertyOp19
 70
     1
102
RTVSPropertyOp20
 70
     1
102
RTVSPropertyOp21
 70
     1
102
RTVSPropertyOp22
 70
     1
102
RTVSPropertyOp23
 70
     1
102
RTVSPropertyOp24
 70
     1
102
RTVSPropertyOp25
 70
     1
102
RTVSPropertyOp26
 70
     1
102
RTVSPropertyOp27
 70
     1
  0
ENDSEC
  0
EOF
