  0
SECTION
  2
HEADER
  9
$ACADVER
  1
AC1015
  9
$ACADMAINTVER
 70
     6
  9
$DWGCODEPAGE
  3
ANSI_1250
  9
$INSBASE
 10
0.0
 20
0.0
 30
0.0
  9
$EXTMIN
 10
-80.4442
 20
-12.375
 30
0.0
  9
$EXTMAX
 10
80.3031
 20
12.2751
 30
0.0
  9
$LIMMIN
 10
0.0
 20
0.0
  9
$LIMMAX
 10
12.0
 20
9.0
  9
$ORTHOMODE
 70
     0
  9
$REGENMODE
 70
     1
  9
$FILLMODE
 70
     1
  9
$QTEXTMODE
 70
     0
  9
$MIRRTEXT
 70
     1
  9
$LTSCALE
 40
1.0
  9
$ATTMODE
 70
     1
  9
$TEXTSIZE
 40
0.2
  9
$TRACEWID
 40
0.05
  9
$TEXTSTYLE
  7
Standard
  9
$CLAYER
  8
0
  9
$CELTYPE
  6
ByLayer
  9
$CECOLOR
 62
   256
  9
$CELTSCALE
 40
1.0
  9
$DISPSILH
 70
     0
  9
$DIMSCALE
 40
1.0
  9
$DIMASZ
 40
0.18
  9
$DIMEXO
 40
0.0625
  9
$DIMDLI
 40
0.38
  9
$DIMRND
 40
0.0
  9
$DIMDLE
 40
0.0
  9
$DIMEXE
 40
0.18
  9
$DIMTP
 40
0.0
  9
$DIMTM
 40
0.0
  9
$DIMTXT
 40
0.18
  9
$DIMCEN
 40
0.09
  9
$DIMTSZ
 40
0.0
  9
$DIMTOL
 70
     0
  9
$DIMLIM
 70
     0
  9
$DIMTIH
 70
     1
  9
$DIMTOH
 70
     1
  9
$DIMSE1
 70
     0
  9
$DIMSE2
 70
     0
  9
$DIMTAD
 70
     0
  9
$DIMZIN
 70
     0
  9
$DIMBLK
  1

  9
$DIMASO
 70
     1
  9
$DIMSHO
 70
     1
  9
$DIMPOST
  1

  9
$DIMAPOST
  1

  9
$DIMALT
 70
     0
  9
$DIMALTD
 70
     2
  9
$DIMALTF
 40
25.4
  9
$DIMLFAC
 40
1.0
  9
$DIMTOFL
 70
     0
  9
$DIMTVP
 40
0.0
  9
$DIMTIX
 70
     0
  9
$DIMSOXD
 70
     0
  9
$DIMSAH
 70
     0
  9
$DIMBLK1
  1

  9
$DIMBLK2
  1

  9
$DIMSTYLE
  2
Standard
  9
$DIMCLRD
 70
     0
  9
$DIMCLRE
 70
     0
  9
$DIMCLRT
 70
     0
  9
$DIMTFAC
 40
1.0
  9
$DIMGAP
 40
0.09
  9
$DIMJUST
 70
     0
  9
$DIMSD1
 70
     0
  9
$DIMSD2
 70
     0
  9
$DIMTOLJ
 70
     1
  9
$DIMTZIN
 70
     0
  9
$DIMALTZ
 70
     0
  9
$DIMALTTZ
 70
     0
  9
$DIMUPT
 70
     0
  9
$DIMDEC
 70
     4
  9
$DIMTDEC
 70
     4
  9
$DIMALTU
 70
     2
  9
$DIMALTTD
 70
     2
  9
$DIMTXSTY
  7
Standard
  9
$DIMAUNIT
 70
     0
  9
$DIMADEC
 70
     0
  9
$DIMALTRND
 40
0.0
  9
$DIMAZIN
 70
     0
  9
$DIMDSEP
 70
    46
  9
$DIMATFIT
 70
     3
  9
$DIMFRAC
 70
     0
  9
$DIMLDRBLK
  1

  9
$DIMLUNIT
 70
     2
  9
$DIMLWD
 70
    -2
  9
$DIMLWE
 70
    -2
  9
$DIMTMOVE
 70
     0
  9
$LUNITS
 70
     2
  9
$LUPREC
 70
     4
  9
$SKETCHINC
 40
0.1
  9
$FILLETRAD
 40
0.5
  9
$AUNITS
 70
     0
  9
$AUPREC
 70
     0
  9
$MENU
  1
.
  9
$ELEVATION
 40
0.0
  9
$PELEVATION
 40
0.0
  9
$THICKNESS
 40
0.0
  9
$LIMCHECK
 70
     0
  9
$CHAMFERA
 40
0.5
  9
$CHAMFERB
 40
0.5
  9
$CHAMFERC
 40
1.0
  9
$CHAMFERD
 40
0.0
  9
$SKPOLY
 70
     0
  9
$TDCREATE
 40
2457822.463471493
  9
$TDUCREATE
 40
2457822.421804826
  9
$TDUPDATE
 40
2457822.463471505
  9
$TDUUPDATE
 40
2457822.421804838
  9
$TDINDWG
 40
0.0000000116
  9
$TDUSRTIMER
 40
0.0000000116
  9
$USRTIMER
 70
     1
  9
$ANGBASE
 50
0.0
  9
$ANGDIR
 70
     0
  9
$PDMODE
 70
     0
  9
$PDSIZE
 40
0.0
  9
$PLINEWID
 40
0.0
  9
$SPLFRAME
 70
     0
  9
$SPLINETYPE
 70
     6
  9
$SPLINESEGS
 70
     8
  9
$HANDSEED
  5
16C
  9
$SURFTAB1
 70
     6
  9
$SURFTAB2
 70
     6
  9
$SURFTYPE
 70
     6
  9
$SURFU
 70
     6
  9
$SURFV
 70
     6
  9
$UCSBASE
  2

  9
$UCSNAME
  2

  9
$UCSORG
 10
0.0
 20
0.0
 30
0.0
  9
$UCSXDIR
 10
1.0
 20
0.0
 30
0.0
  9
$UCSYDIR
 10
0.0
 20
1.0
 30
0.0
  9
$UCSORTHOREF
  2

  9
$UCSORTHOVIEW
 70
     0
  9
$UCSORGTOP
 10
0.0
 20
0.0
 30
0.0
  9
$UCSORGBOTTOM
 10
0.0
 20
0.0
 30
0.0
  9
$UCSORGLEFT
 10
0.0
 20
0.0
 30
0.0
  9
$UCSORGRIGHT
 10
0.0
 20
0.0
 30
0.0
  9
$UCSORGFRONT
 10
0.0
 20
0.0
 30
0.0
  9
$UCSORGBACK
 10
0.0
 20
0.0
 30
0.0
  9
$PUCSBASE
  2

  9
$PUCSNAME
  2

  9
$PUCSORG
 10
0.0
 20
0.0
 30
0.0
  9
$PUCSXDIR
 10
1.0
 20
0.0
 30
0.0
  9
$PUCSYDIR
 10
0.0
 20
1.0
 30
0.0
  9
$PUCSORTHOREF
  2

  9
$PUCSORTHOVIEW
 70
     0
  9
$PUCSORGTOP
 10
0.0
 20
0.0
 30
0.0
  9
$PUCSORGBOTTOM
 10
0.0
 20
0.0
 30
0.0
  9
$PUCSORGLEFT
 10
0.0
 20
0.0
 30
0.0
  9
$PUCSORGRIGHT
 10
0.0
 20
0.0
 30
0.0
  9
$PUCSORGFRONT
 10
0.0
 20
0.0
 30
0.0
  9
$PUCSORGBACK
 10
0.0
 20
0.0
 30
0.0
  9
$USERI1
 70
     0
  9
$USERI2
 70
     0
  9
$USERI3
 70
     0
  9
$USERI4
 70
     0
  9
$USERI5
 70
     0
  9
$USERR1
 40
0.0
  9
$USERR2
 40
0.0
  9
$USERR3
 40
0.0
  9
$USERR4
 40
0.0
  9
$USERR5
 40
0.0
  9
$WORLDVIEW
 70
     1
  9
$SHADEDGE
 70
     3
  9
$SHADEDIF
 70
    70
  9
$TILEMODE
 70
     1
  9
$MAXACTVP
 70
    64
  9
$PINSBASE
 10
0.0
 20
0.0
 30
0.0
  9
$PLIMCHECK
 70
     0
  9
$PEXTMIN
 10
1.000000000000000E+20
 20
1.000000000000000E+20
 30
1.000000000000000E+20
  9
$PEXTMAX
 10
-1.000000000000000E+20
 20
-1.000000000000000E+20
 30
-1.000000000000000E+20
  9
$PLIMMIN
 10
0.0
 20
0.0
  9
$PLIMMAX
 10
12.0
 20
9.0
  9
$UNITMODE
 70
     0
  9
$VISRETAIN
 70
     1
  9
$PLINEGEN
 70
     0
  9
$PSLTSCALE
 70
     1
  9
$TREEDEPTH
 70
  3020
  9
$CMLSTYLE
  2
Standard
  9
$CMLJUST
 70
     0
  9
$CMLSCALE
 40
1.0
  9
$PROXYGRAPHICS
 70
     1
  9
$MEASUREMENT
 70
     0
  9
$CELWEIGHT
370
    -1
  9
$ENDCAPS
280
     0
  9
$JOINSTYLE
280
     0
  9
$LWDISPLAY
290
     0
  9
$INSUNITS
 70
     4
  9
$HYPERLINKBASE
  1

  9
$STYLESHEET
  1

  9
$XEDIT
290
     1
  9
$CEPSNTYPE
380
     0
  9
$PSTYLEMODE
290
     1
  9
$FINGERPRINTGUID
  2
{8077D31D-32DD-4EFE-AB64-7AAA693E6819}
  9
$VERSIONGUID
  2
{FAEB1C32-E019-11D5-929B-00C0DF256EC4}
  9
$EXTNAMES
290
     1
  9
$PSVPSCALE
 40
0.0
  9
$OLESTARTUP
290
     0
  0
ENDSEC
  0
SECTION
  2
CLASSES
  0
CLASS
  1
ACDBDICTIONARYWDFLT
  2
AcDbDictionaryWithDefault
  3
ObjectDBX Classes
 90
        0
280
     0
281
     0
  0
CLASS
  1
VISUALSTYLE
  2
AcDbVisualStyle
  3
ObjectDBX Classes
 90
     4095
280
     0
281
     0
  0
CLASS
  1
MATERIAL
  2
AcDbMaterial
  3
ObjectDBX Classes
 90
     1153
280
     0
281
     0
  0
CLASS
  1
SCALE
  2
AcDbScale
  3
ObjectDBX Classes
 90
     1153
280
     0
281
     0
  0
CLASS
  1
DICTIONARYVAR
  2
AcDbDictionaryVar
  3
ObjectDBX Classes
 90
        0
280
     0
281
     0
  0
CLASS
  1
ACDBPLACEHOLDER
  2
AcDbPlaceHolder
  3
ObjectDBX Classes
 90
        0
280
     0
281
     0
  0
CLASS
  1
LAYOUT
  2
AcDbLayout
  3
ObjectDBX Classes
 90
        0
280
     0
281
     0
  0
ENDSEC
  0
SECTION
  2
TABLES
  0
TABLE
  2
VPORT
  5
8
330
0
100
AcDbSymbolTable
 70
     1
  0
VPORT
  5
29
330
8
100
AcDbSymbolTableRecord
100
AcDbViewportTableRecord
  2
*Active
 70
     0
 10
0.0
 20
0.0
 11
1.0
 21
1.0
 12
10.42990654205607
 22
4.5
 13
0.0
 23
0.0
 14
0.5
 24
0.5
 15
0.5
 25
0.5
 16
0.0
 26
0.0
 36
1.0
 17
0.0
 27
0.0
 37
0.0
 40
9.0
 41
1.972972972850329
 42
50.0
 43
0.0
 44
0.0
 50
0.0
 51
0.0
 71
     0
 72
   100
 73
     1
 74
     3
 75
     0
 76
     0
 77
     0
 78
     0
281
     0
 65
     1
110
0.0
120
0.0
130
0.0
111
1.0
121
0.0
131
0.0
112
0.0
122
1.0
132
0.0
 79
     0
146
0.0
  0
ENDTAB
  0
TABLE
  2
LTYPE
  5
5
330
0
100
AcDbSymbolTable
 70
     8
  0
LTYPE
  5
14
330
5
100
AcDbSymbolTableRecord
100
AcDbLinetypeTableRecord
  2
ByBlock
 70
     0
  3

 72
    65
 73
     0
 40
0.0
  0
LTYPE
  5
15
330
5
100
AcDbSymbolTableRecord
100
AcDbLinetypeTableRecord
  2
ByLayer
 70
     0
  3

 72
    65
 73
     0
 40
0.0
  0
LTYPE
  5
16
330
5
100
AcDbSymbolTableRecord
100
AcDbLinetypeTableRecord
  2
Continuous
 70
     0
  3
Solid line
 72
    65
 73
     0
 40
0.0
  0
LTYPE
  5
FF
330
5
100
AcDbSymbolTableRecord
100
AcDbLinetypeTableRecord
  2
New Line1
 70
     0
  3

 72
    65
 73
     4
 40
1.2
 49
0.5
 74
     4
 75
     0
340
0
 46
1.0
 50
0.0
 44
0.0
 45
0.0
 49
-0.3
 74
     4
 75
     0
340
0
 46
1.0
 50
0.0
 44
0.0
 45
0.0
 49
0.1
 74
     4
 75
     0
340
0
 46
1.0
 50
0.0
 44
0.0
 45
0.0
 49
-0.3
 74
     4
 75
     0
340
0
 46
1.0
 50
0.0
 44
0.0
 45
0.0
  0
LTYPE
  5
122
330
5
100
AcDbSymbolTableRecord
100
AcDbLinetypeTableRecord
  2
New Line2
 70
     0
  3

 72
    65
 73
     4
 40
1.2
 49
0.5
 74
     4
 75
     0
340
0
 46
1.0
 50
0.0
 44
0.0
 45
0.0
 49
-0.3
 74
     4
 75
     0
340
0
 46
1.0
 50
0.0
 44
0.0
 45
0.0
 49
0.1
 74
     4
 75
     0
340
0
 46
1.0
 50
0.0
 44
0.0
 45
0.0
 49
-0.3
 74
     4
 75
     0
340
0
 46
1.0
 50
0.0
 44
0.0
 45
0.0
  0
LTYPE
  5
124
330
5
100
AcDbSymbolTableRecord
100
AcDbLinetypeTableRecord
  2
New Line3
 70
     0
  3

 72
    65
 73
     4
 40
1.2
 49
0.5
 74
     4
 75
     0
340
0
 46
1.0
 50
0.0
 44
0.0
 45
0.0
 49
-0.3
 74
     4
 75
     0
340
0
 46
1.0
 50
0.0
 44
0.0
 45
0.0
 49
0.1
 74
     4
 75
     0
340
0
 46
1.0
 50
0.0
 44
0.0
 45
0.0
 49
-0.3
 74
     4
 75
     0
340
0
 46
1.0
 50
0.0
 44
0.0
 45
0.0
  0
LTYPE
  5
126
330
5
100
AcDbSymbolTableRecord
100
AcDbLinetypeTableRecord
  2
New Line4
 70
     0
  3

 72
    65
 73
     4
 40
1.2
 49
0.5
 74
     4
 75
     0
340
0
 46
1.0
 50
0.0
 44
0.0
 45
0.0
 49
-0.3
 74
     4
 75
     0
340
0
 46
1.0
 50
0.0
 44
0.0
 45
0.0
 49
0.1
 74
     4
 75
     0
340
0
 46
1.0
 50
0.0
 44
0.0
 45
0.0
 49
-0.3
 74
     4
 75
     0
340
0
 46
1.0
 50
0.0
 44
0.0
 45
0.0
  0
LTYPE
  5
128
330
5
100
AcDbSymbolTableRecord
100
AcDbLinetypeTableRecord
  2
New Line5
 70
     0
  3

 72
    65
 73
     4
 40
1.2
 49
0.5
 74
     4
 75
     0
340
0
 46
1.0
 50
0.0
 44
0.0
 45
0.0
 49
-0.3
 74
     4
 75
     0
340
0
 46
1.0
 50
0.0
 44
0.0
 45
0.0
 49
0.1
 74
     4
 75
     0
340
0
 46
1.0
 50
0.0
 44
0.0
 45
0.0
 49
-0.3
 74
     4
 75
     0
340
0
 46
1.0
 50
0.0
 44
0.0
 45
0.0
  0
LTYPE
  5
13D
330
5
100
AcDbSymbolTableRecord
100
AcDbLinetypeTableRecord
  2
New Line6
 70
     0
  3

 72
    65
 73
     4
 40
1.2
 49
0.5
 74
     4
 75
     0
340
0
 46
1.0
 50
0.0
 44
0.0
 45
0.0
 49
-0.3
 74
     4
 75
     0
340
0
 46
1.0
 50
0.0
 44
0.0
 45
0.0
 49
0.1
 74
     4
 75
     0
340
0
 46
1.0
 50
0.0
 44
0.0
 45
0.0
 49
-0.3
 74
     4
 75
     0
340
0
 46
1.0
 50
0.0
 44
0.0
 45
0.0
  0
LTYPE
  5
13F
330
5
100
AcDbSymbolTableRecord
100
AcDbLinetypeTableRecord
  2
New Line7
 70
     0
  3

 72
    65
 73
     4
 40
1.2
 49
0.5
 74
     4
 75
     0
340
0
 46
1.0
 50
0.0
 44
0.0
 45
0.0
 49
-0.3
 74
     4
 75
     0
340
0
 46
1.0
 50
0.0
 44
0.0
 45
0.0
 49
0.1
 74
     4
 75
     0
340
0
 46
1.0
 50
0.0
 44
0.0
 45
0.0
 49
-0.3
 74
     4
 75
     0
340
0
 46
1.0
 50
0.0
 44
0.0
 45
0.0
  0
ENDTAB
  0
TABLE
  2
LAYER
  5
2
330
0
100
AcDbSymbolTable
 70
     2
  0
LAYER
  5
10
330
2
100
AcDbSymbolTableRecord
100
AcDbLayerTableRecord
  2
0
 70
     0
 62
     7
  6
Continuous
370
    -3
390
F
  0
LAYER
  5
40
330
2
100
AcDbSymbolTableRecord
100
AcDbLayerTableRecord
  2
Ilustrace
 70
     0
 62
     7
  6
Continuous
370
    -3
390
F
  0
ENDTAB
  0
TABLE
  2
STYLE
  5
3
330
0
100
AcDbSymbolTable
 70
     3
  0
STYLE
  5
11
330
3
100
AcDbSymbolTableRecord
100
AcDbTextStyleTableRecord
  2
Standard
 70
     0
 40
0.0
 41
1.0
 50
0.0
 71
     0
 42
0.2
  3
txt
  4

  0
STYLE
  5
44
330
3
100
AcDbSymbolTableRecord
100
AcDbTextStyleTableRecord
  2
0
 70
     0
 40
1.0
 41
1.0
 50
0.0
 71
     0
 42
1.0
  3
Myriad Pro
  4

1001
ACAD
1000
Myriad Pro
1071
    60962
  0
STYLE
  5
6E
330
3
100
AcDbSymbolTableRecord
100
AcDbTextStyleTableRecord
  2
1
 70
     0
 40
1.0
 41
1.0
 50
0.0
 71
     0
 42
1.0
  3
Myriad Pro
  4

1001
ACAD
1000
Myriad Pro
1071
    60962
  0
ENDTAB
  0
TABLE
  2
VIEW
  5
6
330
0
100
AcDbSymbolTable
 70
     0
  0
ENDTAB
  0
TABLE
  2
UCS
  5
7
330
0
100
AcDbSymbolTable
 70
     0
  0
ENDTAB
  0
TABLE
  2
APPID
  5
9
330
0
100
AcDbSymbolTable
 70
     2
  0
APPID
  5
12
330
9
100
AcDbSymbolTableRecord
100
AcDbRegAppTableRecord
  2
ACAD
 70
     0
  0
APPID
  5
3F
330
9
100
AcDbSymbolTableRecord
100
AcDbRegAppTableRecord
  2
ODA
 70
     0
  0
ENDTAB
  0
TABLE
  2
DIMSTYLE
  5
A
330
0
100
AcDbSymbolTable
 70
     1
100
AcDbDimStyleTable
  0
DIMSTYLE
105
27
330
A
100
AcDbSymbolTableRecord
100
AcDbDimStyleTableRecord
  2
Standard
 70
     0
340
11
  0
ENDTAB
  0
TABLE
  2
BLOCK_RECORD
  5
1
330
0
100
AcDbSymbolTable
 70
     1
  0
BLOCK_RECORD
  5
1F
330
1
100
AcDbSymbolTableRecord
100
AcDbBlockTableRecord
  2
*Model_Space
340
22
  0
BLOCK_RECORD
  5
1B
330
1
100
AcDbSymbolTableRecord
100
AcDbBlockTableRecord
  2
*Paper_Space
340
1E
  0
BLOCK_RECORD
  5
23
330
1
100
AcDbSymbolTableRecord
100
AcDbBlockTableRecord
  2
*Paper_Space0
340
26
  0
ENDTAB
  0
ENDSEC
  0
SECTION
  2
BLOCKS
  0
BLOCK
  5
20
330
1F
100
AcDbEntity
  8
0
100
AcDbBlockBegin
  2
*Model_Space
 70
     0
 10
0.0
 20
0.0
 30
0.0
  3
*Model_Space
  1

  0
ENDBLK
  5
21
330
1F
100
AcDbEntity
  8
0
100
AcDbBlockEnd
  0
BLOCK
  5
1C
330
1B
100
AcDbEntity
 67
     1
  8
0
100
AcDbBlockBegin
  2
*Paper_Space
 70
     0
 10
0.0
 20
0.0
 30
0.0
  3
*Paper_Space
  1

  0
ENDBLK
  5
1D
330
1B
100
AcDbEntity
 67
     1
  8
0
100
AcDbBlockEnd
  0
BLOCK
  5
24
330
23
100
AcDbEntity
  8
0
100
AcDbBlockBegin
  2
*Paper_Space0
 70
     0
 10
0.0
 20
0.0
 30
0.0
  3
*Paper_Space0
  1

  0
ENDBLK
  5
25
330
23
100
AcDbEntity
  8
0
100
AcDbBlockEnd
  0
ENDSEC
  0
SECTION
  2
ENTITIES
  0
SPLINE
  5
41
330
1F
100
AcDbEntity
  8
Ilustrace
 62
   250
370
    15
100
AcDbSpline
210
0.0
220
0.0
230
1.0
 70
    24
 71
     3
 72
     8
 73
     4
 74
     0
 42
0.0000000001
 43
0.0000000001
 40
0.0
 40
0.0
 40
0.0
 40
0.0
 40
1.0
 40
1.0
 40
1.0
 40
1.0
 10
72.1725
 20
5.3889
 30
0.0
 10
72.1725
 20
5.3889
 30
0.0
 10
72.1725
 20
9.5399
 30
0.0
 10
72.1725
 20
9.5399
 30
0.0
  0
SPLINE
  5
42
330
1F
100
AcDbEntity
  8
Ilustrace
 62
   250
370
    15
100
AcDbSpline
210
0.0
220
0.0
230
1.0
 70
    24
 71
     3
 72
     8
 73
     4
 74
     0
 42
0.0000000001
 43
0.0000000001
 40
0.0
 40
0.0
 40
0.0
 40
0.0
 40
1.0
 40
1.0
 40
1.0
 40
1.0
 10
52.6312
 20
5.2347
 30
0.0
 10
52.6312
 20
5.2347
 30
0.0
 10
52.6312
 20
9.6005
 30
0.0
 10
52.6312
 20
9.6005
 30
0.0
  0
SPLINE
  5
43
330
1F
100
AcDbEntity
  8
Ilustrace
 62
   250
370
    15
100
AcDbSpline
210
0.0
220
0.0
230
1.0
 70
    24
 71
     3
 72
     8
 73
     4
 74
     0
 42
0.0000000001
 43
0.0000000001
 40
0.0
 40
0.0
 40
0.0
 40
0.0
 40
1.0
 40
1.0
 40
1.0
 40
1.0
 10
79.9424
 20
-12.2748
 30
0.0
 10
79.9424
 20
-12.2748
 30
0.0
 10
71.5699
 20
-12.2748
 30
0.0
 10
71.5699
 20
-12.2748
 30
0.0
  0
TEXT
  5
67
330
1F
100
AcDbEntity
  8
Ilustrace
 62
   250
100
AcDbText
 10
60.5637
 20
9.368400000000001
 30
0.0
 40
1.557792
  1
84
 41
1.434739898767371
 51
-0.0000015352345087
  7
0
100
AcDbText
  0
SPLINE
  5
68
330
1F
100
AcDbEntity
  8
Ilustrace
 62
   250
370
    15
100
AcDbSpline
210
0.0
220
0.0
230
1.0
 70
    24
 71
     3
 72
     8
 73
     4
 74
     0
 42
0.0000000001
 43
0.0000000001
 40
0.0
 40
0.0
 40
0.0
 40
0.0
 40
1.0
 40
1.0
 40
1.0
 40
1.0
 10
71.8481
 20
9.0887
 30
0.0
 10
71.8481
 20
9.0887
 30
0.0
 10
53.4694
 20
9.0887
 30
0.0
 10
53.4694
 20
9.0887
 30
0.0
  0
SPLINE
  5
69
330
1F
100
AcDbEntity
  8
Ilustrace
 62
   250
370
    15
100
AcDbSpline
210
0.0
220
0.0
230
1.0
 70
    24
 71
     3
 72
     8
 73
     4
 74
     0
 42
0.0000000001
 43
0.0000000001
 40
0.0
 40
0.0
 40
0.0
 40
0.0
 40
1.0
 40
1.0
 40
1.0
 40
1.0
 10
79.6987
 20
4.7167
 30
0.0
 10
79.6987
 20
4.7167
 30
0.0
 10
79.6987
 20
-12.0482
 30
0.0
 10
79.6987
 20
-12.0482
 30
0.0
  0
SPLINE
  5
6A
330
1F
100
AcDbEntity
  8
Ilustrace
 62
   250
370
     9
100
AcDbSpline
210
0.0
220
0.0
230
1.0
 70
    11
 71
     3
 72
    32
 73
    28
 74
     0
 42
0.0000000001
 43
0.0000000001
 40
0.0
 40
0.0
 40
0.0
 40
0.0
 40
0.125
 40
0.125
 40
0.125
 40
0.125
 40
0.25
 40
0.25
 40
0.25
 40
0.25
 40
0.375
 40
0.375
 40
0.375
 40
0.375
 40
0.5
 40
0.5
 40
0.5
 40
0.5
 40
0.625
 40
0.625
 40
0.625
 40
0.625
 40
0.75
 40
0.75
 40
0.75
 40
0.75
 40
1.0
 40
1.0
 40
1.0
 40
1.0
 10
70.7374
 20
8.6525
 30
0.0
 10
70.7374
 20
8.6525
 30
0.0
 10
70.7374
 20
8.6525
 30
0.0
 10
70.7374
 20
8.6525
 30
0.0
 10
70.7374
 20
8.6525
 30
0.0
 10
70.7374
 20
8.6525
 30
0.0
 10
70.7374
 20
8.6525
 30
0.0
 10
70.7374
 20
8.6525
 30
0.0
 10
70.7374
 20
8.6525
 30
0.0
 10
70.7374
 20
8.6525
 30
0.0
 10
72.0102
 20
9.0959
 30
0.0
 10
72.0102
 20
9.0959
 30
0.0
 10
72.0102
 20
9.0959
 30
0.0
 10
72.0102
 20
9.0959
 30
0.0
 10
70.7374
 20
9.5393
 30
0.0
 10
70.7374
 20
9.5393
 30
0.0
 10
70.7374
 20
9.5393
 30
0.0
 10
70.7374
 20
9.5393
 30
0.0
 10
70.7374
 20
9.5393
 30
0.0
 10
70.7374
 20
9.5393
 30
0.0
 10
70.7374
 20
9.5393
 30
0.0
 10
70.7374
 20
9.5393
 30
0.0
 10
70.7374
 20
9.5393
 30
0.0
 10
70.7374
 20
9.5393
 30
0.0
 10
70.7374
 20
9.5393
 30
0.0
 10
70.7374
 20
9.5393
 30
0.0
 10
70.7374
 20
8.6525
 30
0.0
 10
70.7374
 20
8.6525
 30
0.0
  0
SPLINE
  5
6B
330
1F
100
AcDbEntity
  8
Ilustrace
 62
   250
370
     9
100
AcDbSpline
210
0.0
220
0.0
230
1.0
 70
    11
 71
     3
 72
    32
 73
    28
 74
     0
 42
0.0000000001
 43
0.0000000001
 40
0.0
 40
0.0
 40
0.0
 40
0.0
 40
0.125
 40
0.125
 40
0.125
 40
0.125
 40
0.25
 40
0.25
 40
0.25
 40
0.25
 40
0.375
 40
0.375
 40
0.375
 40
0.375
 40
0.5
 40
0.5
 40
0.5
 40
0.5
 40
0.625
 40
0.625
 40
0.625
 40
0.625
 40
0.75
 40
0.75
 40
0.75
 40
0.75
 40
1.0
 40
1.0
 40
1.0
 40
1.0
 10
80.1239
 20
3.9407
 30
0.0
 10
80.1239
 20
3.9407
 30
0.0
 10
80.1239
 20
3.9407
 30
0.0
 10
80.1239
 20
3.9407
 30
0.0
 10
80.1239
 20
3.9407
 30
0.0
 10
80.1239
 20
3.9407
 30
0.0
 10
80.1239
 20
3.9407
 30
0.0
 10
80.1239
 20
3.9407
 30
0.0
 10
80.1239
 20
3.9407
 30
0.0
 10
80.1239
 20
3.9407
 30
0.0
 10
79.6805
 20
5.2135
 30
0.0
 10
79.6805
 20
5.2135
 30
0.0
 10
79.6805
 20
5.2135
 30
0.0
 10
79.6805
 20
5.2135
 30
0.0
 10
79.2371
 20
3.9407
 30
0.0
 10
79.2371
 20
3.9407
 30
0.0
 10
79.2371
 20
3.9407
 30
0.0
 10
79.2371
 20
3.9407
 30
0.0
 10
79.2371
 20
3.9407
 30
0.0
 10
79.2371
 20
3.9407
 30
0.0
 10
79.2371
 20
3.9407
 30
0.0
 10
79.2371
 20
3.9407
 30
0.0
 10
79.2371
 20
3.9407
 30
0.0
 10
79.2371
 20
3.9407
 30
0.0
 10
79.2371
 20
3.9407
 30
0.0
 10
79.2371
 20
3.9407
 30
0.0
 10
80.1239
 20
3.9407
 30
0.0
 10
80.1239
 20
3.9407
 30
0.0
  0
SPLINE
  5
6C
330
1F
100
AcDbEntity
  8
Ilustrace
 62
   250
370
     9
100
AcDbSpline
210
0.0
220
0.0
230
1.0
 70
    11
 71
     3
 72
    32
 73
    28
 74
     0
 42
0.0000000001
 43
0.0000000001
 40
0.0
 40
0.0
 40
0.0
 40
0.0
 40
0.125
 40
0.125
 40
0.125
 40
0.125
 40
0.25
 40
0.25
 40
0.25
 40
0.25
 40
0.375
 40
0.375
 40
0.375
 40
0.375
 40
0.5
 40
0.5
 40
0.5
 40
0.5
 40
0.625
 40
0.625
 40
0.625
 40
0.625
 40
0.75
 40
0.75
 40
0.75
 40
0.75
 40
1.0
 40
1.0
 40
1.0
 40
1.0
 10
54.0658
 20
8.6601
 30
0.0
 10
54.0658
 20
8.6601
 30
0.0
 10
54.0658
 20
8.6601
 30
0.0
 10
54.0658
 20
8.6601
 30
0.0
 10
54.0658
 20
8.6601
 30
0.0
 10
54.0658
 20
8.6601
 30
0.0
 10
54.0658
 20
8.6601
 30
0.0
 10
54.0658
 20
8.6601
 30
0.0
 10
54.0658
 20
8.6601
 30
0.0
 10
54.0658
 20
8.6601
 30
0.0
 10
52.793
 20
9.1035
 30
0.0
 10
52.793
 20
9.1035
 30
0.0
 10
52.793
 20
9.1035
 30
0.0
 10
52.793
 20
9.1035
 30
0.0
 10
54.0658
 20
9.5469
 30
0.0
 10
54.0658
 20
9.5469
 30
0.0
 10
54.0658
 20
9.5469
 30
0.0
 10
54.0658
 20
9.5469
 30
0.0
 10
54.0658
 20
9.5469
 30
0.0
 10
54.0658
 20
9.5469
 30
0.0
 10
54.0658
 20
9.5469
 30
0.0
 10
54.0658
 20
9.5469
 30
0.0
 10
54.0658
 20
9.5469
 30
0.0
 10
54.0658
 20
9.5469
 30
0.0
 10
54.0658
 20
9.5469
 30
0.0
 10
54.0658
 20
9.5469
 30
0.0
 10
54.0658
 20
8.6601
 30
0.0
 10
54.0658
 20
8.6601
 30
0.0
  0
SPLINE
  5
6D
330
1F
100
AcDbEntity
  8
Ilustrace
 62
   250
370
     9
100
AcDbSpline
210
0.0
220
0.0
230
1.0
 70
    11
 71
     3
 72
    32
 73
    28
 74
     0
 42
0.0000000001
 43
0.0000000001
 40
0.0
 40
0.0
 40
0.0
 40
0.0
 40
0.125
 40
0.125
 40
0.125
 40
0.125
 40
0.25
 40
0.25
 40
0.25
 40
0.25
 40
0.375
 40
0.375
 40
0.375
 40
0.375
 40
0.5
 40
0.5
 40
0.5
 40
0.5
 40
0.625
 40
0.625
 40
0.625
 40
0.625
 40
0.75
 40
0.75
 40
0.75
 40
0.75
 40
1.0
 40
1.0
 40
1.0
 40
1.0
 10
80.1438
 20
-10.9228
 30
0.0
 10
80.1438
 20
-10.9228
 30
0.0
 10
80.1438
 20
-10.9228
 30
0.0
 10
80.1438
 20
-10.9228
 30
0.0
 10
80.1438
 20
-10.9228
 30
0.0
 10
80.1438
 20
-10.9228
 30
0.0
 10
80.1438
 20
-10.9228
 30
0.0
 10
80.1438
 20
-10.9228
 30
0.0
 10
80.1438
 20
-10.9228
 30
0.0
 10
80.1438
 20
-10.9228
 30
0.0
 10
79.7004
 20
-12.1956
 30
0.0
 10
79.7004
 20
-12.1956
 30
0.0
 10
79.7004
 20
-12.1956
 30
0.0
 10
79.7004
 20
-12.1956
 30
0.0
 10
79.257
 20
-10.9228
 30
0.0
 10
79.257
 20
-10.9228
 30
0.0
 10
79.257
 20
-10.9228
 30
0.0
 10
79.257
 20
-10.9228
 30
0.0
 10
79.257
 20
-10.9228
 30
0.0
 10
79.257
 20
-10.9228
 30
0.0
 10
79.257
 20
-10.9228
 30
0.0
 10
79.257
 20
-10.9228
 30
0.0
 10
79.257
 20
-10.9228
 30
0.0
 10
79.257
 20
-10.9228
 30
0.0
 10
79.257
 20
-10.9228
 30
0.0
 10
79.257
 20
-10.9228
 30
0.0
 10
80.1438
 20
-10.9228
 30
0.0
 10
80.1438
 20
-10.9228
 30
0.0
  0
TEXT
  5
6F
330
1F
100
AcDbEntity
  8
Ilustrace
 62
   250
100
AcDbText
 10
75.34460000000009
 20
1.178699999999919
 30
0.0
 40
1.557792
  1
19
 50
90.00000000000574
 51
-0.0000015352333383
  7
1
100
AcDbText
  0
SPLINE
  5
70
330
1F
100
AcDbEntity
  8
Ilustrace
 62
   250
370
    15
100
AcDbSpline
210
0.0
220
0.0
230
1.0
 70
    24
 71
     3
 72
     8
 73
     4
 74
     0
 42
0.0000000001
 43
0.0000000001
 40
0.0
 40
0.0
 40
0.0
 40
0.0
 40
1.0
 40
1.0
 40
1.0
 40
1.0
 10
75.6518
 20
6.9546
 30
0.0
 10
75.6518
 20
6.9546
 30
0.0
 10
75.6518
 20
-1.2475
 30
0.0
 10
75.6518
 20
-1.2475
 30
0.0
  0
SPLINE
  5
71
330
1F
100
AcDbEntity
  8
Ilustrace
 62
   250
370
     9
100
AcDbSpline
210
0.0
220
0.0
230
1.0
 70
    11
 71
     3
 72
    32
 73
    28
 74
     0
 42
0.0000000001
 43
0.0000000001
 40
0.0
 40
0.0
 40
0.0
 40
0.0
 40
0.125
 40
0.125
 40
0.125
 40
0.125
 40
0.25
 40
0.25
 40
0.25
 40
0.25
 40
0.375
 40
0.375
 40
0.375
 40
0.375
 40
0.5
 40
0.5
 40
0.5
 40
0.5
 40
0.625
 40
0.625
 40
0.625
 40
0.625
 40
0.75
 40
0.75
 40
0.75
 40
0.75
 40
1.0
 40
1.0
 40
1.0
 40
1.0
 10
76.0771
 20
-0.5592
 30
0.0
 10
76.0771
 20
-0.5592
 30
0.0
 10
76.0771
 20
-0.5592
 30
0.0
 10
76.0771
 20
-0.5592
 30
0.0
 10
76.0771
 20
-0.5592
 30
0.0
 10
76.0771
 20
-0.5592
 30
0.0
 10
76.0771
 20
-0.5592
 30
0.0
 10
76.0771
 20
-0.5592
 30
0.0
 10
76.0771
 20
-0.5592
 30
0.0
 10
76.0771
 20
-0.5592
 30
0.0
 10
75.6337
 20
0.7136
 30
0.0
 10
75.6337
 20
0.7136
 30
0.0
 10
75.6337
 20
0.7136
 30
0.0
 10
75.6337
 20
0.7136
 30
0.0
 10
75.1903
 20
-0.5592
 30
0.0
 10
75.1903
 20
-0.5592
 30
0.0
 10
75.1903
 20
-0.5592
 30
0.0
 10
75.1903
 20
-0.5592
 30
0.0
 10
75.1903
 20
-0.5592
 30
0.0
 10
75.1903
 20
-0.5592
 30
0.0
 10
75.1903
 20
-0.5592
 30
0.0
 10
75.1903
 20
-0.5592
 30
0.0
 10
75.1903
 20
-0.5592
 30
0.0
 10
75.1903
 20
-0.5592
 30
0.0
 10
75.1903
 20
-0.5592
 30
0.0
 10
75.1903
 20
-0.5592
 30
0.0
 10
76.0771
 20
-0.5592
 30
0.0
 10
76.0771
 20
-0.5592
 30
0.0
  0
SPLINE
  5
72
330
1F
100
AcDbEntity
  8
Ilustrace
 62
   250
370
     9
100
AcDbSpline
210
0.0
220
0.0
230
1.0
 70
    11
 71
     3
 72
    32
 73
    28
 74
     0
 42
0.0000000001
 43
0.0000000001
 40
0.0
 40
0.0
 40
0.0
 40
0.0
 40
0.125
 40
0.125
 40
0.125
 40
0.125
 40
0.25
 40
0.25
 40
0.25
 40
0.25
 40
0.375
 40
0.375
 40
0.375
 40
0.375
 40
0.5
 40
0.5
 40
0.5
 40
0.5
 40
0.625
 40
0.625
 40
0.625
 40
0.625
 40
0.75
 40
0.75
 40
0.75
 40
0.75
 40
1.0
 40
1.0
 40
1.0
 40
1.0
 10
76.0942
 20
6.5175
 30
0.0
 10
76.0942
 20
6.5175
 30
0.0
 10
76.0942
 20
6.5175
 30
0.0
 10
76.0942
 20
6.5175
 30
0.0
 10
76.0942
 20
6.5175
 30
0.0
 10
76.0942
 20
6.5175
 30
0.0
 10
76.0942
 20
6.5175
 30
0.0
 10
76.0942
 20
6.5175
 30
0.0
 10
76.0942
 20
6.5175
 30
0.0
 10
76.0942
 20
6.5175
 30
0.0
 10
75.6508
 20
5.2447
 30
0.0
 10
75.6508
 20
5.2447
 30
0.0
 10
75.6508
 20
5.2447
 30
0.0
 10
75.6508
 20
5.2447
 30
0.0
 10
75.2074
 20
6.5175
 30
0.0
 10
75.2074
 20
6.5175
 30
0.0
 10
75.2074
 20
6.5175
 30
0.0
 10
75.2074
 20
6.5175
 30
0.0
 10
75.2074
 20
6.5175
 30
0.0
 10
75.2074
 20
6.5175
 30
0.0
 10
75.2074
 20
6.5175
 30
0.0
 10
75.2074
 20
6.5175
 30
0.0
 10
75.2074
 20
6.5175
 30
0.0
 10
75.2074
 20
6.5175
 30
0.0
 10
75.2074
 20
6.5175
 30
0.0
 10
75.2074
 20
6.5175
 30
0.0
 10
76.0942
 20
6.5175
 30
0.0
 10
76.0942
 20
6.5175
 30
0.0
  0
SPLINE
  5
73
330
1F
100
AcDbEntity
  8
Ilustrace
 62
   250
370
    15
100
AcDbSpline
210
0.0
220
0.0
230
1.0
 70
    24
 71
     3
 72
     8
 73
     4
 74
     0
 42
0.0000000001
 43
0.0000000001
 40
0.0
 40
0.0
 40
0.0
 40
0.0
 40
1.0
 40
1.0
 40
1.0
 40
1.0
 10
70.8971
 20
0.7653
 30
0.0
 10
70.8971
 20
0.7653
 30
0.0
 10
76.0565
 20
0.7653
 30
0.0
 10
76.0565
 20
0.7653
 30
0.0
  0
SPLINE
  5
74
330
1F
100
AcDbEntity
  8
Ilustrace
 62
   250
370
    15
100
AcDbSpline
210
0.0
220
0.0
230
1.0
 70
    24
 71
     3
 72
     8
 73
     4
 74
     0
 42
0.0000000001
 43
0.0000000001
 40
0.0
 40
0.0
 40
0.0
 40
0.0
 40
1.0
 40
1.0
 40
1.0
 40
1.0
 10
72.2753
 20
5.2081
 30
0.0
 10
72.2753
 20
5.2081
 30
0.0
 10
80.3031
 20
5.2081
 30
0.0
 10
80.3031
 20
5.2081
 30
0.0
  0
TEXT
  5
75
330
1F
100
AcDbEntity
  8
Ilustrace
 62
   250
100
AcDbText
 10
79.3736999999999
 20
-8.658400000000023
 30
0.0
 40
1.91844
  1
60–80
 50
89.9999999999981
 51
-0.000001535234865
  7
0
100
AcDbText
  0
SPLINE
  5
76
330
1F
100
AcDbEntity
  8
Ilustrace
 62
   250
370
    15
100
AcDbSpline
210
0.0
220
0.0
230
1.0
 70
    24
 71
     3
 72
     8
 73
     4
 74
     0
 42
0.0000000001
 43
0.0000000001
 40
0.0
 40
0.0
 40
0.0
 40
0.0
 40
1.0
 40
1.0
 40
1.0
 40
1.0
 10
55.9415
 20
-5.6126
 30
0.0
 10
55.9415
 20
-5.6126
 30
0.0
 10
56.0282
 20
-4.8725
 30
0.0
 10
56.0282
 20
-4.8725
 30
0.0
  0
SPLINE
  5
77
330
1F
100
AcDbEntity
  8
Ilustrace
 62
   250
370
    15
100
AcDbSpline
210
0.0
220
0.0
230
1.0
 70
    24
 71
     3
 72
     8
 73
     4
 74
     0
 42
0.0000000001
 43
0.0000000001
 40
0.0
 40
0.0
 40
0.0
 40
0.0
 40
1.0
 40
1.0
 40
1.0
 40
1.0
 10
55.6641
 20
-5.6039
 30
0.0
 10
55.6641
 20
-5.6039
 30
0.0
 10
55.7508
 20
-4.8638
 30
0.0
 10
55.7508
 20
-4.8638
 30
0.0
  0
SPLINE
  5
78
330
1F
100
AcDbEntity
  8
Ilustrace
 62
   250
370
    15
100
AcDbSpline
210
0.0
220
0.0
230
1.0
 70
    24
 71
     3
 72
     8
 73
     4
 74
     0
 42
0.0000000001
 43
0.0000000001
 40
0.0
 40
0.0
 40
0.0
 40
0.0
 40
1.0
 40
1.0
 40
1.0
 40
1.0
 10
55.3889
 20
-5.6039
 30
0.0
 10
55.3889
 20
-5.6039
 30
0.0
 10
55.4756
 20
-4.8638
 30
0.0
 10
55.4756
 20
-4.8638
 30
0.0
  0
SPLINE
  5
79
330
1F
100
AcDbEntity
  8
Ilustrace
 62
   250
370
    15
100
AcDbSpline
210
0.0
220
0.0
230
1.0
 70
    24
 71
     3
 72
     8
 73
     4
 74
     0
 42
0.0000000001
 43
0.0000000001
 40
0.0
 40
0.0
 40
0.0
 40
0.0
 40
1.0
 40
1.0
 40
1.0
 40
1.0
 10
55.1288
 20
-5.6104
 30
0.0
 10
55.1288
 20
-5.6104
 30
0.0
 10
55.2155
 20
-4.8703
 30
0.0
 10
55.2155
 20
-4.8703
 30
0.0
  0
SPLINE
  5
7A
330
1F
100
AcDbEntity
  8
Ilustrace
 62
   250
370
    15
100
AcDbSpline
210
0.0
220
0.0
230
1.0
 70
    24
 71
     3
 72
     8
 73
     4
 74
     0
 42
0.0000000001
 43
0.0000000001
 40
0.0
 40
0.0
 40
0.0
 40
0.0
 40
1.0
 40
1.0
 40
1.0
 40
1.0
 10
54.8384
 20
-5.6017
 30
0.0
 10
54.8384
 20
-5.6017
 30
0.0
 10
54.9251
 20
-4.8616
 30
0.0
 10
54.9251
 20
-4.8616
 30
0.0
  0
SPLINE
  5
7B
330
1F
100
AcDbEntity
  8
Ilustrace
 62
   250
370
    15
100
AcDbSpline
210
0.0
220
0.0
230
1.0
 70
    24
 71
     3
 72
     8
 73
     4
 74
     0
 42
0.0000000001
 43
0.0000000001
 40
0.0
 40
0.0
 40
0.0
 40
0.0
 40
1.0
 40
1.0
 40
1.0
 40
1.0
 10
54.5545
 20
-5.6168
 30
0.0
 10
54.5545
 20
-5.6168
 30
0.0
 10
54.6412
 20
-4.8767
 30
0.0
 10
54.6412
 20
-4.8767
 30
0.0
  0
SPLINE
  5
7C
330
1F
100
AcDbEntity
  8
Ilustrace
 62
   250
370
    15
100
AcDbSpline
210
0.0
220
0.0
230
1.0
 70
    24
 71
     3
 72
     8
 73
     4
 74
     0
 42
0.0000000001
 43
0.0000000001
 40
0.0
 40
0.0
 40
0.0
 40
0.0
 40
1.0
 40
1.0
 40
1.0
 40
1.0
 10
70.0963
 20
-5.6246
 30
0.0
 10
70.0963
 20
-5.6246
 30
0.0
 10
70.183
 20
-4.8845
 30
0.0
 10
70.183
 20
-4.8845
 30
0.0
  0
SPLINE
  5
7D
330
1F
100
AcDbEntity
  8
Ilustrace
 62
   250
370
    15
100
AcDbSpline
210
0.0
220
0.0
230
1.0
 70
    24
 71
     3
 72
     8
 73
     4
 74
     0
 42
0.0000000001
 43
0.0000000001
 40
0.0
 40
0.0
 40
0.0
 40
0.0
 40
1.0
 40
1.0
 40
1.0
 40
1.0
 10
69.8189
 20
-5.6159
 30
0.0
 10
69.8189
 20
-5.6159
 30
0.0
 10
69.9056
 20
-4.8758
 30
0.0
 10
69.9056
 20
-4.8758
 30
0.0
  0
SPLINE
  5
7E
330
1F
100
AcDbEntity
  8
Ilustrace
 62
   250
370
    15
100
AcDbSpline
210
0.0
220
0.0
230
1.0
 70
    24
 71
     3
 72
     8
 73
     4
 74
     0
 42
0.0000000001
 43
0.0000000001
 40
0.0
 40
0.0
 40
0.0
 40
0.0
 40
1.0
 40
1.0
 40
1.0
 40
1.0
 10
69.5437
 20
-5.6159
 30
0.0
 10
69.5437
 20
-5.6159
 30
0.0
 10
69.6304
 20
-4.8758
 30
0.0
 10
69.6304
 20
-4.8758
 30
0.0
  0
SPLINE
  5
7F
330
1F
100
AcDbEntity
  8
Ilustrace
 62
   250
370
    15
100
AcDbSpline
210
0.0
220
0.0
230
1.0
 70
    24
 71
     3
 72
     8
 73
     4
 74
     0
 42
0.0000000001
 43
0.0000000001
 40
0.0
 40
0.0
 40
0.0
 40
0.0
 40
1.0
 40
1.0
 40
1.0
 40
1.0
 10
69.2836
 20
-5.6224
 30
0.0
 10
69.2836
 20
-5.6224
 30
0.0
 10
69.3703
 20
-4.8823
 30
0.0
 10
69.3703
 20
-4.8823
 30
0.0
  0
SPLINE
  5
80
330
1F
100
AcDbEntity
  8
Ilustrace
 62
   250
370
    15
100
AcDbSpline
210
0.0
220
0.0
230
1.0
 70
    24
 71
     3
 72
     8
 73
     4
 74
     0
 42
0.0000000001
 43
0.0000000001
 40
0.0
 40
0.0
 40
0.0
 40
0.0
 40
1.0
 40
1.0
 40
1.0
 40
1.0
 10
68.9932
 20
-5.6137
 30
0.0
 10
68.9932
 20
-5.6137
 30
0.0
 10
69.0799
 20
-4.8736
 30
0.0
 10
69.0799
 20
-4.8736
 30
0.0
  0
SPLINE
  5
81
330
1F
100
AcDbEntity
  8
Ilustrace
 62
   250
370
    15
100
AcDbSpline
210
0.0
220
0.0
230
1.0
 70
    24
 71
     3
 72
     8
 73
     4
 74
     0
 42
0.0000000001
 43
0.0000000001
 40
0.0
 40
0.0
 40
0.0
 40
0.0
 40
1.0
 40
1.0
 40
1.0
 40
1.0
 10
68.7094
 20
-5.6288
 30
0.0
 10
68.7094
 20
-5.6288
 30
0.0
 10
68.796
 20
-4.8887
 30
0.0
 10
68.796
 20
-4.8887
 30
0.0
  0
SPLINE
  5
82
330
1F
100
AcDbEntity
  8
Ilustrace
 62
   250
370
    30
100
AcDbSpline
210
0.0
220
0.0
230
1.0
 70
    24
 71
     3
 72
     8
 73
     4
 74
     0
 42
0.0000000001
 43
0.0000000001
 40
0.0
 40
0.0
 40
0.0
 40
0.0
 40
1.0
 40
1.0
 40
1.0
 40
1.0
 10
56.3326
 20
-4.7879
 30
0.0
 10
56.3326
 20
-4.7879
 30
0.0
 10
56.3326
 20
-5.7134
 30
0.0
 10
56.3326
 20
-5.7134
 30
0.0
  0
SPLINE
  5
83
330
1F
100
AcDbEntity
  8
Ilustrace
 62
   250
370
    30
100
AcDbSpline
210
0.0
220
0.0
230
1.0
 70
    24
 71
     3
 72
     8
 73
     4
 74
     0
 42
0.0000000001
 43
0.0000000001
 40
0.0
 40
0.0
 40
0.0
 40
0.0
 40
1.0
 40
1.0
 40
1.0
 40
1.0
 10
56.3326
 20
-4.7879
 30
0.0
 10
56.3326
 20
-4.7879
 30
0.0
 10
56.3326
 20
-5.7134
 30
0.0
 10
56.3326
 20
-5.7134
 30
0.0
  0
SPLINE
  5
84
330
1F
100
AcDbEntity
  8
Ilustrace
 62
   250
370
    30
100
AcDbSpline
210
0.0
220
0.0
230
1.0
 70
    24
 71
     3
 72
     8
 73
     4
 74
     0
 42
0.0000000001
 43
0.0000000001
 40
0.0
 40
0.0
 40
0.0
 40
0.0
 40
1.0
 40
1.0
 40
1.0
 40
1.0
 10
52.6304
 20
-3.6829
 30
0.0
 10
52.6304
 20
-3.6829
 30
0.0
 10
52.4788
 20
-3.6829
 30
0.0
 10
52.4788
 20
-3.6829
 30
0.0
  0
SPLINE
  5
85
330
1F
100
AcDbEntity
  8
Ilustrace
 62
   250
370
    30
100
AcDbSpline
210
0.0
220
0.0
230
1.0
 70
    24
 71
     3
 72
     8
 73
     4
 74
     0
 42
0.0000000001
 43
0.0000000001
 40
0.0
 40
0.0
 40
0.0
 40
0.0
 40
1.0
 40
1.0
 40
1.0
 40
1.0
 10
52.6304
 20
-6.8184
 30
0.0
 10
52.6304
 20
-6.8184
 30
0.0
 10
52.4788
 20
-6.8184
 30
0.0
 10
52.4788
 20
-6.8184
 30
0.0
  0
SPLINE
  5
86
330
1F
100
AcDbEntity
  8
Ilustrace
 62
   250
370
    30
100
AcDbSpline
210
0.0
220
0.0
230
1.0
 70
     8
 71
     3
 72
    12
 73
     8
 74
     0
 42
0.0000000001
 43
0.0000000001
 40
0.0
 40
0.0
 40
0.0
 40
0.0
 40
0.3333333333333333
 40
0.3333333333333333
 40
0.3333333333333333
 40
0.3333333333333333
 40
1.0
 40
1.0
 40
1.0
 40
1.0
 10
56.3326
 20
-5.7134
 30
0.0
 10
56.3326
 20
-5.7134
 30
0.0
 10
56.217
 20
-5.8291
 30
0.0
 10
56.217
 20
-5.8291
 30
0.0
 10
56.217
 20
-5.8291
 30
0.0
 10
56.217
 20
-5.8291
 30
0.0
 10
54.3195
 20
-5.8291
 30
0.0
 10
54.3195
 20
-5.8291
 30
0.0
  0
SPLINE
  5
87
330
1F
100
AcDbEntity
  8
Ilustrace
 62
   250
370
    30
100
AcDbSpline
210
0.0
220
0.0
230
1.0
 70
    24
 71
     3
 72
    12
 73
     8
 74
     0
 42
0.0000000001
 43
0.0000000001
 40
0.0
 40
0.0
 40
0.0
 40
0.0
 40
0.3333333333333333
 40
0.3333333333333333
 40
0.3333333333333333
 40
0.3333333333333333
 40
1.0
 40
1.0
 40
1.0
 40
1.0
 10
54.3195
 20
-4.6722
 30
0.0
 10
54.3195
 20
-4.6722
 30
0.0
 10
54.7823
 20
-4.6722
 30
0.0
 10
54.7823
 20
-4.6722
 30
0.0
 10
54.7823
 20
-4.6722
 30
0.0
 10
54.7823
 20
-4.6722
 30
0.0
 10
55.7543
 20
-4.6722
 30
0.0
 10
55.7543
 20
-4.6722
 30
0.0
  0
SPLINE
  5
88
330
1F
100
AcDbEntity
  8
Ilustrace
 62
   250
370
    30
100
AcDbSpline
210
0.0
220
0.0
230
1.0
 70
     8
 71
     3
 72
     8
 73
     4
 74
     0
 42
0.0000000001
 43
0.0000000001
 40
0.0
 40
0.0
 40
0.0
 40
0.0
 40
1.0
 40
1.0
 40
1.0
 40
1.0
 10
55.7543
 20
-4.6722
 30
0.0
 10
56.2716
 20
-4.6722
 30
0.0
 10
56.1079
 20
-4.563
 30
0.0
 10
56.3326
 20
-4.7879
 30
0.0
  0
SPLINE
  5
89
330
1F
100
AcDbEntity
  8
Ilustrace
 62
   250
370
    30
100
AcDbSpline
210
0.0
220
0.0
230
1.0
 70
     8
 71
     3
 72
    16
 73
    12
 74
     0
 42
0.0000000001
 43
0.0000000001
 40
0.0
 40
0.0
 40
0.0
 40
0.0
 40
0.25
 40
0.25
 40
0.25
 40
0.25
 40
0.5
 40
0.5
 40
0.5
 40
0.5
 40
1.0
 40
1.0
 40
1.0
 40
1.0
 10
52.4788
 20
-3.6829
 30
0.0
 10
52.3115
 20
-3.8803
 30
0.0
 10
52.1664
 20
-4.0825
 30
0.0
 10
52.0618
 20
-4.3208
 30
0.0
 10
52.0618
 20
-4.3208
 30
0.0
 10
51.8037
 20
-4.909
 30
0.0
 10
51.8037
 20
-5.5922
 30
0.0
 10
52.0618
 20
-6.1805
 30
0.0
 10
52.0618
 20
-6.1805
 30
0.0
 10
52.1664
 20
-6.4187
 30
0.0
 10
52.3115
 20
-6.6209
 30
0.0
 10
52.4788
 20
-6.8184
 30
0.0
  0
SPLINE
  5
8A
330
1F
100
AcDbEntity
  8
Ilustrace
 62
   250
370
    30
100
AcDbSpline
210
0.0
220
0.0
230
1.0
 70
    24
 71
     3
 72
     8
 73
     4
 74
     0
 42
0.0000000001
 43
0.0000000001
 40
0.0
 40
0.0
 40
0.0
 40
0.0
 40
1.0
 40
1.0
 40
1.0
 40
1.0
 10
68.3653
 20
-5.7134
 30
0.0
 10
68.3653
 20
-5.7134
 30
0.0
 10
68.3653
 20
-4.7879
 30
0.0
 10
68.3653
 20
-4.7879
 30
0.0
  0
SPLINE
  5
8B
330
1F
100
AcDbEntity
  8
Ilustrace
 62
   250
370
    30
100
AcDbSpline
210
0.0
220
0.0
230
1.0
 70
    24
 71
     3
 72
     8
 73
     4
 74
     0
 42
0.0000000001
 43
0.0000000001
 40
0.0
 40
0.0
 40
0.0
 40
0.0
 40
1.0
 40
1.0
 40
1.0
 40
1.0
 10
68.3653
 20
-4.7879
 30
0.0
 10
68.3653
 20
-4.7879
 30
0.0
 10
68.3653
 20
-5.7134
 30
0.0
 10
68.3653
 20
-5.7134
 30
0.0
  0
SPLINE
  5
8C
330
1F
100
AcDbEntity
  8
Ilustrace
 62
   250
370
    30
100
AcDbSpline
210
0.0
220
0.0
230
1.0
 70
    24
 71
     3
 72
     8
 73
     4
 74
     0
 42
0.0000000001
 43
0.0000000001
 40
0.0
 40
0.0
 40
0.0
 40
0.0
 40
1.0
 40
1.0
 40
1.0
 40
1.0
 10
72.2192
 20
-3.6829
 30
0.0
 10
72.2192
 20
-3.6829
 30
0.0
 10
72.0676
 20
-3.6829
 30
0.0
 10
72.0676
 20
-3.6829
 30
0.0
  0
SPLINE
  5
8D
330
1F
100
AcDbEntity
  8
Ilustrace
 62
   250
370
    30
100
AcDbSpline
210
0.0
220
0.0
230
1.0
 70
    24
 71
     3
 72
     8
 73
     4
 74
     0
 42
0.0000000001
 43
0.0000000001
 40
0.0
 40
0.0
 40
0.0
 40
0.0
 40
1.0
 40
1.0
 40
1.0
 40
1.0
 10
72.0676
 20
-6.8184
 30
0.0
 10
72.0676
 20
-6.8184
 30
0.0
 10
72.2192
 20
-6.8184
 30
0.0
 10
72.2192
 20
-6.8184
 30
0.0
  0
SPLINE
  5
8E
330
1F
100
AcDbEntity
  8
Ilustrace
 62
   250
370
    30
100
AcDbSpline
210
0.0
220
0.0
230
1.0
 70
    24
 71
     3
 72
    12
 73
     8
 74
     0
 42
0.0000000001
 43
0.0000000001
 40
0.0
 40
0.0
 40
0.0
 40
0.0
 40
0.3333333333333333
 40
0.3333333333333333
 40
0.3333333333333333
 40
0.3333333333333333
 40
1.0
 40
1.0
 40
1.0
 40
1.0
 10
70.3784
 20
-5.8291
 30
0.0
 10
70.3784
 20
-5.8291
 30
0.0
 10
69.9157
 20
-5.8291
 30
0.0
 10
69.9157
 20
-5.8291
 30
0.0
 10
69.9157
 20
-5.8291
 30
0.0
 10
69.9157
 20
-5.8291
 30
0.0
 10
68.9438
 20
-5.8291
 30
0.0
 10
68.9438
 20
-5.8291
 30
0.0
  0
SPLINE
  5
8F
330
1F
100
AcDbEntity
  8
Ilustrace
 62
   250
370
    30
100
AcDbSpline
210
0.0
220
0.0
230
1.0
 70
     8
 71
     3
 72
     8
 73
     4
 74
     0
 42
0.0000000001
 43
0.0000000001
 40
0.0
 40
0.0
 40
0.0
 40
0.0
 40
1.0
 40
1.0
 40
1.0
 40
1.0
 10
68.9438
 20
-5.8291
 30
0.0
 10
68.4265
 20
-5.8291
 30
0.0
 10
68.59
 20
-5.9382
 30
0.0
 10
68.3653
 20
-5.7134
 30
0.0
  0
SPLINE
  5
90
330
1F
100
AcDbEntity
  8
Ilustrace
 62
   250
370
    30
100
AcDbSpline
210
0.0
220
0.0
230
1.0
 70
    24
 71
     3
 72
     8
 73
     4
 74
     0
 42
0.0000000001
 43
0.0000000001
 40
0.0
 40
0.0
 40
0.0
 40
0.0
 40
1.0
 40
1.0
 40
1.0
 40
1.0
 10
70.3784
 20
-4.6722
 30
0.0
 10
69.746
 20
-4.6722
 30
0.0
 10
69.1135
 20
-4.6722
 30
0.0
 10
68.4809
 20
-4.6722
 30
0.0
  0
SPLINE
  5
91
330
1F
100
AcDbEntity
  8
Ilustrace
 62
   250
370
    30
100
AcDbSpline
210
0.0
220
0.0
230
1.0
 70
    24
 71
     3
 72
     8
 73
     4
 74
     0
 42
0.0000000001
 43
0.0000000001
 40
0.0
 40
0.0
 40
0.0
 40
0.0
 40
1.0
 40
1.0
 40
1.0
 40
1.0
 10
68.4809
 20
-4.6722
 30
0.0
 10
68.4809
 20
-4.6722
 30
0.0
 10
68.3653
 20
-4.7879
 30
0.0
 10
68.3653
 20
-4.7879
 30
0.0
  0
SPLINE
  5
92
330
1F
100
AcDbEntity
  8
Ilustrace
 62
   250
370
    30
100
AcDbSpline
210
0.0
220
0.0
230
1.0
 70
     8
 71
     3
 72
    16
 73
    12
 74
     0
 42
0.0000000001
 43
0.0000000001
 40
0.0
 40
0.0
 40
0.0
 40
0.0
 40
0.25
 40
0.25
 40
0.25
 40
0.25
 40
0.5
 40
0.5
 40
0.5
 40
0.5
 40
1.0
 40
1.0
 40
1.0
 40
1.0
 10
72.2192
 20
-3.6829
 30
0.0
 10
72.3864
 20
-3.8803
 30
0.0
 10
72.5316
 20
-4.0825
 30
0.0
 10
72.6362
 20
-4.3208
 30
0.0
 10
72.6362
 20
-4.3208
 30
0.0
 10
72.8942
 20
-4.909
 30
0.0
 10
72.8942
 20
-5.5922
 30
0.0
 10
72.6362
 20
-6.1805
 30
0.0
 10
72.6362
 20
-6.1805
 30
0.0
 10
72.5316
 20
-6.4187
 30
0.0
 10
72.3864
 20
-6.6209
 30
0.0
 10
72.2192
 20
-6.8184
 30
0.0
  0
SPLINE
  5
93
330
1F
100
AcDbEntity
  8
Ilustrace
 62
   250
370
    30
100
AcDbSpline
210
0.0
220
0.0
230
1.0
 70
    24
 71
     3
 72
     8
 73
     4
 74
     0
 42
0.0000000001
 43
0.0000000001
 40
0.0
 40
0.0
 40
0.0
 40
0.0
 40
1.0
 40
1.0
 40
1.0
 40
1.0
 10
70.3784
 20
-4.6722
 30
0.0
 10
70.3784
 20
-4.6722
 30
0.0
 10
68.4809
 20
-4.6722
 30
0.0
 10
68.4809
 20
-4.6722
 30
0.0
  0
SPLINE
  5
94
330
1F
100
AcDbEntity
  8
Ilustrace
 62
   250
370
    30
100
AcDbSpline
210
0.0
220
0.0
230
1.0
 70
    24
 71
     3
 72
     8
 73
     4
 74
     0
 42
0.0000000001
 43
0.0000000001
 40
0.0
 40
0.0
 40
0.0
 40
0.0
 40
1.0
 40
1.0
 40
1.0
 40
1.0
 10
56.217
 20
-5.8291
 30
0.0
 10
56.217
 20
-5.8291
 30
0.0
 10
54.3195
 20
-5.8291
 30
0.0
 10
54.3195
 20
-5.8291
 30
0.0
  0
SPLINE
  5
95
330
1F
100
AcDbEntity
  8
Ilustrace
 62
   250
370
    30
100
AcDbSpline
210
0.0
220
0.0
230
1.0
 70
    24
 71
     3
 72
     8
 73
     4
 74
     0
 42
0.0000000001
 43
0.0000000001
 40
0.0
 40
0.0
 40
0.0
 40
0.0
 40
1.0
 40
1.0
 40
1.0
 40
1.0
 10
71.0996
 20
-6.5465
 30
0.0
 10
71.0996
 20
-6.5465
 30
0.0
 10
71.0996
 20
-3.9548
 30
0.0
 10
71.0996
 20
-3.9548
 30
0.0
  0
SPLINE
  5
96
330
1F
100
AcDbEntity
  8
Ilustrace
 62
   250
370
    30
100
AcDbSpline
210
0.0
220
0.0
230
1.0
 70
    24
 71
     3
 72
     8
 73
     4
 74
     0
 42
0.0000000001
 43
0.0000000001
 40
0.0
 40
0.0
 40
0.0
 40
0.0
 40
1.0
 40
1.0
 40
1.0
 40
1.0
 10
70.461
 20
-5.7849
 30
0.0
 10
70.461
 20
-5.7849
 30
0.0
 10
70.9685
 20
-5.7849
 30
0.0
 10
70.9685
 20
-5.7849
 30
0.0
  0
SPLINE
  5
97
330
1F
100
AcDbEntity
  8
Ilustrace
 62
   250
370
    30
100
AcDbSpline
210
0.0
220
0.0
230
1.0
 70
    24
 71
     3
 72
     8
 73
     4
 74
     0
 42
0.0000000001
 43
0.0000000001
 40
0.0
 40
0.0
 40
0.0
 40
0.0
 40
1.0
 40
1.0
 40
1.0
 40
1.0
 10
70.9685
 20
-4.7162
 30
0.0
 10
70.9685
 20
-4.7162
 30
0.0
 10
70.461
 20
-4.7162
 30
0.0
 10
70.461
 20
-4.7162
 30
0.0
  0
SPLINE
  5
98
330
1F
100
AcDbEntity
  8
Ilustrace
 62
   250
370
    30
100
AcDbSpline
210
0.0
220
0.0
230
1.0
 70
    24
 71
     3
 72
     8
 73
     4
 74
     0
 42
0.0000000001
 43
0.0000000001
 40
0.0
 40
0.0
 40
0.0
 40
0.0
 40
1.0
 40
1.0
 40
1.0
 40
1.0
 10
71.0996
 20
-6.5465
 30
0.0
 10
71.0996
 20
-6.5465
 30
0.0
 10
70.9685
 20
-6.3194
 30
0.0
 10
70.9685
 20
-6.3194
 30
0.0
  0
SPLINE
  5
99
330
1F
100
AcDbEntity
  8
Ilustrace
 62
   250
370
    30
100
AcDbSpline
210
0.0
220
0.0
230
1.0
 70
    24
 71
     3
 72
     8
 73
     4
 74
     0
 42
0.0000000001
 43
0.0000000001
 40
0.0
 40
0.0
 40
0.0
 40
0.0
 40
1.0
 40
1.0
 40
1.0
 40
1.0
 10
70.461
 20
-4.1819
 30
0.0
 10
70.461
 20
-4.1819
 30
0.0
 10
70.9685
 20
-4.1819
 30
0.0
 10
70.9685
 20
-4.1819
 30
0.0
  0
SPLINE
  5
9A
330
1F
100
AcDbEntity
  8
Ilustrace
 62
   250
370
    30
100
AcDbSpline
210
0.0
220
0.0
230
1.0
 70
    24
 71
     3
 72
     8
 73
     4
 74
     0
 42
0.0000000001
 43
0.0000000001
 40
0.0
 40
0.0
 40
0.0
 40
0.0
 40
1.0
 40
1.0
 40
1.0
 40
1.0
 10
71.0996
 20
-3.9548
 30
0.0
 10
71.0996
 20
-3.9548
 30
0.0
 10
70.9685
 20
-4.1819
 30
0.0
 10
70.9685
 20
-4.1819
 30
0.0
  0
SPLINE
  5
9B
330
1F
100
AcDbEntity
  8
Ilustrace
 62
   250
370
    30
100
AcDbSpline
210
0.0
220
0.0
230
1.0
 70
    24
 71
     3
 72
     8
 73
     4
 74
     0
 42
0.0000000001
 43
0.0000000001
 40
0.0
 40
0.0
 40
0.0
 40
0.0
 40
1.0
 40
1.0
 40
1.0
 40
1.0
 10
70.9685
 20
-6.3194
 30
0.0
 10
70.9685
 20
-6.3194
 30
0.0
 10
70.461
 20
-6.3194
 30
0.0
 10
70.461
 20
-6.3194
 30
0.0
  0
SPLINE
  5
9C
330
1F
100
AcDbEntity
  8
Ilustrace
 62
   250
370
    30
100
AcDbSpline
210
0.0
220
0.0
230
1.0
 70
    24
 71
     3
 72
     8
 73
     4
 74
     0
 42
0.0000000001
 43
0.0000000001
 40
0.0
 40
0.0
 40
0.0
 40
0.0
 40
1.0
 40
1.0
 40
1.0
 40
1.0
 10
71.3734
 20
-3.9548
 30
0.0
 10
71.3734
 20
-3.9548
 30
0.0
 10
71.0996
 20
-3.9548
 30
0.0
 10
71.0996
 20
-3.9548
 30
0.0
  0
SPLINE
  5
9D
330
1F
100
AcDbEntity
  8
Ilustrace
 62
   250
370
    30
100
AcDbSpline
210
0.0
220
0.0
230
1.0
 70
     8
 71
     3
 72
    12
 73
     8
 74
     0
 42
0.0000000001
 43
0.0000000001
 40
0.0
 40
0.0
 40
0.0
 40
0.0
 40
0.3333333333333333
 40
0.3333333333333333
 40
0.3333333333333333
 40
0.3333333333333333
 40
1.0
 40
1.0
 40
1.0
 40
1.0
 10
70.9685
 20
-6.3194
 30
0.0
 10
70.9094
 20
-6.2068
 30
0.0
 10
70.8678
 20
-6.0935
 30
0.0
 10
70.8952
 20
-5.9649
 30
0.0
 10
70.8952
 20
-5.9649
 30
0.0
 10
70.9039
 20
-5.9241
 30
0.0
 10
70.9184
 20
-5.8845
 30
0.0
 10
70.9361
 20
-5.8468
 30
0.0
  0
SPLINE
  5
9E
330
1F
100
AcDbEntity
  8
Ilustrace
 62
   250
370
    30
100
AcDbSpline
210
0.0
220
0.0
230
1.0
 70
     8
 71
     3
 72
    12
 73
     8
 74
     0
 42
0.0000000001
 43
0.0000000001
 40
0.0
 40
0.0
 40
0.0
 40
0.0
 40
0.3333333333333333
 40
0.3333333333333333
 40
0.3333333333333333
 40
0.3333333333333333
 40
1.0
 40
1.0
 40
1.0
 40
1.0
 10
70.9361
 20
-5.8468
 30
0.0
 10
70.9361
 20
-5.8468
 30
0.0
 10
70.9685
 20
-5.7849
 30
0.0
 10
70.9685
 20
-5.7849
 30
0.0
 10
70.9685
 20
-5.7849
 30
0.0
 10
70.9685
 20
-5.7849
 30
0.0
 10
70.9117
 20
-5.5424
 30
0.0
 10
70.9117
 20
-5.5424
 30
0.0
  0
SPLINE
  5
9F
330
1F
100
AcDbEntity
  8
Ilustrace
 62
   250
370
    30
100
AcDbSpline
210
0.0
220
0.0
230
1.0
 70
     8
 71
     3
 72
    12
 73
     8
 74
     0
 42
0.0000000001
 43
0.0000000001
 40
0.0
 40
0.0
 40
0.0
 40
0.0
 40
0.3333333333333333
 40
0.3333333333333333
 40
0.3333333333333333
 40
0.3333333333333333
 40
1.0
 40
1.0
 40
1.0
 40
1.0
 10
70.9117
 20
-5.5424
 30
0.0
 10
70.8917
 20
-5.4268
 30
0.0
 10
70.8827
 20
-5.3097
 30
0.0
 10
70.8868
 20
-5.1923
 30
0.0
 10
70.8868
 20
-5.1923
 30
0.0
 10
70.8912
 20
-5.0735
 30
0.0
 10
70.909
 20
-4.9556
 30
0.0
 10
70.9361
 20
-4.84
 30
0.0
  0
SPLINE
  5
A0
330
1F
100
AcDbEntity
  8
Ilustrace
 62
   250
370
    30
100
AcDbSpline
210
0.0
220
0.0
230
1.0
 70
     8
 71
     3
 72
    12
 73
     8
 74
     0
 42
0.0000000001
 43
0.0000000001
 40
0.0
 40
0.0
 40
0.0
 40
0.0
 40
0.3333333333333333
 40
0.3333333333333333
 40
0.3333333333333333
 40
0.3333333333333333
 40
1.0
 40
1.0
 40
1.0
 40
1.0
 10
70.9361
 20
-4.84
 30
0.0
 10
70.9361
 20
-4.84
 30
0.0
 10
70.9685
 20
-4.7162
 30
0.0
 10
70.9685
 20
-4.7162
 30
0.0
 10
70.9685
 20
-4.7162
 30
0.0
 10
70.9685
 20
-4.7162
 30
0.0
 10
70.9361
 20
-4.6544
 30
0.0
 10
70.9361
 20
-4.6544
 30
0.0
  0
SPLINE
  5
A1
330
1F
100
AcDbEntity
  8
Ilustrace
 62
   250
370
    30
100
AcDbSpline
210
0.0
220
0.0
230
1.0
 70
     8
 71
     3
 72
    12
 73
     8
 74
     0
 42
0.0000000001
 43
0.0000000001
 40
0.0
 40
0.0
 40
0.0
 40
0.0
 40
0.3333333333333333
 40
0.3333333333333333
 40
0.3333333333333333
 40
0.3333333333333333
 40
1.0
 40
1.0
 40
1.0
 40
1.0
 10
70.9361
 20
-4.6544
 30
0.0
 10
70.9184
 20
-4.6168
 30
0.0
 10
70.9039
 20
-4.5771
 30
0.0
 10
70.8952
 20
-4.5364
 30
0.0
 10
70.8952
 20
-4.5364
 30
0.0
 10
70.8678
 20
-4.4077
 30
0.0
 10
70.9094
 20
-4.2945
 30
0.0
 10
70.9685
 20
-4.1819
 30
0.0
  0
SPLINE
  5
A2
330
1F
100
AcDbEntity
  8
Ilustrace
 62
   250
370
    30
100
AcDbSpline
210
0.0
220
0.0
230
1.0
 70
     8
 71
     3
 72
    12
 73
     8
 74
     0
 42
0.0000000001
 43
0.0000000001
 40
0.0
 40
0.0
 40
0.0
 40
0.0
 40
0.3333333333333333
 40
0.3333333333333333
 40
0.3333333333333333
 40
0.3333333333333333
 40
1.0
 40
1.0
 40
1.0
 40
1.0
 10
70.461
 20
-4.1819
 30
0.0
 10
70.3975
 20
-4.302
 30
0.0
 10
70.3606
 20
-4.4179
 30
0.0
 10
70.3919
 20
-4.554
 30
0.0
 10
70.3919
 20
-4.554
 30
0.0
 10
70.4002
 20
-4.59
 30
0.0
 10
70.4157
 20
-4.6276
 30
0.0
 10
70.4316
 20
-4.6606
 30
0.0
  0
SPLINE
  5
A3
330
1F
100
AcDbEntity
  8
Ilustrace
 62
   250
370
    30
100
AcDbSpline
210
0.0
220
0.0
230
1.0
 70
     8
 71
     3
 72
    12
 73
     8
 74
     0
 42
0.0000000001
 43
0.0000000001
 40
0.0
 40
0.0
 40
0.0
 40
0.0
 40
0.3333333333333333
 40
0.3333333333333333
 40
0.3333333333333333
 40
0.3333333333333333
 40
1.0
 40
1.0
 40
1.0
 40
1.0
 10
70.4316
 20
-4.6606
 30
0.0
 10
70.4316
 20
-4.6606
 30
0.0
 10
70.461
 20
-4.7162
 30
0.0
 10
70.461
 20
-4.7162
 30
0.0
 10
70.461
 20
-4.7162
 30
0.0
 10
70.461
 20
-4.7162
 30
0.0
 10
70.4086
 20
-4.9352
 30
0.0
 10
70.4086
 20
-4.9352
 30
0.0
  0
SPLINE
  5
A4
330
1F
100
AcDbEntity
  8
Ilustrace
 62
   250
370
    30
100
AcDbSpline
210
0.0
220
0.0
230
1.0
 70
     8
 71
     3
 72
    12
 73
     8
 74
     0
 42
0.0000000001
 43
0.0000000001
 40
0.0
 40
0.0
 40
0.0
 40
0.0
 40
0.3333333333333333
 40
0.3333333333333333
 40
0.3333333333333333
 40
0.3333333333333333
 40
1.0
 40
1.0
 40
1.0
 40
1.0
 10
70.4086
 20
-4.9352
 30
0.0
 10
70.3892
 20
-5.0392
 30
0.0
 10
70.3784
 20
-5.1447
 30
0.0
 10
70.3784
 20
-5.2506
 30
0.0
 10
70.3784
 20
-5.2506
 30
0.0
 10
70.3784
 20
-5.3565
 30
0.0
 10
70.3892
 20
-5.462
 30
0.0
 10
70.4086
 20
-5.566
 30
0.0
  0
SPLINE
  5
A5
330
1F
100
AcDbEntity
  8
Ilustrace
 62
   250
370
    30
100
AcDbSpline
210
0.0
220
0.0
230
1.0
 70
     8
 71
     3
 72
    12
 73
     8
 74
     0
 42
0.0000000001
 43
0.0000000001
 40
0.0
 40
0.0
 40
0.0
 40
0.0
 40
0.3333333333333333
 40
0.3333333333333333
 40
0.3333333333333333
 40
0.3333333333333333
 40
1.0
 40
1.0
 40
1.0
 40
1.0
 10
70.4086
 20
-5.566
 30
0.0
 10
70.4086
 20
-5.566
 30
0.0
 10
70.461
 20
-5.7849
 30
0.0
 10
70.461
 20
-5.7849
 30
0.0
 10
70.461
 20
-5.7849
 30
0.0
 10
70.461
 20
-5.7849
 30
0.0
 10
70.4316
 20
-5.8408
 30
0.0
 10
70.4316
 20
-5.8408
 30
0.0
  0
SPLINE
  5
A6
330
1F
100
AcDbEntity
  8
Ilustrace
 62
   250
370
    30
100
AcDbSpline
210
0.0
220
0.0
230
1.0
 70
     8
 71
     3
 72
    12
 73
     8
 74
     0
 42
0.0000000001
 43
0.0000000001
 40
0.0
 40
0.0
 40
0.0
 40
0.0
 40
0.3333333333333333
 40
0.3333333333333333
 40
0.3333333333333333
 40
0.3333333333333333
 40
1.0
 40
1.0
 40
1.0
 40
1.0
 10
70.4316
 20
-5.8408
 30
0.0
 10
70.4157
 20
-5.8736
 30
0.0
 10
70.4002
 20
-5.9112
 30
0.0
 10
70.3919
 20
-5.9472
 30
0.0
 10
70.3919
 20
-5.9472
 30
0.0
 10
70.3606
 20
-6.0833
 30
0.0
 10
70.3975
 20
-6.1991
 30
0.0
 10
70.461
 20
-6.3194
 30
0.0
  0
SPLINE
  5
A7
330
1F
100
AcDbEntity
  8
Ilustrace
 62
   250
370
    30
100
AcDbSpline
210
0.0
220
0.0
230
1.0
 70
     8
 71
     3
 72
    16
 73
    12
 74
     0
 42
0.0000000001
 43
0.0000000001
 40
0.0
 40
0.0
 40
0.0
 40
0.0
 40
0.25
 40
0.25
 40
0.25
 40
0.25
 40
0.5
 40
0.5
 40
0.5
 40
0.5
 40
1.0
 40
1.0
 40
1.0
 40
1.0
 10
70.461
 20
-6.3194
 30
0.0
 10
70.461
 20
-6.3194
 30
0.0
 10
70.3784
 20
-6.1763
 30
0.0
 10
70.3784
 20
-6.1763
 30
0.0
 10
70.3784
 20
-6.1763
 30
0.0
 10
70.3784
 20
-6.1763
 30
0.0
 10
70.3784
 20
-5.7134
 30
0.0
 10
70.3784
 20
-5.7134
 30
0.0
 10
70.3784
 20
-5.7134
 30
0.0
 10
70.3784
 20
-5.7134
 30
0.0
 10
70.3784
 20
-4.7879
 30
0.0
 10
70.3784
 20
-4.7879
 30
0.0
  0
SPLINE
  5
A8
330
1F
100
AcDbEntity
  8
Ilustrace
 62
   250
370
    30
100
AcDbSpline
210
0.0
220
0.0
230
1.0
 70
     8
 71
     3
 72
     8
 73
     4
 74
     0
 42
0.0000000001
 43
0.0000000001
 40
0.0
 40
0.0
 40
0.0
 40
0.0
 40
1.0
 40
1.0
 40
1.0
 40
1.0
 10
70.3784
 20
-4.7879
 30
0.0
 10
70.3784
 20
-4.27
 30
0.0
 10
70.3013
 20
-4.4586
 30
0.0
 10
70.461
 20
-4.1819
 30
0.0
  0
SPLINE
  5
A9
330
1F
100
AcDbEntity
  8
Ilustrace
 62
   250
370
    30
100
AcDbSpline
210
0.0
220
0.0
230
1.0
 70
     8
 71
     3
 72
     8
 73
     4
 74
     0
 42
0.0000000001
 43
0.0000000001
 40
0.0
 40
0.0
 40
0.0
 40
0.0
 40
1.0
 40
1.0
 40
1.0
 40
1.0
 10
71.3734
 20
-6.5182
 30
0.0
 10
71.2912
 20
-6.5746
 30
0.0
 10
71.2044
 20
-6.5465
 30
0.0
 10
71.0996
 20
-6.5465
 30
0.0
  0
SPLINE
  5
AA
330
1F
100
AcDbEntity
  8
Ilustrace
 62
   250
370
    30
100
AcDbSpline
210
0.0
220
0.0
230
1.0
 70
    24
 71
     3
 72
     8
 73
     4
 74
     0
 42
0.0000000001
 43
0.0000000001
 40
0.0
 40
0.0
 40
0.0
 40
0.0
 40
1.0
 40
1.0
 40
1.0
 40
1.0
 10
53.7296
 20
-6.3194
 30
0.0
 10
53.7296
 20
-6.3194
 30
0.0
 10
53.5984
 20
-6.5465
 30
0.0
 10
53.5984
 20
-6.5465
 30
0.0
  0
SPLINE
  5
AB
330
1F
100
AcDbEntity
  8
Ilustrace
 62
   250
370
    30
100
AcDbSpline
210
0.0
220
0.0
230
1.0
 70
    24
 71
     3
 72
     8
 73
     4
 74
     0
 42
0.0000000001
 43
0.0000000001
 40
0.0
 40
0.0
 40
0.0
 40
0.0
 40
1.0
 40
1.0
 40
1.0
 40
1.0
 10
53.7296
 20
-6.3194
 30
0.0
 10
53.7296
 20
-6.3194
 30
0.0
 10
54.2368
 20
-6.3194
 30
0.0
 10
54.2368
 20
-6.3194
 30
0.0
  0
SPLINE
  5
AC
330
1F
100
AcDbEntity
  8
Ilustrace
 62
   250
370
    30
100
AcDbSpline
210
0.0
220
0.0
230
1.0
 70
    24
 71
     3
 72
     8
 73
     4
 74
     0
 42
0.0000000001
 43
0.0000000001
 40
0.0
 40
0.0
 40
0.0
 40
0.0
 40
1.0
 40
1.0
 40
1.0
 40
1.0
 10
53.5984
 20
-6.5465
 30
0.0
 10
53.5984
 20
-6.5465
 30
0.0
 10
53.3246
 20
-6.5465
 30
0.0
 10
53.3246
 20
-6.5465
 30
0.0
  0
SPLINE
  5
AD
330
1F
100
AcDbEntity
  8
Ilustrace
 62
   250
370
    30
100
AcDbSpline
210
0.0
220
0.0
230
1.0
 70
    24
 71
     3
 72
     8
 73
     4
 74
     0
 42
0.0000000001
 43
0.0000000001
 40
0.0
 40
0.0
 40
0.0
 40
0.0
 40
1.0
 40
1.0
 40
1.0
 40
1.0
 10
54.2368
 20
-4.1819
 30
0.0
 10
54.2368
 20
-4.1819
 30
0.0
 10
53.7296
 20
-4.1819
 30
0.0
 10
53.7296
 20
-4.1819
 30
0.0
  0
SPLINE
  5
AE
330
1F
100
AcDbEntity
  8
Ilustrace
 62
   250
370
    30
100
AcDbSpline
210
0.0
220
0.0
230
1.0
 70
    24
 71
     3
 72
     8
 73
     4
 74
     0
 42
0.0000000001
 43
0.0000000001
 40
0.0
 40
0.0
 40
0.0
 40
0.0
 40
1.0
 40
1.0
 40
1.0
 40
1.0
 10
53.5984
 20
-3.9548
 30
0.0
 10
53.5984
 20
-3.9548
 30
0.0
 10
53.7296
 20
-4.1819
 30
0.0
 10
53.7296
 20
-4.1819
 30
0.0
  0
SPLINE
  5
AF
330
1F
100
AcDbEntity
  8
Ilustrace
 62
   250
370
    30
100
AcDbSpline
210
0.0
220
0.0
230
1.0
 70
    24
 71
     3
 72
     8
 73
     4
 74
     0
 42
0.0000000001
 43
0.0000000001
 40
0.0
 40
0.0
 40
0.0
 40
0.0
 40
1.0
 40
1.0
 40
1.0
 40
1.0
 10
53.5984
 20
-3.9548
 30
0.0
 10
53.5984
 20
-3.9548
 30
0.0
 10
53.5984
 20
-6.5465
 30
0.0
 10
53.5984
 20
-6.5465
 30
0.0
  0
SPLINE
  5
B0
330
1F
100
AcDbEntity
  8
Ilustrace
 62
   250
370
    30
100
AcDbSpline
210
0.0
220
0.0
230
1.0
 70
    24
 71
     3
 72
     8
 73
     4
 74
     0
 42
0.0000000001
 43
0.0000000001
 40
0.0
 40
0.0
 40
0.0
 40
0.0
 40
1.0
 40
1.0
 40
1.0
 40
1.0
 10
54.2368
 20
-5.7849
 30
0.0
 10
54.2368
 20
-5.7849
 30
0.0
 10
53.7296
 20
-5.7849
 30
0.0
 10
53.7296
 20
-5.7849
 30
0.0
  0
SPLINE
  5
B1
330
1F
100
AcDbEntity
  8
Ilustrace
 62
   250
370
    30
100
AcDbSpline
210
0.0
220
0.0
230
1.0
 70
    24
 71
     3
 72
     8
 73
     4
 74
     0
 42
0.0000000001
 43
0.0000000001
 40
0.0
 40
0.0
 40
0.0
 40
0.0
 40
1.0
 40
1.0
 40
1.0
 40
1.0
 10
53.7296
 20
-4.7162
 30
0.0
 10
53.7296
 20
-4.7162
 30
0.0
 10
54.2368
 20
-4.7162
 30
0.0
 10
54.2368
 20
-4.7162
 30
0.0
  0
SPLINE
  5
B2
330
1F
100
AcDbEntity
  8
Ilustrace
 62
   250
370
    30
100
AcDbSpline
210
0.0
220
0.0
230
1.0
 70
     8
 71
     3
 72
     8
 73
     4
 74
     0
 42
0.0000000001
 43
0.0000000001
 40
0.0
 40
0.0
 40
0.0
 40
0.0
 40
1.0
 40
1.0
 40
1.0
 40
1.0
 10
53.5984
 20
-3.9548
 30
0.0
 10
53.4922
 20
-3.9548
 30
0.0
 10
53.4067
 20
-3.9266
 30
0.0
 10
53.3246
 20
-3.9832
 30
0.0
  0
SPLINE
  5
B3
330
1F
100
AcDbEntity
  8
Ilustrace
 62
   250
370
    30
100
AcDbSpline
210
0.0
220
0.0
230
1.0
 70
     8
 71
     3
 72
    16
 73
    12
 74
     0
 42
0.0000000001
 43
0.0000000001
 40
0.0
 40
0.0
 40
0.0
 40
0.0
 40
0.25
 40
0.25
 40
0.25
 40
0.25
 40
0.5
 40
0.5
 40
0.5
 40
0.5
 40
1.0
 40
1.0
 40
1.0
 40
1.0
 10
54.2368
 20
-4.1819
 30
0.0
 10
54.2368
 20
-4.1819
 30
0.0
 10
54.3195
 20
-4.325
 30
0.0
 10
54.3195
 20
-4.325
 30
0.0
 10
54.3195
 20
-4.325
 30
0.0
 10
54.3195
 20
-4.325
 30
0.0
 10
54.3195
 20
-4.7879
 30
0.0
 10
54.3195
 20
-4.7879
 30
0.0
 10
54.3195
 20
-4.7879
 30
0.0
 10
54.3195
 20
-4.7879
 30
0.0
 10
54.3195
 20
-5.7134
 30
0.0
 10
54.3195
 20
-5.7134
 30
0.0
  0
SPLINE
  5
B4
330
1F
100
AcDbEntity
  8
Ilustrace
 62
   250
370
    30
100
AcDbSpline
210
0.0
220
0.0
230
1.0
 70
     8
 71
     3
 72
     8
 73
     4
 74
     0
 42
0.0000000001
 43
0.0000000001
 40
0.0
 40
0.0
 40
0.0
 40
0.0
 40
1.0
 40
1.0
 40
1.0
 40
1.0
 10
54.3195
 20
-5.7134
 30
0.0
 10
54.3195
 20
-6.2314
 30
0.0
 10
54.3967
 20
-6.0427
 30
0.0
 10
54.2368
 20
-6.3194
 30
0.0
  0
SPLINE
  5
B5
330
1F
100
AcDbEntity
  8
Ilustrace
 62
   250
370
    30
100
AcDbSpline
210
0.0
220
0.0
230
1.0
 70
     8
 71
     3
 72
    12
 73
     8
 74
     0
 42
0.0000000001
 43
0.0000000001
 40
0.0
 40
0.0
 40
0.0
 40
0.0
 40
0.3333333333333333
 40
0.3333333333333333
 40
0.3333333333333333
 40
0.3333333333333333
 40
1.0
 40
1.0
 40
1.0
 40
1.0
 10
54.2368
 20
-4.1819
 30
0.0
 10
54.3005
 20
-4.302
 30
0.0
 10
54.3374
 20
-4.4179
 30
0.0
 10
54.3061
 20
-4.554
 30
0.0
 10
54.3061
 20
-4.554
 30
0.0
 10
54.2976
 20
-4.59
 30
0.0
 10
54.2822
 20
-4.6276
 30
0.0
 10
54.2665
 20
-4.6606
 30
0.0
  0
SPLINE
  5
B6
330
1F
100
AcDbEntity
  8
Ilustrace
 62
   250
370
    30
100
AcDbSpline
210
0.0
220
0.0
230
1.0
 70
     8
 71
     3
 72
    12
 73
     8
 74
     0
 42
0.0000000001
 43
0.0000000001
 40
0.0
 40
0.0
 40
0.0
 40
0.0
 40
0.3333333333333333
 40
0.3333333333333333
 40
0.3333333333333333
 40
0.3333333333333333
 40
1.0
 40
1.0
 40
1.0
 40
1.0
 10
54.2665
 20
-4.6606
 30
0.0
 10
54.2665
 20
-4.6606
 30
0.0
 10
54.2368
 20
-4.7162
 30
0.0
 10
54.2368
 20
-4.7162
 30
0.0
 10
54.2368
 20
-4.7162
 30
0.0
 10
54.2368
 20
-4.7162
 30
0.0
 10
54.2893
 20
-4.9352
 30
0.0
 10
54.2893
 20
-4.9352
 30
0.0
  0
SPLINE
  5
B7
330
1F
100
AcDbEntity
  8
Ilustrace
 62
   250
370
    30
100
AcDbSpline
210
0.0
220
0.0
230
1.0
 70
     8
 71
     3
 72
    12
 73
     8
 74
     0
 42
0.0000000001
 43
0.0000000001
 40
0.0
 40
0.0
 40
0.0
 40
0.0
 40
0.3333333333333333
 40
0.3333333333333333
 40
0.3333333333333333
 40
0.3333333333333333
 40
1.0
 40
1.0
 40
1.0
 40
1.0
 10
54.2893
 20
-4.9352
 30
0.0
 10
54.3087
 20
-5.0392
 30
0.0
 10
54.3195
 20
-5.1447
 30
0.0
 10
54.3195
 20
-5.2506
 30
0.0
 10
54.3195
 20
-5.2506
 30
0.0
 10
54.3195
 20
-5.3565
 30
0.0
 10
54.3087
 20
-5.462
 30
0.0
 10
54.2893
 20
-5.566
 30
0.0
  0
SPLINE
  5
B8
330
1F
100
AcDbEntity
  8
Ilustrace
 62
   250
370
    30
100
AcDbSpline
210
0.0
220
0.0
230
1.0
 70
     8
 71
     3
 72
    12
 73
     8
 74
     0
 42
0.0000000001
 43
0.0000000001
 40
0.0
 40
0.0
 40
0.0
 40
0.0
 40
0.3333333333333333
 40
0.3333333333333333
 40
0.3333333333333333
 40
0.3333333333333333
 40
1.0
 40
1.0
 40
1.0
 40
1.0
 10
54.2893
 20
-5.566
 30
0.0
 10
54.2893
 20
-5.566
 30
0.0
 10
54.2368
 20
-5.7849
 30
0.0
 10
54.2368
 20
-5.7849
 30
0.0
 10
54.2368
 20
-5.7849
 30
0.0
 10
54.2368
 20
-5.7849
 30
0.0
 10
54.2665
 20
-5.8408
 30
0.0
 10
54.2665
 20
-5.8408
 30
0.0
  0
SPLINE
  5
B9
330
1F
100
AcDbEntity
  8
Ilustrace
 62
   250
370
    30
100
AcDbSpline
210
0.0
220
0.0
230
1.0
 70
     8
 71
     3
 72
    12
 73
     8
 74
     0
 42
0.0000000001
 43
0.0000000001
 40
0.0
 40
0.0
 40
0.0
 40
0.0
 40
0.3333333333333333
 40
0.3333333333333333
 40
0.3333333333333333
 40
0.3333333333333333
 40
1.0
 40
1.0
 40
1.0
 40
1.0
 10
54.2665
 20
-5.8408
 30
0.0
 10
54.2822
 20
-5.8736
 30
0.0
 10
54.2976
 20
-5.9112
 30
0.0
 10
54.3061
 20
-5.9472
 30
0.0
 10
54.3061
 20
-5.9472
 30
0.0
 10
54.3374
 20
-6.0833
 30
0.0
 10
54.3005
 20
-6.1991
 30
0.0
 10
54.2368
 20
-6.3194
 30
0.0
  0
SPLINE
  5
BA
330
1F
100
AcDbEntity
  8
Ilustrace
 62
   250
370
    30
100
AcDbSpline
210
0.0
220
0.0
230
1.0
 70
     8
 71
     3
 72
    12
 73
     8
 74
     0
 42
0.0000000001
 43
0.0000000001
 40
0.0
 40
0.0
 40
0.0
 40
0.0
 40
0.3333333333333333
 40
0.3333333333333333
 40
0.3333333333333333
 40
0.3333333333333333
 40
1.0
 40
1.0
 40
1.0
 40
1.0
 10
53.7296
 20
-4.1819
 30
0.0
 10
53.7886
 20
-4.2945
 30
0.0
 10
53.8302
 20
-4.4077
 30
0.0
 10
53.8027
 20
-4.5364
 30
0.0
 10
53.8027
 20
-4.5364
 30
0.0
 10
53.794
 20
-4.5771
 30
0.0
 10
53.7795
 20
-4.6168
 30
0.0
 10
53.7619
 20
-4.6544
 30
0.0
  0
SPLINE
  5
BB
330
1F
100
AcDbEntity
  8
Ilustrace
 62
   250
370
    30
100
AcDbSpline
210
0.0
220
0.0
230
1.0
 70
     8
 71
     3
 72
    12
 73
     8
 74
     0
 42
0.0000000001
 43
0.0000000001
 40
0.0
 40
0.0
 40
0.0
 40
0.0
 40
0.3333333333333333
 40
0.3333333333333333
 40
0.3333333333333333
 40
0.3333333333333333
 40
1.0
 40
1.0
 40
1.0
 40
1.0
 10
53.7619
 20
-4.6544
 30
0.0
 10
53.7619
 20
-4.6544
 30
0.0
 10
53.7296
 20
-4.7162
 30
0.0
 10
53.7296
 20
-4.7162
 30
0.0
 10
53.7296
 20
-4.7162
 30
0.0
 10
53.7296
 20
-4.7162
 30
0.0
 10
53.7862
 20
-4.9589
 30
0.0
 10
53.7862
 20
-4.9589
 30
0.0
  0
SPLINE
  5
BC
330
1F
100
AcDbEntity
  8
Ilustrace
 62
   250
370
    30
100
AcDbSpline
210
0.0
220
0.0
230
1.0
 70
     8
 71
     3
 72
    12
 73
     8
 74
     0
 42
0.0000000001
 43
0.0000000001
 40
0.0
 40
0.0
 40
0.0
 40
0.0
 40
0.3333333333333333
 40
0.3333333333333333
 40
0.3333333333333333
 40
0.3333333333333333
 40
1.0
 40
1.0
 40
1.0
 40
1.0
 10
53.7862
 20
-4.9589
 30
0.0
 10
53.8063
 20
-5.0744
 30
0.0
 10
53.8154
 20
-5.1917
 30
0.0
 10
53.811
 20
-5.3089
 30
0.0
 10
53.811
 20
-5.3089
 30
0.0
 10
53.8069
 20
-5.4277
 30
0.0
 10
53.7889
 20
-5.5456
 30
0.0
 10
53.7619
 20
-5.6613
 30
0.0
  0
SPLINE
  5
BD
330
1F
100
AcDbEntity
  8
Ilustrace
 62
   250
370
    30
100
AcDbSpline
210
0.0
220
0.0
230
1.0
 70
     8
 71
     3
 72
    12
 73
     8
 74
     0
 42
0.0000000001
 43
0.0000000001
 40
0.0
 40
0.0
 40
0.0
 40
0.0
 40
0.3333333333333333
 40
0.3333333333333333
 40
0.3333333333333333
 40
0.3333333333333333
 40
1.0
 40
1.0
 40
1.0
 40
1.0
 10
53.7619
 20
-5.6613
 30
0.0
 10
53.7619
 20
-5.6613
 30
0.0
 10
53.7296
 20
-5.7849
 30
0.0
 10
53.7296
 20
-5.7849
 30
0.0
 10
53.7296
 20
-5.7849
 30
0.0
 10
53.7296
 20
-5.7849
 30
0.0
 10
53.7619
 20
-5.8468
 30
0.0
 10
53.7619
 20
-5.8468
 30
0.0
  0
SPLINE
  5
BE
330
1F
100
AcDbEntity
  8
Ilustrace
 62
   250
370
    30
100
AcDbSpline
210
0.0
220
0.0
230
1.0
 70
     8
 71
     3
 72
    12
 73
     8
 74
     0
 42
0.0000000001
 43
0.0000000001
 40
0.0
 40
0.0
 40
0.0
 40
0.0
 40
0.3333333333333333
 40
0.3333333333333333
 40
0.3333333333333333
 40
0.3333333333333333
 40
1.0
 40
1.0
 40
1.0
 40
1.0
 10
53.7619
 20
-5.8468
 30
0.0
 10
53.7795
 20
-5.8845
 30
0.0
 10
53.794
 20
-5.9241
 30
0.0
 10
53.8027
 20
-5.9649
 30
0.0
 10
53.8027
 20
-5.9649
 30
0.0
 10
53.8302
 20
-6.0935
 30
0.0
 10
53.7886
 20
-6.2068
 30
0.0
 10
53.7296
 20
-6.3194
 30
0.0
  0
SPLINE
  5
BF
330
1F
100
AcDbEntity
  8
Ilustrace
 62
   250
370
    30
100
AcDbSpline
210
0.0
220
0.0
230
1.0
 70
    24
 71
     3
 72
     8
 73
     4
 74
     0
 42
0.0000000001
 43
0.0000000001
 40
0.0
 40
0.0
 40
0.0
 40
0.0
 40
1.0
 40
1.0
 40
1.0
 40
1.0
 10
52.9774
 20
-8.4901
 30
0.0
 10
52.9774
 20
-8.4901
 30
0.0
 10
52.9774
 20
1.1128
 30
0.0
 10
52.9774
 20
1.1128
 30
0.0
  0
SPLINE
  5
C0
330
1F
100
AcDbEntity
  8
Ilustrace
 62
   250
370
    30
100
AcDbSpline
210
0.0
220
0.0
230
1.0
 70
    24
 71
     3
 72
     8
 73
     4
 74
     0
 42
0.0000000001
 43
0.0000000001
 40
0.0
 40
0.0
 40
0.0
 40
0.0
 40
1.0
 40
1.0
 40
1.0
 40
1.0
 10
52.6304
 20
-8.4901
 30
0.0
 10
52.6304
 20
-8.4901
 30
0.0
 10
52.9774
 20
-8.4901
 30
0.0
 10
52.9774
 20
-8.4901
 30
0.0
  0
SPLINE
  5
C1
330
1F
100
AcDbEntity
  8
Ilustrace
 62
   250
370
    30
100
AcDbSpline
210
0.0
220
0.0
230
1.0
 70
    24
 71
     3
 72
     8
 73
     4
 74
     0
 42
0.0000000001
 43
0.0000000001
 40
0.0
 40
0.0
 40
0.0
 40
0.0
 40
1.0
 40
1.0
 40
1.0
 40
1.0
 10
56.9112
 20
0.4185
 30
0.0
 10
56.9112
 20
0.4185
 30
0.0
 10
56.9112
 20
0.7657
 30
0.0
 10
56.9112
 20
0.7657
 30
0.0
  0
SPLINE
  5
C2
330
1F
100
AcDbEntity
  8
Ilustrace
 62
   250
370
    30
100
AcDbSpline
210
0.0
220
0.0
230
1.0
 70
    24
 71
     3
 72
     8
 73
     4
 74
     0
 42
0.0000000001
 43
0.0000000001
 40
0.0
 40
0.0
 40
0.0
 40
0.0
 40
1.0
 40
1.0
 40
1.0
 40
1.0
 10
52.9774
 20
4.815
 30
0.0
 10
52.9774
 20
4.815
 30
0.0
 10
52.9774
 20
1.1128
 30
0.0
 10
52.9774
 20
1.1128
 30
0.0
  0
SPLINE
  5
C3
330
1F
100
AcDbEntity
  8
Ilustrace
 62
   250
370
    30
100
AcDbSpline
210
0.0
220
0.0
230
1.0
 70
    24
 71
     3
 72
    12
 73
     8
 74
     0
 42
0.0000000001
 43
0.0000000001
 40
0.0
 40
0.0
 40
0.0
 40
0.0
 40
0.3333333333333333
 40
0.3333333333333333
 40
0.3333333333333333
 40
0.3333333333333333
 40
1.0
 40
1.0
 40
1.0
 40
1.0
 10
56.9112
 20
0.4185
 30
0.0
 10
56.9112
 20
0.4185
 30
0.0
 10
56.4485
 20
0.4185
 30
0.0
 10
56.4485
 20
0.4185
 30
0.0
 10
56.4485
 20
0.4185
 30
0.0
 10
56.4485
 20
0.4185
 30
0.0
 10
54.1344
 20
0.4185
 30
0.0
 10
54.1344
 20
0.4185
 30
0.0
  0
SPLINE
  5
C4
330
1F
100
AcDbEntity
  8
Ilustrace
 62
   250
370
    30
100
AcDbSpline
210
0.0
220
0.0
230
1.0
 70
     8
 71
     3
 72
    12
 73
     8
 74
     0
 42
0.0000000001
 43
0.0000000001
 40
0.0
 40
0.0
 40
0.0
 40
0.0
 40
0.3333333333333333
 40
0.3333333333333333
 40
0.3333333333333333
 40
0.3333333333333333
 40
1.0
 40
1.0
 40
1.0
 40
1.0
 10
54.1344
 20
0.4185
 30
0.0
 10
53.9864
 20
0.4185
 30
0.0
 10
53.7255
 20
0.3957
 30
0.0
 10
53.5416
 20
0.4308
 30
0.0
 10
53.5416
 20
0.4308
 30
0.0
 10
53.2106
 20
0.494
 30
0.0
 10
52.9879
 20
0.7828
 30
0.0
 10
52.9774
 20
1.1128
 30
0.0
  0
SPLINE
  5
C5
330
1F
100
AcDbEntity
  8
Ilustrace
 62
   250
370
    30
100
AcDbSpline
210
0.0
220
0.0
230
1.0
 70
    24
 71
     3
 72
    12
 73
     8
 74
     0
 42
0.0000000001
 43
0.0000000001
 40
0.0
 40
0.0
 40
0.0
 40
0.0
 40
0.3333333333333333
 40
0.3333333333333333
 40
0.3333333333333333
 40
0.3333333333333333
 40
1.0
 40
1.0
 40
1.0
 40
1.0
 10
56.9112
 20
0.7657
 30
0.0
 10
56.9112
 20
0.7657
 30
0.0
 10
56.4485
 20
0.7657
 30
0.0
 10
56.4485
 20
0.7657
 30
0.0
 10
56.4485
 20
0.7657
 30
0.0
 10
56.4485
 20
0.7657
 30
0.0
 10
54.1344
 20
0.7657
 30
0.0
 10
54.1344
 20
0.7657
 30
0.0
  0
SPLINE
  5
C6
330
1F
100
AcDbEntity
  8
Ilustrace
 62
   250
370
    30
100
AcDbSpline
210
0.0
220
0.0
230
1.0
 70
     8
 71
     3
 72
    12
 73
     8
 74
     0
 42
0.0000000001
 43
0.0000000001
 40
0.0
 40
0.0
 40
0.0
 40
0.0
 40
0.3333333333333333
 40
0.3333333333333333
 40
0.3333333333333333
 40
0.3333333333333333
 40
1.0
 40
1.0
 40
1.0
 40
1.0
 10
54.1344
 20
0.7657
 30
0.0
 10
53.9091
 20
0.7657
 30
0.0
 10
53.534
 20
0.682
 30
0.0
 10
53.3786
 20
0.9267
 30
0.0
 10
53.3786
 20
0.9267
 30
0.0
 10
53.2685
 20
1.1001
 30
0.0
 10
53.3246
 20
1.4342
 30
0.0
 10
53.3246
 20
1.5755
 30
0.0
  0
SPLINE
  5
C7
330
1F
100
AcDbEntity
  8
Ilustrace
 62
   250
370
    30
100
AcDbSpline
210
0.0
220
0.0
230
1.0
 70
    24
 71
     3
 72
     8
 73
     4
 74
     0
 42
0.0000000001
 43
0.0000000001
 40
0.0
 40
0.0
 40
0.0
 40
0.0
 40
1.0
 40
1.0
 40
1.0
 40
1.0
 10
53.3246
 20
1.5755
 30
0.0
 10
53.3246
 20
1.5755
 30
0.0
 10
53.3246
 20
4.3523
 30
0.0
 10
53.3246
 20
4.3523
 30
0.0
  0
SPLINE
  5
C8
330
1F
100
AcDbEntity
  8
Ilustrace
 62
   250
370
    30
100
AcDbSpline
210
0.0
220
0.0
230
1.0
 70
     8
 71
     3
 72
    20
 73
    16
 74
     0
 42
0.0000000001
 43
0.0000000001
 40
0.0
 40
0.0
 40
0.0
 40
0.0
 40
0.2
 40
0.2
 40
0.2
 40
0.2
 40
0.4
 40
0.4
 40
0.4
 40
0.4
 40
0.6
 40
0.6
 40
0.6
 40
0.6
 40
1.0
 40
1.0
 40
1.0
 40
1.0
 10
53.3246
 20
4.3523
 30
0.0
 10
53.3246
 20
4.6012
 30
0.0
 10
53.4147
 20
5.0268
 30
0.0
 10
53.0947
 20
5.1418
 30
0.0
 10
53.0947
 20
5.1418
 30
0.0
 10
53.0523
 20
5.1571
 30
0.0
 10
53.0092
 20
5.162
 30
0.0
 10
52.9641
 20
5.162
 30
0.0
 10
52.9641
 20
5.162
 30
0.0
 10
52.9194
 20
5.1584
 30
0.0
 10
52.8768
 20
5.1504
 30
0.0
 10
52.8355
 20
5.1317
 30
0.0
 10
52.8355
 20
5.1317
 30
0.0
 10
52.5418
 20
5.0001
 30
0.0
 10
52.6304
 20
4.5942
 30
0.0
 10
52.6304
 20
4.3523
 30
0.0
  0
SPLINE
  5
C9
330
1F
100
AcDbEntity
  8
Ilustrace
 62
   250
370
    30
100
AcDbSpline
210
0.0
220
0.0
230
1.0
 70
    24
 71
     3
 72
    12
 73
     8
 74
     0
 42
0.0000000001
 43
0.0000000001
 40
0.0
 40
0.0
 40
0.0
 40
0.0
 40
0.3333333333333333
 40
0.3333333333333333
 40
0.3333333333333333
 40
0.3333333333333333
 40
1.0
 40
1.0
 40
1.0
 40
1.0
 10
52.6304
 20
4.3523
 30
0.0
 10
52.6304
 20
4.3523
 30
0.0
 10
52.6304
 20
-8.0274
 30
0.0
 10
52.6304
 20
-8.0274
 30
0.0
 10
52.6304
 20
-8.0274
 30
0.0
 10
52.6304
 20
-8.0274
 30
0.0
 10
52.6304
 20
-8.4901
 30
0.0
 10
52.6304
 20
-8.4901
 30
0.0
  0
SPLINE
  5
CA
330
1F
100
AcDbEntity
  8
Ilustrace
 62
   250
370
    30
100
AcDbSpline
210
0.0
220
0.0
230
1.0
 70
    24
 71
     3
 72
     8
 73
     4
 74
     0
 42
0.0000000001
 43
0.0000000001
 40
0.0
 40
0.0
 40
0.0
 40
0.0
 40
1.0
 40
1.0
 40
1.0
 40
1.0
 10
67.7868
 20
0.4185
 30
0.0
 10
67.7868
 20
0.4185
 30
0.0
 10
67.7868
 20
0.7657
 30
0.0
 10
67.7868
 20
0.7657
 30
0.0
  0
SPLINE
  5
CB
330
1F
100
AcDbEntity
  8
Ilustrace
 62
   250
370
    30
100
AcDbSpline
210
0.0
220
0.0
230
1.0
 70
    24
 71
     3
 72
     8
 73
     4
 74
     0
 42
0.0000000001
 43
0.0000000001
 40
0.0
 40
0.0
 40
0.0
 40
0.0
 40
1.0
 40
1.0
 40
1.0
 40
1.0
 10
71.7204
 20
-8.4901
 30
0.0
 10
71.7204
 20
-8.4901
 30
0.0
 10
71.7204
 20
1.1128
 30
0.0
 10
71.7204
 20
1.1128
 30
0.0
  0
SPLINE
  5
CC
330
1F
100
AcDbEntity
  8
Ilustrace
 62
   250
370
    30
100
AcDbSpline
210
0.0
220
0.0
230
1.0
 70
    24
 71
     3
 72
     8
 73
     4
 74
     0
 42
0.0000000001
 43
0.0000000001
 40
0.0
 40
0.0
 40
0.0
 40
0.0
 40
1.0
 40
1.0
 40
1.0
 40
1.0
 10
72.0676
 20
-8.4901
 30
0.0
 10
72.0676
 20
-8.4901
 30
0.0
 10
71.7204
 20
-8.4901
 30
0.0
 10
71.7204
 20
-8.4901
 30
0.0
  0
SPLINE
  5
CD
330
1F
100
AcDbEntity
  8
Ilustrace
 62
   250
370
    30
100
AcDbSpline
210
0.0
220
0.0
230
1.0
 70
    24
 71
     3
 72
     8
 73
     4
 74
     0
 42
0.0000000001
 43
0.0000000001
 40
0.0
 40
0.0
 40
0.0
 40
0.0
 40
1.0
 40
1.0
 40
1.0
 40
1.0
 10
71.7204
 20
1.1128
 30
0.0
 10
71.7204
 20
1.1128
 30
0.0
 10
71.7204
 20
4.815
 30
0.0
 10
71.7204
 20
4.815
 30
0.0
  0
SPLINE
  5
CE
330
1F
100
AcDbEntity
  8
Ilustrace
 62
   250
370
    30
100
AcDbSpline
210
0.0
220
0.0
230
1.0
 70
    24
 71
     3
 72
    12
 73
     8
 74
     0
 42
0.0000000001
 43
0.0000000001
 40
0.0
 40
0.0
 40
0.0
 40
0.0
 40
0.3333333333333333
 40
0.3333333333333333
 40
0.3333333333333333
 40
0.3333333333333333
 40
1.0
 40
1.0
 40
1.0
 40
1.0
 10
72.0676
 20
-8.4901
 30
0.0
 10
72.0676
 20
-8.4901
 30
0.0
 10
72.0676
 20
-8.0274
 30
0.0
 10
72.0676
 20
-8.0274
 30
0.0
 10
72.0676
 20
-8.0274
 30
0.0
 10
72.0676
 20
-8.0274
 30
0.0
 10
72.0676
 20
4.3523
 30
0.0
 10
72.0676
 20
4.3523
 30
0.0
  0
SPLINE
  5
CF
330
1F
100
AcDbEntity
  8
Ilustrace
 62
   250
370
    30
100
AcDbSpline
210
0.0
220
0.0
230
1.0
 70
     8
 71
     3
 72
    16
 73
    12
 74
     0
 42
0.0000000001
 43
0.0000000001
 40
0.0
 40
0.0
 40
0.0
 40
0.0
 40
0.25
 40
0.25
 40
0.25
 40
0.25
 40
0.5
 40
0.5
 40
0.5
 40
0.5
 40
1.0
 40
1.0
 40
1.0
 40
1.0
 10
72.0676
 20
4.3523
 30
0.0
 10
72.0676
 20
4.6012
 30
0.0
 10
72.1578
 20
5.0268
 30
0.0
 10
71.8378
 20
5.1418
 30
0.0
 10
71.8378
 20
5.1418
 30
0.0
 10
71.7952
 20
5.1571
 30
0.0
 10
71.7522
 20
5.162
 30
0.0
 10
71.7072
 20
5.162
 30
0.0
 10
71.7072
 20
5.162
 30
0.0
 10
71.5234
 20
5.1478
 30
0.0
 10
71.3739
 20
5.0044
 30
0.0
 10
71.3734
 20
4.815
 30
0.0
  0
SPLINE
  5
D0
330
1F
100
AcDbEntity
  8
Ilustrace
 62
   250
370
    30
100
AcDbSpline
210
0.0
220
0.0
230
1.0
 70
    24
 71
     3
 72
    12
 73
     8
 74
     0
 42
0.0000000001
 43
0.0000000001
 40
0.0
 40
0.0
 40
0.0
 40
0.0
 40
0.3333333333333333
 40
0.3333333333333333
 40
0.3333333333333333
 40
0.3333333333333333
 40
1.0
 40
1.0
 40
1.0
 40
1.0
 10
71.3734
 20
4.815
 30
0.0
 10
71.3734
 20
4.815
 30
0.0
 10
71.3734
 20
4.3523
 30
0.0
 10
71.3734
 20
4.3523
 30
0.0
 10
71.3734
 20
4.3523
 30
0.0
 10
71.3734
 20
4.3523
 30
0.0
 10
71.3734
 20
1.5755
 30
0.0
 10
71.3734
 20
1.5755
 30
0.0
  0
SPLINE
  5
D1
330
1F
100
AcDbEntity
  8
Ilustrace
 62
   250
370
    30
100
AcDbSpline
210
0.0
220
0.0
230
1.0
 70
     8
 71
     3
 72
    12
 73
     8
 74
     0
 42
0.0000000001
 43
0.0000000001
 40
0.0
 40
0.0
 40
0.0
 40
0.0
 40
0.3333333333333333
 40
0.3333333333333333
 40
0.3333333333333333
 40
0.3333333333333333
 40
1.0
 40
1.0
 40
1.0
 40
1.0
 10
71.3734
 20
1.5755
 30
0.0
 10
71.3734
 20
1.3292
 30
0.0
 10
71.4632
 20
0.9123
 30
0.0
 10
71.1541
 20
0.79
 30
0.0
 10
71.1541
 20
0.79
 30
0.0
 10
71.1129
 20
0.7736
 30
0.0
 10
71.0703
 20
0.767
 30
0.0
 10
71.0263
 20
0.7657
 30
0.0
  0
SPLINE
  5
D2
330
1F
100
AcDbEntity
  8
Ilustrace
 62
   250
370
    30
100
AcDbSpline
210
0.0
220
0.0
230
1.0
 70
    24
 71
     3
 72
     8
 73
     4
 74
     0
 42
0.0000000001
 43
0.0000000001
 40
0.0
 40
0.0
 40
0.0
 40
0.0
 40
1.0
 40
1.0
 40
1.0
 40
1.0
 10
71.0263
 20
0.7657
 30
0.0
 10
71.0263
 20
0.7657
 30
0.0
 10
67.7868
 20
0.7657
 30
0.0
 10
67.7868
 20
0.7657
 30
0.0
  0
SPLINE
  5
D3
330
1F
100
AcDbEntity
  8
Ilustrace
 62
   250
370
    30
100
AcDbSpline
210
0.0
220
0.0
230
1.0
 70
    24
 71
     3
 72
    12
 73
     8
 74
     0
 42
0.0000000001
 43
0.0000000001
 40
0.0
 40
0.0
 40
0.0
 40
0.0
 40
0.3333333333333333
 40
0.3333333333333333
 40
0.3333333333333333
 40
0.3333333333333333
 40
1.0
 40
1.0
 40
1.0
 40
1.0
 10
67.7868
 20
0.4185
 30
0.0
 10
67.7868
 20
0.4185
 30
0.0
 10
68.2496
 20
0.4185
 30
0.0
 10
68.2496
 20
0.4185
 30
0.0
 10
68.2496
 20
0.4185
 30
0.0
 10
68.2496
 20
0.4185
 30
0.0
 10
70.5635
 20
0.4185
 30
0.0
 10
70.5635
 20
0.4185
 30
0.0
  0
SPLINE
  5
D4
330
1F
100
AcDbEntity
  8
Ilustrace
 62
   250
370
    30
100
AcDbSpline
210
0.0
220
0.0
230
1.0
 70
     8
 71
     3
 72
    12
 73
     8
 74
     0
 42
0.0000000001
 43
0.0000000001
 40
0.0
 40
0.0
 40
0.0
 40
0.0
 40
0.3333333333333333
 40
0.3333333333333333
 40
0.3333333333333333
 40
0.3333333333333333
 40
1.0
 40
1.0
 40
1.0
 40
1.0
 10
70.5635
 20
0.4185
 30
0.0
 10
70.7116
 20
0.4185
 30
0.0
 10
70.9725
 20
0.3957
 30
0.0
 10
71.1565
 20
0.4308
 30
0.0
 10
71.1565
 20
0.4308
 30
0.0
 10
71.4873
 20
0.494
 30
0.0
 10
71.7102
 20
0.7828
 30
0.0
 10
71.7204
 20
1.1128
 30
0.0
  0
SPLINE
  5
D5
330
1F
100
AcDbEntity
  8
Ilustrace
 62
   250
370
    30
100
AcDbSpline
210
0.0
220
0.0
230
1.0
 70
    24
 71
     3
 72
     8
 73
     4
 74
     0
 42
0.0000000001
 43
0.0000000001
 40
0.0
 40
0.0
 40
0.0
 40
0.0
 40
1.0
 40
1.0
 40
1.0
 40
1.0
 10
55.9856
 20
-0.8079
 30
0.0
 10
55.9856
 20
-0.8079
 30
0.0
 10
54.7998
 20
-0.8079
 30
0.0
 10
54.7998
 20
-0.8079
 30
0.0
  0
SPLINE
  5
D6
330
1F
100
AcDbEntity
  8
Ilustrace
 62
   250
370
    30
100
AcDbSpline
210
0.0
220
0.0
230
1.0
 70
    24
 71
     3
 72
     8
 73
     4
 74
     0
 42
0.0000000001
 43
0.0000000001
 40
0.0
 40
0.0
 40
0.0
 40
0.0
 40
1.0
 40
1.0
 40
1.0
 40
1.0
 10
54.9154
 20
-0.2756
 30
0.0
 10
54.9154
 20
-0.2756
 30
0.0
 10
55.8989
 20
-0.2756
 30
0.0
 10
55.8989
 20
-0.2756
 30
0.0
  0
SPLINE
  5
D7
330
1F
100
AcDbEntity
  8
Ilustrace
 62
   250
370
    30
100
AcDbSpline
210
0.0
220
0.0
230
1.0
 70
     8
 71
     3
 72
    12
 73
     8
 74
     0
 42
0.0000000001
 43
0.0000000001
 40
0.0
 40
0.0
 40
0.0
 40
0.0
 40
0.3333333333333333
 40
0.3333333333333333
 40
0.3333333333333333
 40
0.3333333333333333
 40
1.0
 40
1.0
 40
1.0
 40
1.0
 10
55.8456
 20
-0.8079
 30
0.0
 10
55.7845
 20
-1.0011
 30
0.0
 10
55.603
 20
-1.1152
 30
0.0
 10
55.4072
 20
-1.1238
 30
0.0
 10
55.4072
 20
-1.1238
 30
0.0
 10
55.2111
 20
-1.1152
 30
0.0
 10
55.0299
 20
-1.0011
 30
0.0
 10
54.9687
 20
-0.8079
 30
0.0
  0
SPLINE
  5
D8
330
1F
100
AcDbEntity
  8
Ilustrace
 62
   250
370
    30
100
AcDbSpline
210
0.0
220
0.0
230
1.0
 70
     8
 71
     3
 72
     8
 73
     4
 74
     0
 42
0.0000000001
 43
0.0000000001
 40
0.0
 40
0.0
 40
0.0
 40
0.0
 40
1.0
 40
1.0
 40
1.0
 40
1.0
 10
55.9856
 20
-0.4264
 30
0.0
 10
55.9704
 20
-0.3882
 30
0.0
 10
55.9514
 20
-0.3517
 30
0.0
 10
55.9288
 20
-0.3172
 30
0.0
  0
SPLINE
  5
D9
330
1F
100
AcDbEntity
  8
Ilustrace
 62
   250
370
    30
100
AcDbSpline
210
0.0
220
0.0
230
1.0
 70
     8
 71
     3
 72
    12
 73
     8
 74
     0
 42
0.0000000001
 43
0.0000000001
 40
0.0
 40
0.0
 40
0.0
 40
0.0
 40
0.3333333333333333
 40
0.3333333333333333
 40
0.3333333333333333
 40
0.3333333333333333
 40
1.0
 40
1.0
 40
1.0
 40
1.0
 10
55.9288
 20
-0.3172
 30
0.0
 10
55.9288
 20
-0.3172
 30
0.0
 10
55.8989
 20
-0.2756
 30
0.0
 10
55.8989
 20
-0.2756
 30
0.0
 10
55.8989
 20
-0.2756
 30
0.0
 10
55.8989
 20
-0.2756
 30
0.0
 10
55.8989
 20
0.0715
 30
0.0
 10
55.8989
 20
0.0715
 30
0.0
  0
SPLINE
  5
DA
330
1F
100
AcDbEntity
  8
Ilustrace
 62
   250
370
    30
100
AcDbSpline
210
0.0
220
0.0
230
1.0
 70
     8
 71
     3
 72
    16
 73
    12
 74
     0
 42
0.0000000001
 43
0.0000000001
 40
0.0
 40
0.0
 40
0.0
 40
0.0
 40
0.25
 40
0.25
 40
0.25
 40
0.25
 40
0.5
 40
0.5
 40
0.5
 40
0.5
 40
1.0
 40
1.0
 40
1.0
 40
1.0
 10
54.5683
 20
0.7657
 30
0.0
 10
54.6102
 20
0.819
 30
0.0
 10
54.6523
 20
0.8686
 30
0.0
 10
54.705
 20
0.9121
 30
0.0
 10
54.705
 20
0.9121
 30
0.0
 10
54.9692
 20
1.1303
 30
0.0
 10
55.2908
 20
1.0915
 30
0.0
 10
55.6153
 20
1.0895
 30
0.0
 10
55.6153
 20
1.0895
 30
0.0
 10
55.8719
 20
1.0881
 30
0.0
 10
56.0901
 20
0.9645
 30
0.0
 10
56.2459
 20
0.7657
 30
0.0
  0
SPLINE
  5
DB
330
1F
100
AcDbEntity
  8
Ilustrace
 62
   250
370
    30
100
AcDbSpline
210
0.0
220
0.0
230
1.0
 70
     8
 71
     3
 72
    12
 73
     8
 74
     0
 42
0.0000000001
 43
0.0000000001
 40
0.0
 40
0.0
 40
0.0
 40
0.0
 40
0.3333333333333333
 40
0.3333333333333333
 40
0.3333333333333333
 40
0.3333333333333333
 40
1.0
 40
1.0
 40
1.0
 40
1.0
 10
54.9154
 20
0.0715
 30
0.0
 10
54.9154
 20
0.0715
 30
0.0
 10
54.9154
 20
-0.2756
 30
0.0
 10
54.9154
 20
-0.2756
 30
0.0
 10
54.9154
 20
-0.2756
 30
0.0
 10
54.9154
 20
-0.2756
 30
0.0
 10
54.8855
 20
-0.3172
 30
0.0
 10
54.8855
 20
-0.3172
 30
0.0
  0
SPLINE
  5
DC
330
1F
100
AcDbEntity
  8
Ilustrace
 62
   250
370
    30
100
AcDbSpline
210
0.0
220
0.0
230
1.0
 70
     8
 71
     3
 72
    12
 73
     8
 74
     0
 42
0.0000000001
 43
0.0000000001
 40
0.0
 40
0.0
 40
0.0
 40
0.0
 40
0.3333333333333333
 40
0.3333333333333333
 40
0.3333333333333333
 40
0.3333333333333333
 40
1.0
 40
1.0
 40
1.0
 40
1.0
 10
54.8855
 20
-0.3172
 30
0.0
 10
54.8573
 20
-0.36
 30
0.0
 10
54.8345
 20
-0.4062
 30
0.0
 10
54.8175
 20
-0.4546
 30
0.0
 10
54.8175
 20
-0.4546
 30
0.0
 10
54.7767
 20
-0.5708
 30
0.0
 10
54.7762
 20
-0.6884
 30
0.0
 10
54.7998
 20
-0.8079
 30
0.0
  0
SPLINE
  5
DD
330
1F
100
AcDbEntity
  8
Ilustrace
 62
   250
370
    30
100
AcDbSpline
210
0.0
220
0.0
230
1.0
 70
    24
 71
     3
 72
     8
 73
     4
 74
     0
 42
0.0000000001
 43
0.0000000001
 40
0.0
 40
0.0
 40
0.0
 40
0.0
 40
1.0
 40
1.0
 40
1.0
 40
1.0
 10
69.8982
 20
-0.8079
 30
0.0
 10
69.8982
 20
-0.8079
 30
0.0
 10
68.7124
 20
-0.8079
 30
0.0
 10
68.7124
 20
-0.8079
 30
0.0
  0
SPLINE
  5
DE
330
1F
100
AcDbEntity
  8
Ilustrace
 62
   250
370
    30
100
AcDbSpline
210
0.0
220
0.0
230
1.0
 70
    24
 71
     3
 72
     8
 73
     4
 74
     0
 42
0.0000000001
 43
0.0000000001
 40
0.0
 40
0.0
 40
0.0
 40
0.0
 40
1.0
 40
1.0
 40
1.0
 40
1.0
 10
68.7991
 20
-0.2756
 30
0.0
 10
68.7991
 20
-0.2756
 30
0.0
 10
69.7826
 20
-0.2756
 30
0.0
 10
69.7826
 20
-0.2756
 30
0.0
  0
SPLINE
  5
DF
330
1F
100
AcDbEntity
  8
Ilustrace
 62
   250
370
    30
100
AcDbSpline
210
0.0
220
0.0
230
1.0
 70
     8
 71
     3
 72
    12
 73
     8
 74
     0
 42
0.0000000001
 43
0.0000000001
 40
0.0
 40
0.0
 40
0.0
 40
0.0
 40
0.3333333333333333
 40
0.3333333333333333
 40
0.3333333333333333
 40
0.3333333333333333
 40
1.0
 40
1.0
 40
1.0
 40
1.0
 10
69.7293
 20
-0.8079
 30
0.0
 10
69.6681
 20
-1.0011
 30
0.0
 10
69.4868
 20
-1.1152
 30
0.0
 10
69.2909
 20
-1.1238
 30
0.0
 10
69.2909
 20
-1.1238
 30
0.0
 10
69.0949
 20
-1.1152
 30
0.0
 10
68.9136
 20
-1.0011
 30
0.0
 10
68.8523
 20
-0.8079
 30
0.0
  0
SPLINE
  5
E0
330
1F
100
AcDbEntity
  8
Ilustrace
 62
   250
370
    30
100
AcDbSpline
210
0.0
220
0.0
230
1.0
 70
     8
 71
     3
 72
    12
 73
     8
 74
     0
 42
0.0000000001
 43
0.0000000001
 40
0.0
 40
0.0
 40
0.0
 40
0.0
 40
0.3333333333333333
 40
0.3333333333333333
 40
0.3333333333333333
 40
0.3333333333333333
 40
1.0
 40
1.0
 40
1.0
 40
1.0
 10
69.8982
 20
-0.8079
 30
0.0
 10
69.9219
 20
-0.6884
 30
0.0
 10
69.9212
 20
-0.5707
 30
0.0
 10
69.8806
 20
-0.4546
 30
0.0
 10
69.8806
 20
-0.4546
 30
0.0
 10
69.8635
 20
-0.4062
 30
0.0
 10
69.8407
 20
-0.36
 30
0.0
 10
69.8125
 20
-0.3172
 30
0.0
  0
SPLINE
  5
E1
330
1F
100
AcDbEntity
  8
Ilustrace
 62
   250
370
    30
100
AcDbSpline
210
0.0
220
0.0
230
1.0
 70
     8
 71
     3
 72
    12
 73
     8
 74
     0
 42
0.0000000001
 43
0.0000000001
 40
0.0
 40
0.0
 40
0.0
 40
0.0
 40
0.3333333333333333
 40
0.3333333333333333
 40
0.3333333333333333
 40
0.3333333333333333
 40
1.0
 40
1.0
 40
1.0
 40
1.0
 10
69.8125
 20
-0.3172
 30
0.0
 10
69.8125
 20
-0.3172
 30
0.0
 10
69.7826
 20
-0.2756
 30
0.0
 10
69.7826
 20
-0.2756
 30
0.0
 10
69.7826
 20
-0.2756
 30
0.0
 10
69.7826
 20
-0.2756
 30
0.0
 10
69.7826
 20
0.0715
 30
0.0
 10
69.7826
 20
0.0715
 30
0.0
  0
SPLINE
  5
E2
330
1F
100
AcDbEntity
  8
Ilustrace
 62
   250
370
    30
100
AcDbSpline
210
0.0
220
0.0
230
1.0
 70
     8
 71
     3
 72
    16
 73
    12
 74
     0
 42
0.0000000001
 43
0.0000000001
 40
0.0
 40
0.0
 40
0.0
 40
0.0
 40
0.25
 40
0.25
 40
0.25
 40
0.25
 40
0.5
 40
0.5
 40
0.5
 40
0.5
 40
1.0
 40
1.0
 40
1.0
 40
1.0
 10
68.452
 20
0.7657
 30
0.0
 10
68.494
 20
0.819
 30
0.0
 10
68.536
 20
0.8686
 30
0.0
 10
68.5888
 20
0.9121
 30
0.0
 10
68.5888
 20
0.9121
 30
0.0
 10
68.8529
 20
1.1303
 30
0.0
 10
69.1745
 20
1.0915
 30
0.0
 10
69.4991
 20
1.0895
 30
0.0
 10
69.4991
 20
1.0895
 30
0.0
 10
69.7556
 20
1.0881
 30
0.0
 10
69.974
 20
0.9645
 30
0.0
 10
70.1296
 20
0.7657
 30
0.0
  0
SPLINE
  5
E3
330
1F
100
AcDbEntity
  8
Ilustrace
 62
   250
370
    30
100
AcDbSpline
210
0.0
220
0.0
230
1.0
 70
     8
 71
     3
 72
    12
 73
     8
 74
     0
 42
0.0000000001
 43
0.0000000001
 40
0.0
 40
0.0
 40
0.0
 40
0.0
 40
0.3333333333333333
 40
0.3333333333333333
 40
0.3333333333333333
 40
0.3333333333333333
 40
1.0
 40
1.0
 40
1.0
 40
1.0
 10
68.7991
 20
0.0715
 30
0.0
 10
68.7991
 20
0.0715
 30
0.0
 10
68.7991
 20
-0.2756
 30
0.0
 10
68.7991
 20
-0.2756
 30
0.0
 10
68.7991
 20
-0.2756
 30
0.0
 10
68.7991
 20
-0.2756
 30
0.0
 10
68.7692
 20
-0.3172
 30
0.0
 10
68.7692
 20
-0.3172
 30
0.0
  0
SPLINE
  5
E4
330
1F
100
AcDbEntity
  8
Ilustrace
 62
   250
370
    30
100
AcDbSpline
210
0.0
220
0.0
230
1.0
 70
     8
 71
     3
 72
     8
 73
     4
 74
     0
 42
0.0000000001
 43
0.0000000001
 40
0.0
 40
0.0
 40
0.0
 40
0.0
 40
1.0
 40
1.0
 40
1.0
 40
1.0
 10
68.7692
 20
-0.3172
 30
0.0
 10
68.7465
 20
-0.3517
 30
0.0
 10
68.7275
 20
-0.3882
 30
0.0
 10
68.7124
 20
-0.4264
 30
0.0
  0
SPLINE
  5
E5
330
1F
100
AcDbEntity
  8
Ilustrace
 62
   250
370
    30
100
AcDbSpline
210
0.0
220
0.0
230
1.0
 70
    24
 71
     3
 72
     8
 73
     4
 74
     0
 42
0.0000000001
 43
0.0000000001
 40
0.0
 40
0.0
 40
0.0
 40
0.0
 40
1.0
 40
1.0
 40
1.0
 40
1.0
 10
53.6717
 20
0.0715
 30
0.0
 10
53.6717
 20
0.0715
 30
0.0
 10
53.6717
 20
0.4185
 30
0.0
 10
53.6717
 20
0.4185
 30
0.0
  0
SPLINE
  5
E6
330
1F
100
AcDbEntity
  8
Ilustrace
 62
   250
370
    30
100
AcDbSpline
210
0.0
220
0.0
230
1.0
 70
    24
 71
     3
 72
     8
 73
     4
 74
     0
 42
0.0000000001
 43
0.0000000001
 40
0.0
 40
0.0
 40
0.0
 40
0.0
 40
1.0
 40
1.0
 40
1.0
 40
1.0
 10
53.6717
 20
0.0715
 30
0.0
 10
53.6717
 20
0.0715
 30
0.0
 10
55.9856
 20
0.0715
 30
0.0
 10
55.9856
 20
0.0715
 30
0.0
  0
SPLINE
  5
E7
330
1F
100
AcDbEntity
  8
Ilustrace
 62
   250
370
    30
100
AcDbSpline
210
0.0
220
0.0
230
1.0
 70
    24
 71
     3
 72
     8
 73
     4
 74
     0
 42
0.0000000001
 43
0.0000000001
 40
0.0
 40
0.0
 40
0.0
 40
0.0
 40
1.0
 40
1.0
 40
1.0
 40
1.0
 10
56.9112
 20
0.4185
 30
0.0
 10
56.9112
 20
0.4185
 30
0.0
 10
67.7868
 20
0.4185
 30
0.0
 10
67.7868
 20
0.4185
 30
0.0
  0
SPLINE
  5
E8
330
1F
100
AcDbEntity
  8
Ilustrace
 62
   250
370
    30
100
AcDbSpline
210
0.0
220
0.0
230
1.0
 70
    24
 71
     3
 72
     8
 73
     4
 74
     0
 42
0.0000000001
 43
0.0000000001
 40
0.0
 40
0.0
 40
0.0
 40
0.0
 40
1.0
 40
1.0
 40
1.0
 40
1.0
 10
68.7124
 20
0.0715
 30
0.0
 10
68.7124
 20
0.0715
 30
0.0
 10
71.0263
 20
0.0715
 30
0.0
 10
71.0263
 20
0.0715
 30
0.0
  0
SPLINE
  5
E9
330
1F
100
AcDbEntity
  8
Ilustrace
 62
   250
370
    30
100
AcDbSpline
210
0.0
220
0.0
230
1.0
 70
    24
 71
     3
 72
     8
 73
     4
 74
     0
 42
0.0000000001
 43
0.0000000001
 40
0.0
 40
0.0
 40
0.0
 40
0.0
 40
1.0
 40
1.0
 40
1.0
 40
1.0
 10
71.0263
 20
0.4185
 30
0.0
 10
71.0263
 20
0.4185
 30
0.0
 10
71.0263
 20
0.0715
 30
0.0
 10
71.0263
 20
0.0715
 30
0.0
  0
SPLINE
  5
EA
330
1F
100
AcDbEntity
  8
Ilustrace
 62
   250
370
    30
100
AcDbSpline
210
0.0
220
0.0
230
1.0
 70
    24
 71
     3
 72
     8
 73
     4
 74
     0
 42
0.0000000001
 43
0.0000000001
 40
0.0
 40
0.0
 40
0.0
 40
0.0
 40
1.0
 40
1.0
 40
1.0
 40
1.0
 10
68.7124
 20
-0.2756
 30
0.0
 10
68.7124
 20
-0.2756
 30
0.0
 10
55.9856
 20
-0.2756
 30
0.0
 10
55.9856
 20
-0.2756
 30
0.0
  0
SPLINE
  5
EB
330
1F
100
AcDbEntity
  8
Ilustrace
 62
   250
370
    30
100
AcDbSpline
210
0.0
220
0.0
230
1.0
 70
    24
 71
     3
 72
    12
 73
     8
 74
     0
 42
0.0000000001
 43
0.0000000001
 40
0.0
 40
0.0
 40
0.0
 40
0.0
 40
0.3333333333333333
 40
0.3333333333333333
 40
0.3333333333333333
 40
0.3333333333333333
 40
1.0
 40
1.0
 40
1.0
 40
1.0
 10
68.7124
 20
0.4185
 30
0.0
 10
68.7124
 20
0.4185
 30
0.0
 10
68.7124
 20
-0.0442
 30
0.0
 10
68.7124
 20
-0.0442
 30
0.0
 10
68.7124
 20
-0.0442
 30
0.0
 10
68.7124
 20
-0.0442
 30
0.0
 10
68.7124
 20
-1.2012
 30
0.0
 10
68.7124
 20
-1.2012
 30
0.0
  0
SPLINE
  5
EC
330
1F
100
AcDbEntity
  8
Ilustrace
 62
   250
370
    30
100
AcDbSpline
210
0.0
220
0.0
230
1.0
 70
     8
 71
     3
 72
    20
 73
    16
 74
     0
 42
0.0000000001
 43
0.0000000001
 40
0.0
 40
0.0
 40
0.0
 40
0.0
 40
0.2
 40
0.2
 40
0.2
 40
0.2
 40
0.4
 40
0.4
 40
0.4
 40
0.4
 40
0.6
 40
0.6
 40
0.6
 40
0.6
 40
1.0
 40
1.0
 40
1.0
 40
1.0
 10
68.7124
 20
-1.2012
 30
0.0
 10
68.7124
 20
-1.5228
 30
0.0
 10
68.7674
 20
-1.8653
 30
0.0
 10
68.5378
 20
-2.1243
 30
0.0
 10
68.5378
 20
-2.1243
 30
0.0
 10
68.5007
 20
-2.1662
 30
0.0
 10
68.4585
 20
-2.2035
 30
0.0
 10
68.4126
 20
-2.2354
 30
0.0
 10
68.4126
 20
-2.2354
 30
0.0
 10
68.3665
 20
-2.2671
 30
0.0
 10
68.3167
 20
-2.2933
 30
0.0
 10
68.2643
 20
-2.3131
 30
0.0
 10
68.2643
 20
-2.3131
 30
0.0
 10
68.1832
 20
-2.3439
 30
0.0
 10
68.1039
 20
-2.353
 30
0.0
 10
68.0182
 20
-2.3582
 30
0.0
  0
SPLINE
  5
ED
330
1F
100
AcDbEntity
  8
Ilustrace
 62
   250
370
    30
100
AcDbSpline
210
0.0
220
0.0
230
1.0
 70
    24
 71
     3
 72
    12
 73
     8
 74
     0
 42
0.0000000001
 43
0.0000000001
 40
0.0
 40
0.0
 40
0.0
 40
0.0
 40
0.3333333333333333
 40
0.3333333333333333
 40
0.3333333333333333
 40
0.3333333333333333
 40
1.0
 40
1.0
 40
1.0
 40
1.0
 10
68.0182
 20
-2.3582
 30
0.0
 10
68.0182
 20
-2.3582
 30
0.0
 10
67.5555
 20
-2.3582
 30
0.0
 10
67.5555
 20
-2.3582
 30
0.0
 10
67.5555
 20
-2.3582
 30
0.0
 10
67.5555
 20
-2.3582
 30
0.0
 10
57.1427
 20
-2.3582
 30
0.0
 10
57.1427
 20
-2.3582
 30
0.0
  0
SPLINE
  5
EE
330
1F
100
AcDbEntity
  8
Ilustrace
 62
   250
370
    30
100
AcDbSpline
210
0.0
220
0.0
230
1.0
 70
     8
 71
     3
 72
    16
 73
    12
 74
     0
 42
0.0000000001
 43
0.0000000001
 40
0.0
 40
0.0
 40
0.0
 40
0.0
 40
0.25
 40
0.25
 40
0.25
 40
0.25
 40
0.5
 40
0.5
 40
0.5
 40
0.5
 40
1.0
 40
1.0
 40
1.0
 40
1.0
 10
57.1427
 20
-2.3582
 30
0.0
 10
56.789
 20
-2.3582
 30
0.0
 10
56.4176
 20
-2.4148
 30
0.0
 10
56.1602
 20
-2.1243
 30
0.0
 10
56.1602
 20
-2.1243
 30
0.0
 10
56.1231
 20
-2.0825
 30
0.0
 10
56.0911
 20
-2.0362
 30
0.0
 10
56.065
 20
-1.9867
 30
0.0
 10
56.065
 20
-1.9867
 30
0.0
 10
56.0262
 20
-1.9124
 30
0.0
 10
56.0007
 20
-1.8311
 30
0.0
 10
55.9907
 20
-1.7477
 30
0.0
  0
SPLINE
  5
EF
330
1F
100
AcDbEntity
  8
Ilustrace
 62
   250
370
    30
100
AcDbSpline
210
0.0
220
0.0
230
1.0
 70
     8
 71
     3
 72
    20
 73
    16
 74
     0
 42
0.0000000001
 43
0.0000000001
 40
0.0
 40
0.0
 40
0.0
 40
0.0
 40
0.2
 40
0.2
 40
0.2
 40
0.2
 40
0.4
 40
0.4
 40
0.4
 40
0.4
 40
0.6
 40
0.6
 40
0.6
 40
0.6
 40
1.0
 40
1.0
 40
1.0
 40
1.0
 10
55.9907
 20
-1.7477
 30
0.0
 10
55.9907
 20
-1.7477
 30
0.0
 10
55.9856
 20
-1.664
 30
0.0
 10
55.9856
 20
-1.664
 30
0.0
 10
55.9856
 20
-1.664
 30
0.0
 10
55.9856
 20
-1.664
 30
0.0
 10
55.9856
 20
-1.2012
 30
0.0
 10
55.9856
 20
-1.2012
 30
0.0
 10
55.9856
 20
-1.2012
 30
0.0
 10
55.9856
 20
-1.2012
 30
0.0
 10
55.9856
 20
-0.0442
 30
0.0
 10
55.9856
 20
-0.0442
 30
0.0
 10
55.9856
 20
-0.0442
 30
0.0
 10
55.9856
 20
-0.0442
 30
0.0
 10
55.9856
 20
0.4185
 30
0.0
 10
55.9856
 20
0.4185
 30
0.0
  0
SPLINE
  5
F0
330
1F
100
AcDbEntity
  8
Ilustrace
 62
   250
370
    30
100
AcDbSpline
210
0.0
220
0.0
230
1.0
 70
    24
 71
     3
 72
     8
 73
     4
 74
     0
 42
0.0000000001
 43
0.0000000001
 40
0.0
 40
0.0
 40
0.0
 40
0.0
 40
1.0
 40
1.0
 40
1.0
 40
1.0
 10
53.3246
 20
-3.3994
 30
0.0
 10
53.3246
 20
-3.3994
 30
0.0
 10
52.9774
 20
-3.3994
 30
0.0
 10
52.9774
 20
-3.3994
 30
0.0
  0
SPLINE
  5
F1
330
1F
100
AcDbEntity
  8
Ilustrace
 62
   250
370
    30
100
AcDbSpline
210
0.0
220
0.0
230
1.0
 70
    24
 71
     3
 72
     8
 73
     4
 74
     0
 42
0.0000000001
 43
0.0000000001
 40
0.0
 40
0.0
 40
0.0
 40
0.0
 40
1.0
 40
1.0
 40
1.0
 40
1.0
 10
71.0263
 20
-12.1925
 30
0.0
 10
71.0263
 20
-12.1925
 30
0.0
 10
53.6717
 20
-12.1925
 30
0.0
 10
53.6717
 20
-12.1925
 30
0.0
  0
SPLINE
  5
F2
330
1F
100
AcDbEntity
  8
Ilustrace
 62
   250
370
    30
100
AcDbSpline
210
0.0
220
0.0
230
1.0
 70
    24
 71
     3
 72
     8
 73
     4
 74
     0
 42
0.0000000001
 43
0.0000000001
 40
0.0
 40
0.0
 40
0.0
 40
0.0
 40
1.0
 40
1.0
 40
1.0
 40
1.0
 10
71.3734
 20
-3.3994
 30
0.0
 10
71.3734
 20
-3.3994
 30
0.0
 10
71.7204
 20
-3.3994
 30
0.0
 10
71.7204
 20
-3.3994
 30
0.0
  0
SPLINE
  5
F3
330
1F
100
AcDbEntity
  8
Ilustrace
 62
   250
370
    30
100
AcDbSpline
210
0.0
220
0.0
230
1.0
 70
    24
 71
     3
 72
     8
 73
     4
 74
     0
 42
0.0000000001
 43
0.0000000001
 40
0.0
 40
0.0
 40
0.0
 40
0.0
 40
1.0
 40
1.0
 40
1.0
 40
1.0
 10
55.0354
 20
-12.1925
 30
0.0
 10
55.0354
 20
-12.1925
 30
0.0
 10
54.1344
 20
-12.1925
 30
0.0
 10
54.1344
 20
-12.1925
 30
0.0
  0
SPLINE
  5
F4
330
1F
100
AcDbEntity
  8
Ilustrace
 62
   250
370
    30
100
AcDbSpline
210
0.0
220
0.0
230
1.0
 70
     8
 71
     3
 72
    12
 73
     8
 74
     0
 42
0.0000000001
 43
0.0000000001
 40
0.0
 40
0.0
 40
0.0
 40
0.0
 40
0.3333333333333333
 40
0.3333333333333333
 40
0.3333333333333333
 40
0.3333333333333333
 40
1.0
 40
1.0
 40
1.0
 40
1.0
 10
54.1344
 20
-12.1925
 30
0.0
 10
53.9864
 20
-12.1925
 30
0.0
 10
53.7255
 20
-12.2152
 30
0.0
 10
53.5416
 20
-12.1803
 30
0.0
 10
53.5416
 20
-12.1803
 30
0.0
 10
53.234
 20
-12.1216
 30
0.0
 10
52.9986
 20
-11.8545
 30
0.0
 10
52.9789
 20
-11.5419
 30
0.0
  0
SPLINE
  5
F5
330
1F
100
AcDbEntity
  8
Ilustrace
 62
   250
370
    30
100
AcDbSpline
210
0.0
220
0.0
230
1.0
 70
     8
 71
     3
 72
    20
 73
    16
 74
     0
 42
0.0000000001
 43
0.0000000001
 40
0.0
 40
0.0
 40
0.0
 40
0.0
 40
0.2
 40
0.2
 40
0.2
 40
0.2
 40
0.4
 40
0.4
 40
0.4
 40
0.4
 40
0.6
 40
0.6
 40
0.6
 40
0.6
 40
1.0
 40
1.0
 40
1.0
 40
1.0
 10
52.9789
 20
-11.5419
 30
0.0
 10
52.9789
 20
-11.5419
 30
0.0
 10
52.9774
 20
-11.4983
 30
0.0
 10
52.9774
 20
-11.4983
 30
0.0
 10
52.9774
 20
-11.4983
 30
0.0
 10
52.9774
 20
-11.4983
 30
0.0
 10
52.9774
 20
-11.0355
 30
0.0
 10
52.9774
 20
-11.0355
 30
0.0
 10
52.9774
 20
-11.0355
 30
0.0
 10
52.9774
 20
-11.0355
 30
0.0
 10
52.9774
 20
-3.8623
 30
0.0
 10
52.9774
 20
-3.8623
 30
0.0
 10
52.9774
 20
-3.8623
 30
0.0
 10
52.9774
 20
-3.8623
 30
0.0
 10
52.9774
 20
-3.3994
 30
0.0
 10
52.9774
 20
-3.3994
 30
0.0
  0
SPLINE
  5
F6
330
1F
100
AcDbEntity
  8
Ilustrace
 62
   250
370
    30
100
AcDbSpline
210
0.0
220
0.0
230
1.0
 70
    24
 71
     3
 72
    12
 73
     8
 74
     0
 42
0.0000000001
 43
0.0000000001
 40
0.0
 40
0.0
 40
0.0
 40
0.0
 40
0.3333333333333333
 40
0.3333333333333333
 40
0.3333333333333333
 40
0.3333333333333333
 40
1.0
 40
1.0
 40
1.0
 40
1.0
 10
53.3246
 20
-3.3994
 30
0.0
 10
53.3246
 20
-3.3994
 30
0.0
 10
53.3246
 20
-3.8623
 30
0.0
 10
53.3246
 20
-3.8623
 30
0.0
 10
53.3246
 20
-3.8623
 30
0.0
 10
53.3246
 20
-3.8623
 30
0.0
 10
53.3246
 20
-11.0355
 30
0.0
 10
53.3246
 20
-11.0355
 30
0.0
  0
SPLINE
  5
F7
330
1F
100
AcDbEntity
  8
Ilustrace
 62
   250
370
    30
100
AcDbSpline
210
0.0
220
0.0
230
1.0
 70
     8
 71
     3
 72
    12
 73
     8
 74
     0
 42
0.0000000001
 43
0.0000000001
 40
0.0
 40
0.0
 40
0.0
 40
0.0
 40
0.3333333333333333
 40
0.3333333333333333
 40
0.3333333333333333
 40
0.3333333333333333
 40
1.0
 40
1.0
 40
1.0
 40
1.0
 10
53.3246
 20
-11.0355
 30
0.0
 10
53.3246
 20
-11.2819
 30
0.0
 10
53.235
 20
-11.6997
 30
0.0
 10
53.5449
 20
-11.8214
 30
0.0
 10
53.5449
 20
-11.8214
 30
0.0
 10
53.5852
 20
-11.8373
 30
0.0
 10
53.6283
 20
-11.8453
 30
0.0
 10
53.6717
 20
-11.8453
 30
0.0
  0
SPLINE
  5
F8
330
1F
100
AcDbEntity
  8
Ilustrace
 62
   250
370
    30
100
AcDbSpline
210
0.0
220
0.0
230
1.0
 70
    24
 71
     3
 72
    12
 73
     8
 74
     0
 42
0.0000000001
 43
0.0000000001
 40
0.0
 40
0.0
 40
0.0
 40
0.0
 40
0.3333333333333333
 40
0.3333333333333333
 40
0.3333333333333333
 40
0.3333333333333333
 40
1.0
 40
1.0
 40
1.0
 40
1.0
 10
53.6717
 20
-11.8453
 30
0.0
 10
53.6717
 20
-11.8453
 30
0.0
 10
54.1344
 20
-11.8453
 30
0.0
 10
54.1344
 20
-11.8453
 30
0.0
 10
54.1344
 20
-11.8453
 30
0.0
 10
54.1344
 20
-11.8453
 30
0.0
 10
70.5635
 20
-11.8453
 30
0.0
 10
70.5635
 20
-11.8453
 30
0.0
  0
SPLINE
  5
F9
330
1F
100
AcDbEntity
  8
Ilustrace
 62
   250
370
    30
100
AcDbSpline
210
0.0
220
0.0
230
1.0
 70
     8
 71
     3
 72
    12
 73
     8
 74
     0
 42
0.0000000001
 43
0.0000000001
 40
0.0
 40
0.0
 40
0.0
 40
0.0
 40
0.3333333333333333
 40
0.3333333333333333
 40
0.3333333333333333
 40
0.3333333333333333
 40
1.0
 40
1.0
 40
1.0
 40
1.0
 10
70.5635
 20
-11.8453
 30
0.0
 10
70.7844
 20
-11.8453
 30
0.0
 10
71.1538
 20
-11.9275
 30
0.0
 10
71.3132
 20
-11.6938
 30
0.0
 10
71.3132
 20
-11.6938
 30
0.0
 10
71.4317
 20
-11.5198
 30
0.0
 10
71.3734
 20
-11.1849
 30
0.0
 10
71.3734
 20
-11.0355
 30
0.0
  0
SPLINE
  5
FA
330
1F
100
AcDbEntity
  8
Ilustrace
 62
   250
370
    30
100
AcDbSpline
210
0.0
220
0.0
230
1.0
 70
    24
 71
     3
 72
    12
 73
     8
 74
     0
 42
0.0000000001
 43
0.0000000001
 40
0.0
 40
0.0
 40
0.0
 40
0.0
 40
0.3333333333333333
 40
0.3333333333333333
 40
0.3333333333333333
 40
0.3333333333333333
 40
1.0
 40
1.0
 40
1.0
 40
1.0
 10
71.3734
 20
-11.0355
 30
0.0
 10
71.3734
 20
-11.0355
 30
0.0
 10
71.3734
 20
-3.8623
 30
0.0
 10
71.3734
 20
-3.8623
 30
0.0
 10
71.3734
 20
-3.8623
 30
0.0
 10
71.3734
 20
-3.8623
 30
0.0
 10
71.3734
 20
-3.3994
 30
0.0
 10
71.3734
 20
-3.3994
 30
0.0
  0
SPLINE
  5
FB
330
1F
100
AcDbEntity
  8
Ilustrace
 62
   250
370
    30
100
AcDbSpline
210
0.0
220
0.0
230
1.0
 70
    24
 71
     3
 72
    12
 73
     8
 74
     0
 42
0.0000000001
 43
0.0000000001
 40
0.0
 40
0.0
 40
0.0
 40
0.0
 40
0.3333333333333333
 40
0.3333333333333333
 40
0.3333333333333333
 40
0.3333333333333333
 40
1.0
 40
1.0
 40
1.0
 40
1.0
 10
71.7204
 20
-3.3994
 30
0.0
 10
71.7204
 20
-3.3994
 30
0.0
 10
71.7204
 20
-3.8623
 30
0.0
 10
71.7204
 20
-3.8623
 30
0.0
 10
71.7204
 20
-3.8623
 30
0.0
 10
71.7204
 20
-3.8623
 30
0.0
 10
71.7204
 20
-11.0355
 30
0.0
 10
71.7204
 20
-11.0355
 30
0.0
  0
SPLINE
  5
FC
330
1F
100
AcDbEntity
  8
Ilustrace
 62
   250
370
    30
100
AcDbSpline
210
0.0
220
0.0
230
1.0
 70
     8
 71
     3
 72
    12
 73
     8
 74
     0
 42
0.0000000001
 43
0.0000000001
 40
0.0
 40
0.0
 40
0.0
 40
0.0
 40
0.3333333333333333
 40
0.3333333333333333
 40
0.3333333333333333
 40
0.3333333333333333
 40
1.0
 40
1.0
 40
1.0
 40
1.0
 10
71.7204
 20
-11.0355
 30
0.0
 10
71.7204
 20
-11.1836
 30
0.0
 10
71.7432
 20
-11.4445
 30
0.0
 10
71.7082
 20
-11.6284
 30
0.0
 10
71.7082
 20
-11.6284
 30
0.0
 10
71.645
 20
-11.9593
 30
0.0
 10
71.3564
 20
-12.1821
 30
0.0
 10
71.0263
 20
-12.1925
 30
0.0
  0
SPLINE
  5
FD
330
1F
100
AcDbEntity
  8
Ilustrace
 62
   250
370
    30
100
AcDbSpline
210
0.0
220
0.0
230
1.0
 70
    24
 71
     3
 72
     8
 73
     4
 74
     0
 42
0.0000000001
 43
0.0000000001
 40
0.0
 40
0.0
 40
0.0
 40
0.0
 40
1.0
 40
1.0
 40
1.0
 40
1.0
 10
71.0263
 20
-12.1925
 30
0.0
 10
71.0263
 20
-12.1925
 30
0.0
 10
69.6625
 20
-12.1925
 30
0.0
 10
69.6625
 20
-12.1925
 30
0.0
  0
SPLINE
  5
FE
330
1F
100
AcDbEntity
  8
Ilustrace
  6
New Line1
 62
   250
370
    15
100
AcDbSpline
210
0.0
220
0.0
230
1.0
 70
    24
 71
     3
 72
     8
 73
     4
 74
     0
 42
0.0000000001
 43
0.0000000001
 40
0.0
 40
0.0
 40
0.0
 40
0.0
 40
1.0
 40
1.0
 40
1.0
 40
1.0
 10
73.6393
 20
-5.2986
 30
0.0
 10
73.6393
 20
-5.2986
 30
0.0
 10
51.3531
 20
-5.2986
 30
0.0
 10
51.3531
 20
-5.2986
 30
0.0
  0
SPLINE
  5
100
330
1F
100
AcDbEntity
  8
Ilustrace
 62
   250
370
    15
100
AcDbSpline
210
0.0
220
0.0
230
1.0
 70
    24
 71
     3
 72
     8
 73
     4
 74
     0
 42
0.0000000001
 43
0.0000000001
 40
0.0
 40
0.0
 40
0.0
 40
0.0
 40
1.0
 40
1.0
 40
1.0
 40
1.0
 10
47.5635
 20
5.7307
 30
0.0
 10
47.5635
 20
5.7307
 30
0.0
 10
47.5635
 20
9.5984
 30
0.0
 10
47.5635
 20
9.5984
 30
0.0
  0
SPLINE
  5
101
330
1F
100
AcDbEntity
  8
Ilustrace
 62
   250
370
    15
100
AcDbSpline
210
0.0
220
0.0
230
1.0
 70
    24
 71
     3
 72
     8
 73
     4
 74
     0
 42
0.0000000001
 43
0.0000000001
 40
0.0
 40
0.0
 40
0.0
 40
0.0
 40
1.0
 40
1.0
 40
1.0
 40
1.0
 10
-80.2762
 20
5.7572
 30
0.0
 10
-80.2762
 20
5.7572
 30
0.0
 10
-80.2762
 20
9.4904
 30
0.0
 10
-80.2762
 20
9.4904
 30
0.0
  0
TEXT
  5
102
330
1F
100
AcDbEntity
  8
Ilustrace
 62
   250
100
AcDbText
 10
-23.4067
 20
9.7103
 30
0.0
 40
1.557792
  1
1000
 41
1.434739898767371
 51
-0.0000015352345087
  7
0
100
AcDbText
  0
SPLINE
  5
103
330
1F
100
AcDbEntity
  8
Ilustrace
 62
   250
370
    15
100
AcDbSpline
210
0.0
220
0.0
230
1.0
 70
    24
 71
     3
 72
     8
 73
     4
 74
     0
 42
0.0000000001
 43
0.0000000001
 40
0.0
 40
0.0
 40
0.0
 40
0.0
 40
1.0
 40
1.0
 40
1.0
 40
1.0
 10
46.8169
 20
9.1764
 30
0.0
 10
46.8169
 20
9.1764
 30
0.0
 10
-79.6544
 20
9.1764
 30
0.0
 10
-79.6544
 20
9.1764
 30
0.0
  0
SPLINE
  5
104
330
1F
100
AcDbEntity
  8
Ilustrace
 62
   250
370
     9
100
AcDbSpline
210
0.0
220
0.0
230
1.0
 70
    11
 71
     3
 72
    32
 73
    28
 74
     0
 42
0.0000000001
 43
0.0000000001
 40
0.0
 40
0.0
 40
0.0
 40
0.0
 40
0.125
 40
0.125
 40
0.125
 40
0.125
 40
0.25
 40
0.25
 40
0.25
 40
0.25
 40
0.375
 40
0.375
 40
0.375
 40
0.375
 40
0.5
 40
0.5
 40
0.5
 40
0.5
 40
0.625
 40
0.625
 40
0.625
 40
0.625
 40
0.75
 40
0.75
 40
0.75
 40
0.75
 40
1.0
 40
1.0
 40
1.0
 40
1.0
 10
46.2262
 20
8.7177
 30
0.0
 10
46.2262
 20
8.7177
 30
0.0
 10
46.2262
 20
8.7177
 30
0.0
 10
46.2262
 20
8.7177
 30
0.0
 10
46.2262
 20
8.7177
 30
0.0
 10
46.2262
 20
8.7177
 30
0.0
 10
46.2262
 20
8.7177
 30
0.0
 10
46.2262
 20
8.7177
 30
0.0
 10
46.2262
 20
8.7177
 30
0.0
 10
46.2262
 20
8.7177
 30
0.0
 10
47.499
 20
9.1611
 30
0.0
 10
47.499
 20
9.1611
 30
0.0
 10
47.499
 20
9.1611
 30
0.0
 10
47.499
 20
9.1611
 30
0.0
 10
46.2262
 20
9.6045
 30
0.0
 10
46.2262
 20
9.6045
 30
0.0
 10
46.2262
 20
9.6045
 30
0.0
 10
46.2262
 20
9.6045
 30
0.0
 10
46.2262
 20
9.6045
 30
0.0
 10
46.2262
 20
9.6045
 30
0.0
 10
46.2262
 20
9.6045
 30
0.0
 10
46.2262
 20
9.6045
 30
0.0
 10
46.2262
 20
9.6045
 30
0.0
 10
46.2262
 20
9.6045
 30
0.0
 10
46.2262
 20
9.6045
 30
0.0
 10
46.2262
 20
9.6045
 30
0.0
 10
46.2262
 20
8.7177
 30
0.0
 10
46.2262
 20
8.7177
 30
0.0
  0
SPLINE
  5
105
330
1F
100
AcDbEntity
  8
Ilustrace
 62
   250
370
     9
100
AcDbSpline
210
0.0
220
0.0
230
1.0
 70
    11
 71
     3
 72
    32
 73
    28
 74
     0
 42
0.0000000001
 43
0.0000000001
 40
0.0
 40
0.0
 40
0.0
 40
0.0
 40
0.125
 40
0.125
 40
0.125
 40
0.125
 40
0.25
 40
0.25
 40
0.25
 40
0.25
 40
0.375
 40
0.375
 40
0.375
 40
0.375
 40
0.5
 40
0.5
 40
0.5
 40
0.5
 40
0.625
 40
0.625
 40
0.625
 40
0.625
 40
0.75
 40
0.75
 40
0.75
 40
0.75
 40
1.0
 40
1.0
 40
1.0
 40
1.0
 10
-78.9664
 20
8.6944
 30
0.0
 10
-78.9664
 20
8.6944
 30
0.0
 10
-78.9664
 20
8.6944
 30
0.0
 10
-78.9664
 20
8.6944
 30
0.0
 10
-78.9664
 20
8.6944
 30
0.0
 10
-78.9664
 20
8.6944
 30
0.0
 10
-78.9664
 20
8.6944
 30
0.0
 10
-78.9664
 20
8.6944
 30
0.0
 10
-78.9664
 20
8.6944
 30
0.0
 10
-78.9664
 20
8.6944
 30
0.0
 10
-80.2392
 20
9.1378
 30
0.0
 10
-80.2392
 20
9.1378
 30
0.0
 10
-80.2392
 20
9.1378
 30
0.0
 10
-80.2392
 20
9.1378
 30
0.0
 10
-78.9664
 20
9.5812
 30
0.0
 10
-78.9664
 20
9.5812
 30
0.0
 10
-78.9664
 20
9.5812
 30
0.0
 10
-78.9664
 20
9.5812
 30
0.0
 10
-78.9664
 20
9.5812
 30
0.0
 10
-78.9664
 20
9.5812
 30
0.0
 10
-78.9664
 20
9.5812
 30
0.0
 10
-78.9664
 20
9.5812
 30
0.0
 10
-78.9664
 20
9.5812
 30
0.0
 10
-78.9664
 20
9.5812
 30
0.0
 10
-78.9664
 20
9.5812
 30
0.0
 10
-78.9664
 20
9.5812
 30
0.0
 10
-78.9664
 20
8.6944
 30
0.0
 10
-78.9664
 20
8.6944
 30
0.0
  0
SPLINE
  5
106
330
1F
100
AcDbEntity
  8
Ilustrace
 62
   250
370
    30
100
AcDbSpline
210
0.0
220
0.0
230
1.0
 70
    11
 71
     3
 72
    40
 73
    36
 74
     0
 42
0.0000000001
 43
0.0000000001
 40
0.0
 40
0.0
 40
0.0
 40
0.0
 40
0.1
 40
0.1
 40
0.1
 40
0.1
 40
0.2
 40
0.2
 40
0.2
 40
0.2
 40
0.3
 40
0.3
 40
0.3
 40
0.3
 40
0.4
 40
0.4
 40
0.4
 40
0.4
 40
0.5
 40
0.5
 40
0.5
 40
0.5
 40
0.6
 40
0.6
 40
0.6
 40
0.6
 40
0.7
 40
0.7
 40
0.7
 40
0.7
 40
0.8
 40
0.8
 40
0.8
 40
0.8
 40
1.0
 40
1.0
 40
1.0
 40
1.0
 10
41.0516
 20
-6.5334
 30
0.0
 10
41.3447
 20
-6.7292
 30
0.0
 10
41.6475
 20
-6.8576
 30
0.0
 10
42.0063
 20
-6.8576
 30
0.0
 10
42.0063
 20
-6.8576
 30
0.0
 10
42.2119
 20
-6.8576
 30
0.0
 10
42.4169
 20
-6.8168
 30
0.0
 10
42.6067
 20
-6.7382
 30
0.0
 10
42.6067
 20
-6.7382
 30
0.0
 10
43.3245
 20
-6.4408
 30
0.0
 10
43.7224
 20
-5.6339
 30
0.0
 10
43.5214
 20
-4.8832
 30
0.0
 10
43.5214
 20
-4.8832
 30
0.0
 10
43.4681
 20
-4.6849
 30
0.0
 10
43.3758
 20
-4.4975
 30
0.0
 10
43.2506
 20
-4.3344
 30
0.0
 10
43.2506
 20
-4.3344
 30
0.0
 10
43.1256
 20
-4.1715
 30
0.0
 10
42.9686
 20
-4.0337
 30
0.0
 10
42.7906
 20
-3.931
 30
0.0
 10
42.7906
 20
-3.931
 30
0.0
 10
42.5431
 20
-3.7881
 30
0.0
 10
42.2873
 20
-3.7394
 30
0.0
 10
42.0063
 20
-3.7209
 30
0.0
 10
42.0063
 20
-3.7209
 30
0.0
 10
41.7256
 20
-3.7394
 30
0.0
 10
41.4697
 20
-3.7881
 30
0.0
 10
41.2222
 20
-3.931
 30
0.0
 10
41.2222
 20
-3.931
 30
0.0
 10
40.5494
 20
-4.3195
 30
0.0
 10
40.26
 20
-5.1715
 30
0.0
 10
40.5575
 20
-5.8893
 30
0.0
 10
40.5575
 20
-5.8893
 30
0.0
 10
40.6668
 20
-6.1533
 30
0.0
 10
40.8401
 20
-6.3479
 30
0.0
 10
41.0516
 20
-6.5334
 30
0.0
  0
SPLINE
  5
107
330
1F
100
AcDbEntity
  8
Ilustrace
 62
   250
370
    30
100
AcDbSpline
210
0.0
220
0.0
230
1.0
 70
    24
 71
     3
 72
     8
 73
     4
 74
     0
 42
0.0000000001
 43
0.0000000001
 40
0.0
 40
0.0
 40
0.0
 40
0.0
 40
1.0
 40
1.0
 40
1.0
 40
1.0
 10
42.6308
 20
-3.4373
 30
0.0
 10
42.6308
 20
-3.4373
 30
0.0
 10
42.6308
 20
-1.4612
 30
0.0
 10
42.6308
 20
-1.4612
 30
0.0
  0
SPLINE
  5
108
330
1F
100
AcDbEntity
  8
Ilustrace
 62
   250
370
    30
100
AcDbSpline
210
0.0
220
0.0
230
1.0
 70
    24
 71
     3
 72
     8
 73
     4
 74
     0
 42
0.0000000001
 43
0.0000000001
 40
0.0
 40
0.0
 40
0.0
 40
0.0
 40
1.0
 40
1.0
 40
1.0
 40
1.0
 10
47.5621
 20
5.1278
 30
0.0
 10
47.5621
 20
5.1278
 30
0.0
 10
-39.6823
 20
5.1278
 30
0.0
 10
-39.6823
 20
5.1278
 30
0.0
  0
SPLINE
  5
109
330
1F
100
AcDbEntity
  8
Ilustrace
 62
   250
370
    30
100
AcDbSpline
210
0.0
220
0.0
230
1.0
 70
    24
 71
     3
 72
     8
 73
     4
 74
     0
 42
0.0000000001
 43
0.0000000001
 40
0.0
 40
0.0
 40
0.0
 40
0.0
 40
1.0
 40
1.0
 40
1.0
 40
1.0
 10
47.5621
 20
5.1278
 30
0.0
 10
47.5621
 20
5.1278
 30
0.0
 10
47.5621
 20
-12.2155
 30
0.0
 10
47.5621
 20
-12.2155
 30
0.0
  0
SPLINE
  5
10A
330
1F
100
AcDbEntity
  8
Ilustrace
 62
   250
370
    30
100
AcDbSpline
210
0.0
220
0.0
230
1.0
 70
    24
 71
     3
 72
     8
 73
     4
 74
     0
 42
0.0000000001
 43
0.0000000001
 40
0.0
 40
0.0
 40
0.0
 40
0.0
 40
1.0
 40
1.0
 40
1.0
 40
1.0
 10
47.5364
 20
-8.5304
 30
0.0
 10
47.5364
 20
-8.5304
 30
0.0
 10
-40.5786
 20
-8.5304
 30
0.0
 10
-40.5786
 20
-8.5304
 30
0.0
  0
SPLINE
  5
10B
330
1F
100
AcDbEntity
  8
Ilustrace
 62
   250
370
    30
100
AcDbSpline
210
0.0
220
0.0
230
1.0
 70
    24
 71
     3
 72
     8
 73
     4
 74
     0
 42
0.0000000001
 43
0.0000000001
 40
0.0
 40
0.0
 40
0.0
 40
0.0
 40
1.0
 40
1.0
 40
1.0
 40
1.0
 10
47.5621
 20
4.7805
 30
0.0
 10
47.5621
 20
4.7805
 30
0.0
 10
-39.6823
 20
4.7805
 30
0.0
 10
-39.6823
 20
4.7805
 30
0.0
  0
SPLINE
  5
10C
330
1F
100
AcDbEntity
  8
Ilustrace
 62
   250
370
    30
100
AcDbSpline
210
0.0
220
0.0
230
1.0
 70
     8
 71
     3
 72
    20
 73
    16
 74
     0
 42
0.0000000001
 43
0.0000000001
 40
0.0
 40
0.0
 40
0.0
 40
0.0
 40
0.2
 40
0.2
 40
0.2
 40
0.2
 40
0.4
 40
0.4
 40
0.4
 40
0.4
 40
0.6
 40
0.6
 40
0.6
 40
0.6
 40
1.0
 40
1.0
 40
1.0
 40
1.0
 10
42.6308
 20
-3.8522
 30
0.0
 10
42.6308
 20
-3.8522
 30
0.0
 10
42.6308
 20
-3.3893
 30
0.0
 10
42.6308
 20
-3.3893
 30
0.0
 10
42.6308
 20
-3.3893
 30
0.0
 10
42.6308
 20
-3.3893
 30
0.0
 10
42.6308
 20
-1.9242
 30
0.0
 10
42.6308
 20
-1.9242
 30
0.0
 10
42.6308
 20
-1.9242
 30
0.0
 10
42.6308
 20
-1.9242
 30
0.0
 10
42.6308
 20
-1.4612
 30
0.0
 10
42.6308
 20
-1.4612
 30
0.0
 10
42.6308
 20
-1.4612
 30
0.0
 10
42.6308
 20
-1.4612
 30
0.0
 10
42.5945
 20
-1.3417
 30
0.0
 10
42.5945
 20
-1.3417
 30
0.0
  0
SPLINE
  5
10D
330
1F
100
AcDbEntity
  8
Ilustrace
 62
   250
370
    30
100
AcDbSpline
210
0.0
220
0.0
230
1.0
 70
     8
 71
     3
 72
     8
 73
     4
 74
     0
 42
0.0000000001
 43
0.0000000001
 40
0.0
 40
0.0
 40
0.0
 40
0.0
 40
1.0
 40
1.0
 40
1.0
 40
1.0
 10
42.5945
 20
-1.3417
 30
0.0
 10
42.52
 20
-1.1616
 30
0.0
 10
42.3338
 20
-0.981
 30
0.0
 10
42.1306
 20
-0.961
 30
0.0
  0
SPLINE
  5
10E
330
1F
100
AcDbEntity
  8
Ilustrace
 62
   250
370
    30
100
AcDbSpline
210
0.0
220
0.0
230
1.0
 70
    24
 71
     3
 72
     8
 73
     4
 74
     0
 42
0.0000000001
 43
0.0000000001
 40
0.0
 40
0.0
 40
0.0
 40
0.0
 40
1.0
 40
1.0
 40
1.0
 40
1.0
 10
42.1306
 20
-0.961
 30
0.0
 10
42.1306
 20
-0.961
 30
0.0
 10
41.8823
 20
-0.961
 30
0.0
 10
41.8823
 20
-0.961
 30
0.0
  0
SPLINE
  5
10F
330
1F
100
AcDbEntity
  8
Ilustrace
 62
   250
370
    30
100
AcDbSpline
210
0.0
220
0.0
230
1.0
 70
     8
 71
     3
 72
     8
 73
     4
 74
     0
 42
0.0000000001
 43
0.0000000001
 40
0.0
 40
0.0
 40
0.0
 40
0.0
 40
1.0
 40
1.0
 40
1.0
 40
1.0
 10
41.8823
 20
-0.961
 30
0.0
 10
41.6597
 20
-1.0285
 30
0.0
 10
41.3984
 20
-1.1969
 30
0.0
 10
41.3821
 20
-1.4612
 30
0.0
  0
SPLINE
  5
110
330
1F
100
AcDbEntity
  8
Ilustrace
 62
   250
370
    30
100
AcDbSpline
210
0.0
220
0.0
230
1.0
 70
    24
 71
     3
 72
    16
 73
    12
 74
     0
 42
0.0000000001
 43
0.0000000001
 40
0.0
 40
0.0
 40
0.0
 40
0.0
 40
0.25
 40
0.25
 40
0.25
 40
0.25
 40
0.5
 40
0.5
 40
0.5
 40
0.5
 40
1.0
 40
1.0
 40
1.0
 40
1.0
 10
41.3821
 20
-1.4612
 30
0.0
 10
41.3821
 20
-1.4612
 30
0.0
 10
41.3821
 20
-1.9242
 30
0.0
 10
41.3821
 20
-1.9242
 30
0.0
 10
41.3821
 20
-1.9242
 30
0.0
 10
41.3821
 20
-1.9242
 30
0.0
 10
41.3821
 20
-3.3893
 30
0.0
 10
41.3821
 20
-3.3893
 30
0.0
 10
41.3821
 20
-3.3893
 30
0.0
 10
41.3821
 20
-3.3893
 30
0.0
 10
41.3821
 20
-3.8522
 30
0.0
 10
41.3821
 20
-3.8522
 30
0.0
  0
SPLINE
  5
111
330
1F
100
AcDbEntity
  8
Ilustrace
 62
   250
370
    30
100
AcDbSpline
210
0.0
220
0.0
230
1.0
 70
     8
 71
     3
 72
     8
 73
     4
 74
     0
 42
0.0000000001
 43
0.0000000001
 40
0.0
 40
0.0
 40
0.0
 40
0.0
 40
1.0
 40
1.0
 40
1.0
 40
1.0
 10
42.6308
 20
-6.7262
 30
0.0
 10
42.6308
 20
-7.0285
 30
0.0
 10
42.3987
 20
-7.2212
 30
0.0
 10
42.1306
 20
-7.3024
 30
0.0
  0
SPLINE
  5
112
330
1F
100
AcDbEntity
  8
Ilustrace
 62
   250
370
    30
100
AcDbSpline
210
0.0
220
0.0
230
1.0
 70
    24
 71
     3
 72
     8
 73
     4
 74
     0
 42
0.0000000001
 43
0.0000000001
 40
0.0
 40
0.0
 40
0.0
 40
0.0
 40
1.0
 40
1.0
 40
1.0
 40
1.0
 10
42.1306
 20
-7.3024
 30
0.0
 10
42.1306
 20
-7.3024
 30
0.0
 10
41.8823
 20
-7.3024
 30
0.0
 10
41.8823
 20
-7.3024
 30
0.0
  0
SPLINE
  5
113
330
1F
100
AcDbEntity
  8
Ilustrace
 62
   250
370
    30
100
AcDbSpline
210
0.0
220
0.0
230
1.0
 70
     8
 71
     3
 72
     8
 73
     4
 74
     0
 42
0.0000000001
 43
0.0000000001
 40
0.0
 40
0.0
 40
0.0
 40
0.0
 40
1.0
 40
1.0
 40
1.0
 40
1.0
 10
41.8823
 20
-7.3024
 30
0.0
 10
41.6089
 20
-7.2757
 30
0.0
 10
41.3821
 20
-6.9879
 30
0.0
 10
41.3821
 20
-6.7262
 30
0.0
  0
SPLINE
  5
114
330
1F
100
AcDbEntity
  8
Ilustrace
 62
   250
370
    30
100
AcDbSpline
210
0.0
220
0.0
230
1.0
 70
    24
 71
     3
 72
     8
 73
     4
 74
     0
 42
0.0000000001
 43
0.0000000001
 40
0.0
 40
0.0
 40
0.0
 40
0.0
 40
1.0
 40
1.0
 40
1.0
 40
1.0
 10
47.5621
 20
-12.2339
 30
0.0
 10
47.5621
 20
-12.2339
 30
0.0
 10
-41.363
 20
-12.2339
 30
0.0
 10
-41.363
 20
-12.2339
 30
0.0
  0
SPLINE
  5
115
330
1F
100
AcDbEntity
  8
Ilustrace
 62
   250
370
    30
100
AcDbSpline
210
0.0
220
0.0
230
1.0
 70
    24
 71
     3
 72
     8
 73
     4
 74
     0
 42
0.0000000001
 43
0.0000000001
 40
0.0
 40
0.0
 40
0.0
 40
0.0
 40
1.0
 40
1.0
 40
1.0
 40
1.0
 10
42.6308
 20
-3.4373
 30
0.0
 10
42.6308
 20
-3.4373
 30
0.0
 10
41.3821
 20
-3.4373
 30
0.0
 10
41.3821
 20
-3.4373
 30
0.0
  0
SPLINE
  5
116
330
1F
100
AcDbEntity
  8
Ilustrace
 62
   250
370
    30
100
AcDbSpline
210
0.0
220
0.0
230
1.0
 70
    11
 71
     3
 72
    40
 73
    36
 74
     0
 42
0.0000000001
 43
0.0000000001
 40
0.0
 40
0.0
 40
0.0
 40
0.0
 40
0.1
 40
0.1
 40
0.1
 40
0.1
 40
0.2
 40
0.2
 40
0.2
 40
0.2
 40
0.3
 40
0.3
 40
0.3
 40
0.3
 40
0.4
 40
0.4
 40
0.4
 40
0.4
 40
0.5
 40
0.5
 40
0.5
 40
0.5
 40
0.6
 40
0.6
 40
0.6
 40
0.6
 40
0.7
 40
0.7
 40
0.7
 40
0.7
 40
0.8
 40
0.8
 40
0.8
 40
0.8
 40
1.0
 40
1.0
 40
1.0
 40
1.0
 10
-17.2665
 20
-6.5334
 30
0.0
 10
-16.9735
 20
-6.7292
 30
0.0
 10
-16.6707
 20
-6.8576
 30
0.0
 10
-16.3119
 20
-6.8576
 30
0.0
 10
-16.3119
 20
-6.8576
 30
0.0
 10
-15.5348
 20
-6.8576
 30
0.0
 10
-14.8583
 20
-6.2643
 30
0.0
 10
-14.7568
 20
-5.4939
 30
0.0
 10
-14.7568
 20
-5.4939
 30
0.0
 10
-14.7301
 20
-5.2902
 30
0.0
 10
-14.7438
 20
-5.0817
 30
0.0
 10
-14.7968
 20
-4.8832
 30
0.0
 10
-14.7968
 20
-4.8832
 30
0.0
 10
-14.85
 20
-4.6849
 30
0.0
 10
-14.9425
 20
-4.4975
 30
0.0
 10
-15.0675
 20
-4.3344
 30
0.0
 10
-15.0675
 20
-4.3344
 30
0.0
 10
-15.1927
 20
-4.1715
 30
0.0
 10
-15.3497
 20
-4.0337
 30
0.0
 10
-15.5276
 20
-3.931
 30
0.0
 10
-15.5276
 20
-3.931
 30
0.0
 10
-15.775
 20
-3.7881
 30
0.0
 10
-16.0309
 20
-3.7394
 30
0.0
 10
-16.3119
 20
-3.7209
 30
0.0
 10
-16.3119
 20
-3.7209
 30
0.0
 10
-16.5927
 20
-3.7394
 30
0.0
 10
-16.8486
 20
-3.7881
 30
0.0
 10
-17.096
 20
-3.931
 30
0.0
 10
-17.096
 20
-3.931
 30
0.0
 10
-17.7689
 20
-4.3195
 30
0.0
 10
-18.0582
 20
-5.1715
 30
0.0
 10
-17.7607
 20
-5.8893
 30
0.0
 10
-17.7607
 20
-5.8893
 30
0.0
 10
-17.6515
 20
-6.1533
 30
0.0
 10
-17.4781
 20
-6.3479
 30
0.0
 10
-17.2665
 20
-6.5334
 30
0.0
  0
SPLINE
  5
117
330
1F
100
AcDbEntity
  8
Ilustrace
 62
   250
370
    30
100
AcDbSpline
210
0.0
220
0.0
230
1.0
 70
     8
 71
     3
 72
    20
 73
    16
 74
     0
 42
0.0000000001
 43
0.0000000001
 40
0.0
 40
0.0
 40
0.0
 40
0.0
 40
0.2
 40
0.2
 40
0.2
 40
0.2
 40
0.4
 40
0.4
 40
0.4
 40
0.4
 40
0.6
 40
0.6
 40
0.6
 40
0.6
 40
1.0
 40
1.0
 40
1.0
 40
1.0
 10
-15.6874
 20
-3.8522
 30
0.0
 10
-15.6874
 20
-3.8522
 30
0.0
 10
-15.6874
 20
-3.3893
 30
0.0
 10
-15.6874
 20
-3.3893
 30
0.0
 10
-15.6874
 20
-3.3893
 30
0.0
 10
-15.6874
 20
-3.3893
 30
0.0
 10
-15.6874
 20
-1.9242
 30
0.0
 10
-15.6874
 20
-1.9242
 30
0.0
 10
-15.6874
 20
-1.9242
 30
0.0
 10
-15.6874
 20
-1.9242
 30
0.0
 10
-15.6874
 20
-1.4612
 30
0.0
 10
-15.6874
 20
-1.4612
 30
0.0
 10
-15.6874
 20
-1.4612
 30
0.0
 10
-15.6874
 20
-1.4612
 30
0.0
 10
-15.7237
 20
-1.3417
 30
0.0
 10
-15.7237
 20
-1.3417
 30
0.0
  0
SPLINE
  5
118
330
1F
100
AcDbEntity
  8
Ilustrace
 62
   250
370
    30
100
AcDbSpline
210
0.0
220
0.0
230
1.0
 70
     8
 71
     3
 72
     8
 73
     4
 74
     0
 42
0.0000000001
 43
0.0000000001
 40
0.0
 40
0.0
 40
0.0
 40
0.0
 40
1.0
 40
1.0
 40
1.0
 40
1.0
 10
-15.7237
 20
-1.3417
 30
0.0
 10
-15.7983
 20
-1.1616
 30
0.0
 10
-15.9844
 20
-0.981
 30
0.0
 10
-16.1876
 20
-0.961
 30
0.0
  0
SPLINE
  5
119
330
1F
100
AcDbEntity
  8
Ilustrace
 62
   250
370
    30
100
AcDbSpline
210
0.0
220
0.0
230
1.0
 70
    24
 71
     3
 72
     8
 73
     4
 74
     0
 42
0.0000000001
 43
0.0000000001
 40
0.0
 40
0.0
 40
0.0
 40
0.0
 40
1.0
 40
1.0
 40
1.0
 40
1.0
 10
-16.1876
 20
-0.961
 30
0.0
 10
-16.1876
 20
-0.961
 30
0.0
 10
-16.436
 20
-0.961
 30
0.0
 10
-16.436
 20
-0.961
 30
0.0
  0
SPLINE
  5
11A
330
1F
100
AcDbEntity
  8
Ilustrace
 62
   250
370
    30
100
AcDbSpline
210
0.0
220
0.0
230
1.0
 70
     8
 71
     3
 72
     8
 73
     4
 74
     0
 42
0.0000000001
 43
0.0000000001
 40
0.0
 40
0.0
 40
0.0
 40
0.0
 40
1.0
 40
1.0
 40
1.0
 40
1.0
 10
-16.436
 20
-0.961
 30
0.0
 10
-16.6585
 20
-1.0285
 30
0.0
 10
-16.9198
 20
-1.1969
 30
0.0
 10
-16.9362
 20
-1.4612
 30
0.0
  0
SPLINE
  5
11B
330
1F
100
AcDbEntity
  8
Ilustrace
 62
   250
370
    30
100
AcDbSpline
210
0.0
220
0.0
230
1.0
 70
    24
 71
     3
 72
    16
 73
    12
 74
     0
 42
0.0000000001
 43
0.0000000001
 40
0.0
 40
0.0
 40
0.0
 40
0.0
 40
0.25
 40
0.25
 40
0.25
 40
0.25
 40
0.5
 40
0.5
 40
0.5
 40
0.5
 40
1.0
 40
1.0
 40
1.0
 40
1.0
 10
-16.9362
 20
-1.4612
 30
0.0
 10
-16.9362
 20
-1.4612
 30
0.0
 10
-16.9362
 20
-1.9242
 30
0.0
 10
-16.9362
 20
-1.9242
 30
0.0
 10
-16.9362
 20
-1.9242
 30
0.0
 10
-16.9362
 20
-1.9242
 30
0.0
 10
-16.9362
 20
-3.3893
 30
0.0
 10
-16.9362
 20
-3.3893
 30
0.0
 10
-16.9362
 20
-3.3893
 30
0.0
 10
-16.9362
 20
-3.3893
 30
0.0
 10
-16.9362
 20
-3.8522
 30
0.0
 10
-16.9362
 20
-3.8522
 30
0.0
  0
SPLINE
  5
11C
330
1F
100
AcDbEntity
  8
Ilustrace
 62
   250
370
    30
100
AcDbSpline
210
0.0
220
0.0
230
1.0
 70
     8
 71
     3
 72
     8
 73
     4
 74
     0
 42
0.0000000001
 43
0.0000000001
 40
0.0
 40
0.0
 40
0.0
 40
0.0
 40
1.0
 40
1.0
 40
1.0
 40
1.0
 10
-15.6874
 20
-6.7262
 30
0.0
 10
-15.6874
 20
-7.0285
 30
0.0
 10
-15.9194
 20
-7.2212
 30
0.0
 10
-16.1876
 20
-7.3024
 30
0.0
  0
SPLINE
  5
11D
330
1F
100
AcDbEntity
  8
Ilustrace
 62
   250
370
    30
100
AcDbSpline
210
0.0
220
0.0
230
1.0
 70
    24
 71
     3
 72
     8
 73
     4
 74
     0
 42
0.0000000001
 43
0.0000000001
 40
0.0
 40
0.0
 40
0.0
 40
0.0
 40
1.0
 40
1.0
 40
1.0
 40
1.0
 10
-16.1876
 20
-7.3024
 30
0.0
 10
-16.1876
 20
-7.3024
 30
0.0
 10
-16.436
 20
-7.3024
 30
0.0
 10
-16.436
 20
-7.3024
 30
0.0
  0
SPLINE
  5
11E
330
1F
100
AcDbEntity
  8
Ilustrace
 62
   250
370
    30
100
AcDbSpline
210
0.0
220
0.0
230
1.0
 70
     8
 71
     3
 72
     8
 73
     4
 74
     0
 42
0.0000000001
 43
0.0000000001
 40
0.0
 40
0.0
 40
0.0
 40
0.0
 40
1.0
 40
1.0
 40
1.0
 40
1.0
 10
-16.436
 20
-7.3024
 30
0.0
 10
-16.7093
 20
-7.2757
 30
0.0
 10
-16.9362
 20
-6.9879
 30
0.0
 10
-16.9362
 20
-6.7262
 30
0.0
  0
SPLINE
  5
11F
330
1F
100
AcDbEntity
  8
Ilustrace
 62
   250
370
    30
100
AcDbSpline
210
0.0
220
0.0
230
1.0
 70
    24
 71
     3
 72
     8
 73
     4
 74
     0
 42
0.0000000001
 43
0.0000000001
 40
0.0
 40
0.0
 40
0.0
 40
0.0
 40
1.0
 40
1.0
 40
1.0
 40
1.0
 10
-15.6874
 20
-3.4373
 30
0.0
 10
-15.6874
 20
-3.4373
 30
0.0
 10
-16.9362
 20
-3.4373
 30
0.0
 10
-16.9362
 20
-3.4373
 30
0.0
  0
SPLINE
  5
120
330
1F
100
AcDbEntity
  8
Ilustrace
 62
   250
370
    15
100
AcDbSpline
210
0.0
220
0.0
230
1.0
 70
     8
 71
     3
 72
    40
 73
    36
 74
     0
 42
0.0000000001
 43
0.0000000001
 40
0.0
 40
0.0
 40
0.0
 40
0.0
 40
0.1
 40
0.1
 40
0.1
 40
0.1
 40
0.2
 40
0.2
 40
0.2
 40
0.2
 40
0.3
 40
0.3
 40
0.3
 40
0.3
 40
0.4
 40
0.4
 40
0.4
 40
0.4
 40
0.5
 40
0.5
 40
0.5
 40
0.5
 40
0.6
 40
0.6
 40
0.6
 40
0.6
 40
0.7
 40
0.7
 40
0.7
 40
0.7
 40
0.8
 40
0.8
 40
0.8
 40
0.8
 40
1.0
 40
1.0
 40
1.0
 40
1.0
 10
-39.6722
 20
5.1148
 30
0.0
 10
-39.6722
 20
5.1148
 30
0.0
 10
-39.6722
 20
4.9887
 30
0.0
 10
-39.6722
 20
4.9887
 30
0.0
 10
-39.6722
 20
4.9887
 30
0.0
 10
-39.6722
 20
4.2494
 30
0.0
 10
-39.9081
 20
3.747
 30
0.0
 10
-39.9081
 20
3.0544
 30
0.0
 10
-39.9081
 20
3.0544
 30
0.0
 10
-39.9081
 20
3.0544
 30
0.0
 10
-39.9081
 20
2.6547
 30
0.0
 10
-39.9081
 20
2.6547
 30
0.0
 10
-39.9081
 20
2.6547
 30
0.0
 10
-39.9082
 20
0.9133
 30
0.0
 10
-39.9311
 20
-1.5606
 30
0.0
 10
-40.1084
 20
-3.2248
 30
0.0
 10
-40.1084
 20
-3.2248
 30
0.0
 10
-40.1084
 20
-3.2248
 30
0.0
 10
-40.1265
 20
-3.395
 30
0.0
 10
-40.1265
 20
-3.395
 30
0.0
 10
-40.1265
 20
-3.395
 30
0.0
 10
-40.2544
 20
-4.5949
 30
0.0
 10
-40.2066
 20
-5.2591
 30
0.0
 10
-40.3269
 20
-6.4571
 30
0.0
 10
-40.3269
 20
-6.4571
 30
0.0
 10
-40.3925
 20
-7.1107
 30
0.0
 10
-40.4049
 20
-7.8041
 30
0.0
 10
-40.5582
 20
-8.4384
 30
0.0
 10
-40.5582
 20
-8.4384
 30
0.0
 10
-40.7034
 20
-9.0394
 30
0.0
 10
-40.9073
 20
-10.8906
 30
0.0
 10
-41.1297
 20
-11.2627
 30
0.0
 10
-41.1297
 20
-11.2627
 30
0.0
 10
-41.1695
 20
-11.3293
 30
0.0
 10
-41.3656
 20
-12.1017
 30
0.0
 10
-41.3656
 20
-12.2552
 30
0.0
  0
SPLINE
  5
121
330
1F
100
AcDbEntity
  8
Ilustrace
  6
New Line2
 62
   250
370
    15
100
AcDbSpline
210
0.0
220
0.0
230
1.0
 70
    24
 71
     3
 72
     8
 73
     4
 74
     0
 42
0.0000000001
 43
0.0000000001
 40
0.0
 40
0.0
 40
0.0
 40
0.0
 40
1.0
 40
1.0
 40
1.0
 40
1.0
 10
-16.2723
 20
-9.502
 30
0.0
 10
-16.2723
 20
-9.502
 30
0.0
 10
-16.2723
 20
-2.1157
 30
0.0
 10
-16.2723
 20
-2.1157
 30
0.0
  0
SPLINE
  5
123
330
1F
100
AcDbEntity
  8
Ilustrace
  6
New Line3
 62
   250
370
    15
100
AcDbSpline
210
0.0
220
0.0
230
1.0
 70
    24
 71
     3
 72
     8
 73
     4
 74
     0
 42
0.0000000001
 43
0.0000000001
 40
0.0
 40
0.0
 40
0.0
 40
0.0
 40
1.0
 40
1.0
 40
1.0
 40
1.0
 10
42.0243
 20
-9.6255
 30
0.0
 10
42.0243
 20
-9.6255
 30
0.0
 10
42.0243
 20
-2.2392
 30
0.0
 10
42.0243
 20
-2.2392
 30
0.0
  0
SPLINE
  5
125
330
1F
100
AcDbEntity
  8
Ilustrace
  6
New Line4
 62
   250
370
    15
100
AcDbSpline
210
0.0
220
0.0
230
1.0
 70
    24
 71
     3
 72
     8
 73
     4
 74
     0
 42
0.0000000001
 43
0.0000000001
 40
0.0
 40
0.0
 40
0.0
 40
0.0
 40
1.0
 40
1.0
 40
1.0
 40
1.0
 10
44.2874
 20
-5.4035
 30
0.0
 10
44.2874
 20
-5.4035
 30
0.0
 10
39.536
 20
-5.4035
 30
0.0
 10
39.536
 20
-5.4035
 30
0.0
  0
SPLINE
  5
127
330
1F
100
AcDbEntity
  8
Ilustrace
  6
New Line5
 62
   250
370
    15
100
AcDbSpline
210
0.0
220
0.0
230
1.0
 70
    24
 71
     3
 72
     8
 73
     4
 74
     0
 42
0.0000000001
 43
0.0000000001
 40
0.0
 40
0.0
 40
0.0
 40
0.0
 40
1.0
 40
1.0
 40
1.0
 40
1.0
 10
-13.7998
 20
-5.3572
 30
0.0
 10
-13.7998
 20
-5.3572
 30
0.0
 10
-18.5512
 20
-5.3572
 30
0.0
 10
-18.5512
 20
-5.3572
 30
0.0
  0
SPLINE
  5
129
330
1F
100
AcDbEntity
  8
Ilustrace
 62
   250
370
    30
100
AcDbSpline
210
0.0
220
0.0
230
1.0
 70
    24
 71
     3
 72
     8
 73
     4
 74
     0
 42
0.0000000001
 43
0.0000000001
 40
0.0
 40
0.0
 40
0.0
 40
0.0
 40
1.0
 40
1.0
 40
1.0
 40
1.0
 10
-40.2776
 20
5.1278
 30
0.0
 10
-40.2776
 20
5.1278
 30
0.0
 10
-80.2051
 20
5.1278
 30
0.0
 10
-80.2051
 20
5.1278
 30
0.0
  0
SPLINE
  5
12A
330
1F
100
AcDbEntity
  8
Ilustrace
 62
   250
370
    30
100
AcDbSpline
210
0.0
220
0.0
230
1.0
 70
    24
 71
     3
 72
     8
 73
     4
 74
     0
 42
0.0000000001
 43
0.0000000001
 40
0.0
 40
0.0
 40
0.0
 40
0.0
 40
1.0
 40
1.0
 40
1.0
 40
1.0
 10
-40.271
 20
4.7805
 30
0.0
 10
-40.271
 20
4.7805
 30
0.0
 10
-80.2051
 20
4.7805
 30
0.0
 10
-80.2051
 20
4.7805
 30
0.0
  0
SPLINE
  5
12B
330
1F
100
AcDbEntity
  8
Ilustrace
 62
   250
370
    30
100
AcDbSpline
210
0.0
220
0.0
230
1.0
 70
    24
 71
     3
 72
     8
 73
     4
 74
     0
 42
0.0000000001
 43
0.0000000001
 40
0.0
 40
0.0
 40
0.0
 40
0.0
 40
1.0
 40
1.0
 40
1.0
 40
1.0
 10
-41.9649
 20
-12.2339
 30
0.0
 10
-41.9649
 20
-12.2339
 30
0.0
 10
-80.3031
 20
-12.2339
 30
0.0
 10
-80.3031
 20
-12.2339
 30
0.0
  0
SPLINE
  5
12C
330
1F
100
AcDbEntity
  8
Ilustrace
 62
   250
370
    30
100
AcDbSpline
210
0.0
220
0.0
230
1.0
 70
    11
 71
     3
 72
    40
 73
    36
 74
     0
 42
0.0000000001
 43
0.0000000001
 40
0.0
 40
0.0
 40
0.0
 40
0.0
 40
0.1
 40
0.1
 40
0.1
 40
0.1
 40
0.2
 40
0.2
 40
0.2
 40
0.2
 40
0.3
 40
0.3
 40
0.3
 40
0.3
 40
0.4
 40
0.4
 40
0.4
 40
0.4
 40
0.5
 40
0.5
 40
0.5
 40
0.5
 40
0.6
 40
0.6
 40
0.6
 40
0.6
 40
0.7
 40
0.7
 40
0.7
 40
0.7
 40
0.8
 40
0.8
 40
0.8
 40
0.8
 40
1.0
 40
1.0
 40
1.0
 40
1.0
 10
-75.6246
 20
-6.5334
 30
0.0
 10
-75.3317
 20
-6.7292
 30
0.0
 10
-75.0289
 20
-6.8576
 30
0.0
 10
-74.6698
 20
-6.8576
 30
0.0
 10
-74.6698
 20
-6.8576
 30
0.0
 10
-74.4645
 20
-6.8576
 30
0.0
 10
-74.2595
 20
-6.8168
 30
0.0
 10
-74.0698
 20
-6.7382
 30
0.0
 10
-74.0698
 20
-6.7382
 30
0.0
 10
-73.3519
 20
-6.4408
 30
0.0
 10
-72.9538
 20
-5.6339
 30
0.0
 10
-73.155
 20
-4.8832
 30
0.0
 10
-73.155
 20
-4.8832
 30
0.0
 10
-73.2082
 20
-4.6849
 30
0.0
 10
-73.3007
 20
-4.4975
 30
0.0
 10
-73.4257
 20
-4.3344
 30
0.0
 10
-73.4257
 20
-4.3344
 30
0.0
 10
-73.5508
 20
-4.1715
 30
0.0
 10
-73.7078
 20
-4.0337
 30
0.0
 10
-73.8858
 20
-3.931
 30
0.0
 10
-73.8858
 20
-3.931
 30
0.0
 10
-74.1331
 20
-3.7881
 30
0.0
 10
-74.3891
 20
-3.7394
 30
0.0
 10
-74.6698
 20
-3.7209
 30
0.0
 10
-74.6698
 20
-3.7209
 30
0.0
 10
-74.9507
 20
-3.7394
 30
0.0
 10
-75.2067
 20
-3.7881
 30
0.0
 10
-75.454
 20
-3.931
 30
0.0
 10
-75.454
 20
-3.931
 30
0.0
 10
-76.127
 20
-4.3195
 30
0.0
 10
-76.4163
 20
-5.1715
 30
0.0
 10
-76.1188
 20
-5.8893
 30
0.0
 10
-76.1188
 20
-5.8893
 30
0.0
 10
-76.0096
 20
-6.1533
 30
0.0
 10
-75.8362
 20
-6.3479
 30
0.0
 10
-75.6246
 20
-6.5334
 30
0.0
  0
SPLINE
  5
12D
330
1F
100
AcDbEntity
  8
Ilustrace
 62
   250
370
    30
100
AcDbSpline
210
0.0
220
0.0
230
1.0
 70
    24
 71
     3
 72
     8
 73
     4
 74
     0
 42
0.0000000001
 43
0.0000000001
 40
0.0
 40
0.0
 40
0.0
 40
0.0
 40
1.0
 40
1.0
 40
1.0
 40
1.0
 10
-75.2943
 20
-1.4612
 30
0.0
 10
-75.2943
 20
-1.4612
 30
0.0
 10
-75.2943
 20
-3.4373
 30
0.0
 10
-75.2943
 20
-3.4373
 30
0.0
  0
SPLINE
  5
12E
330
1F
100
AcDbEntity
  8
Ilustrace
 62
   250
370
    30
100
AcDbSpline
210
0.0
220
0.0
230
1.0
 70
    24
 71
     3
 72
     8
 73
     4
 74
     0
 42
0.0000000001
 43
0.0000000001
 40
0.0
 40
0.0
 40
0.0
 40
0.0
 40
1.0
 40
1.0
 40
1.0
 40
1.0
 10
-80.2257
 20
-8.53
 30
0.0
 10
-80.2257
 20
-8.53
 30
0.0
 10
-80.2257
 20
5.1278
 30
0.0
 10
-80.2257
 20
5.1278
 30
0.0
  0
SPLINE
  5
12F
330
1F
100
AcDbEntity
  8
Ilustrace
 62
   250
370
    30
100
AcDbSpline
210
0.0
220
0.0
230
1.0
 70
    24
 71
     3
 72
     8
 73
     4
 74
     0
 42
0.0000000001
 43
0.0000000001
 40
0.0
 40
0.0
 40
0.0
 40
0.0
 40
1.0
 40
1.0
 40
1.0
 40
1.0
 10
-41.4293
 20
-8.5306
 30
0.0
 10
-41.4293
 20
-8.5306
 30
0.0
 10
-80.2255
 20
-8.5306
 30
0.0
 10
-80.2255
 20
-8.5306
 30
0.0
  0
SPLINE
  5
130
330
1F
100
AcDbEntity
  8
Ilustrace
 62
   250
370
    30
100
AcDbSpline
210
0.0
220
0.0
230
1.0
 70
     8
 71
     3
 72
    20
 73
    16
 74
     0
 42
0.0000000001
 43
0.0000000001
 40
0.0
 40
0.0
 40
0.0
 40
0.0
 40
0.2
 40
0.2
 40
0.2
 40
0.2
 40
0.4
 40
0.4
 40
0.4
 40
0.4
 40
0.6
 40
0.6
 40
0.6
 40
0.6
 40
1.0
 40
1.0
 40
1.0
 40
1.0
 10
-74.0455
 20
-3.8522
 30
0.0
 10
-74.0455
 20
-3.8522
 30
0.0
 10
-74.0455
 20
-3.3893
 30
0.0
 10
-74.0455
 20
-3.3893
 30
0.0
 10
-74.0455
 20
-3.3893
 30
0.0
 10
-74.0455
 20
-3.3893
 30
0.0
 10
-74.0455
 20
-1.9242
 30
0.0
 10
-74.0455
 20
-1.9242
 30
0.0
 10
-74.0455
 20
-1.9242
 30
0.0
 10
-74.0455
 20
-1.9242
 30
0.0
 10
-74.0455
 20
-1.4612
 30
0.0
 10
-74.0455
 20
-1.4612
 30
0.0
 10
-74.0455
 20
-1.4612
 30
0.0
 10
-74.0455
 20
-1.4612
 30
0.0
 10
-74.0818
 20
-1.3417
 30
0.0
 10
-74.0818
 20
-1.3417
 30
0.0
  0
SPLINE
  5
131
330
1F
100
AcDbEntity
  8
Ilustrace
 62
   250
370
    30
100
AcDbSpline
210
0.0
220
0.0
230
1.0
 70
     8
 71
     3
 72
     8
 73
     4
 74
     0
 42
0.0000000001
 43
0.0000000001
 40
0.0
 40
0.0
 40
0.0
 40
0.0
 40
1.0
 40
1.0
 40
1.0
 40
1.0
 10
-74.0818
 20
-1.3417
 30
0.0
 10
-74.1563
 20
-1.1616
 30
0.0
 10
-74.3424
 20
-0.981
 30
0.0
 10
-74.5457
 20
-0.961
 30
0.0
  0
SPLINE
  5
132
330
1F
100
AcDbEntity
  8
Ilustrace
 62
   250
370
    30
100
AcDbSpline
210
0.0
220
0.0
230
1.0
 70
    24
 71
     3
 72
     8
 73
     4
 74
     0
 42
0.0000000001
 43
0.0000000001
 40
0.0
 40
0.0
 40
0.0
 40
0.0
 40
1.0
 40
1.0
 40
1.0
 40
1.0
 10
-74.5457
 20
-0.961
 30
0.0
 10
-74.5457
 20
-0.961
 30
0.0
 10
-74.7941
 20
-0.961
 30
0.0
 10
-74.7941
 20
-0.961
 30
0.0
  0
SPLINE
  5
133
330
1F
100
AcDbEntity
  8
Ilustrace
 62
   250
370
    30
100
AcDbSpline
210
0.0
220
0.0
230
1.0
 70
     8
 71
     3
 72
     8
 73
     4
 74
     0
 42
0.0000000001
 43
0.0000000001
 40
0.0
 40
0.0
 40
0.0
 40
0.0
 40
1.0
 40
1.0
 40
1.0
 40
1.0
 10
-74.7941
 20
-0.961
 30
0.0
 10
-75.0166
 20
-1.0285
 30
0.0
 10
-75.2779
 20
-1.1969
 30
0.0
 10
-75.2943
 20
-1.4612
 30
0.0
  0
SPLINE
  5
134
330
1F
100
AcDbEntity
  8
Ilustrace
 62
   250
370
    30
100
AcDbSpline
210
0.0
220
0.0
230
1.0
 70
    24
 71
     3
 72
    16
 73
    12
 74
     0
 42
0.0000000001
 43
0.0000000001
 40
0.0
 40
0.0
 40
0.0
 40
0.0
 40
0.25
 40
0.25
 40
0.25
 40
0.25
 40
0.5
 40
0.5
 40
0.5
 40
0.5
 40
1.0
 40
1.0
 40
1.0
 40
1.0
 10
-75.2943
 20
-1.4612
 30
0.0
 10
-75.2943
 20
-1.4612
 30
0.0
 10
-75.2943
 20
-1.9242
 30
0.0
 10
-75.2943
 20
-1.9242
 30
0.0
 10
-75.2943
 20
-1.9242
 30
0.0
 10
-75.2943
 20
-1.9242
 30
0.0
 10
-75.2943
 20
-3.3893
 30
0.0
 10
-75.2943
 20
-3.3893
 30
0.0
 10
-75.2943
 20
-3.3893
 30
0.0
 10
-75.2943
 20
-3.3893
 30
0.0
 10
-75.2943
 20
-3.8522
 30
0.0
 10
-75.2943
 20
-3.8522
 30
0.0
  0
SPLINE
  5
135
330
1F
100
AcDbEntity
  8
Ilustrace
 62
   250
370
    30
100
AcDbSpline
210
0.0
220
0.0
230
1.0
 70
     8
 71
     3
 72
     8
 73
     4
 74
     0
 42
0.0000000001
 43
0.0000000001
 40
0.0
 40
0.0
 40
0.0
 40
0.0
 40
1.0
 40
1.0
 40
1.0
 40
1.0
 10
-74.0455
 20
-6.7262
 30
0.0
 10
-74.0455
 20
-7.0285
 30
0.0
 10
-74.2775
 20
-7.2212
 30
0.0
 10
-74.5457
 20
-7.3024
 30
0.0
  0
SPLINE
  5
136
330
1F
100
AcDbEntity
  8
Ilustrace
 62
   250
370
    30
100
AcDbSpline
210
0.0
220
0.0
230
1.0
 70
    24
 71
     3
 72
     8
 73
     4
 74
     0
 42
0.0000000001
 43
0.0000000001
 40
0.0
 40
0.0
 40
0.0
 40
0.0
 40
1.0
 40
1.0
 40
1.0
 40
1.0
 10
-74.5457
 20
-7.3024
 30
0.0
 10
-74.5457
 20
-7.3024
 30
0.0
 10
-74.7941
 20
-7.3024
 30
0.0
 10
-74.7941
 20
-7.3024
 30
0.0
  0
SPLINE
  5
137
330
1F
100
AcDbEntity
  8
Ilustrace
 62
   250
370
    30
100
AcDbSpline
210
0.0
220
0.0
230
1.0
 70
     8
 71
     3
 72
     8
 73
     4
 74
     0
 42
0.0000000001
 43
0.0000000001
 40
0.0
 40
0.0
 40
0.0
 40
0.0
 40
1.0
 40
1.0
 40
1.0
 40
1.0
 10
-74.7941
 20
-7.3024
 30
0.0
 10
-75.0674
 20
-7.2757
 30
0.0
 10
-75.2943
 20
-6.9879
 30
0.0
 10
-75.2943
 20
-6.7262
 30
0.0
  0
SPLINE
  5
138
330
1F
100
AcDbEntity
  8
Ilustrace
 62
   250
370
    30
100
AcDbSpline
210
0.0
220
0.0
230
1.0
 70
    24
 71
     3
 72
     8
 73
     4
 74
     0
 42
0.0000000001
 43
0.0000000001
 40
0.0
 40
0.0
 40
0.0
 40
0.0
 40
1.0
 40
1.0
 40
1.0
 40
1.0
 10
-80.2257
 20
-8.53
 30
0.0
 10
-80.2257
 20
-8.53
 30
0.0
 10
-80.2257
 20
-12.2339
 30
0.0
 10
-80.2257
 20
-12.2339
 30
0.0
  0
SPLINE
  5
139
330
1F
100
AcDbEntity
  8
Ilustrace
 62
   250
370
    30
100
AcDbSpline
210
0.0
220
0.0
230
1.0
 70
    24
 71
     3
 72
     8
 73
     4
 74
     0
 42
0.0000000001
 43
0.0000000001
 40
0.0
 40
0.0
 40
0.0
 40
0.0
 40
1.0
 40
1.0
 40
1.0
 40
1.0
 10
-74.0455
 20
-3.4373
 30
0.0
 10
-74.0455
 20
-3.4373
 30
0.0
 10
-75.2943
 20
-3.4373
 30
0.0
 10
-75.2943
 20
-3.4373
 30
0.0
  0
SPLINE
  5
13A
330
1F
100
AcDbEntity
  8
Ilustrace
 62
   250
370
    30
100
AcDbSpline
210
0.0
220
0.0
230
1.0
 70
    24
 71
     3
 72
     8
 73
     4
 74
     0
 42
0.0000000001
 43
0.0000000001
 40
0.0
 40
0.0
 40
0.0
 40
0.0
 40
1.0
 40
1.0
 40
1.0
 40
1.0
 10
-75.2943
 20
-6.8024
 30
0.0
 10
-75.2943
 20
-6.8024
 30
0.0
 10
-75.2943
 20
-6.7262
 30
0.0
 10
-75.2943
 20
-6.7262
 30
0.0
  0
SPLINE
  5
13B
330
1F
100
AcDbEntity
  8
Ilustrace
 62
   250
370
    15
100
AcDbSpline
210
0.0
220
0.0
230
1.0
 70
     8
 71
     3
 72
    40
 73
    36
 74
     0
 42
0.0000000001
 43
0.0000000001
 40
0.0
 40
0.0
 40
0.0
 40
0.0
 40
0.1
 40
0.1
 40
0.1
 40
0.1
 40
0.2
 40
0.2
 40
0.2
 40
0.2
 40
0.3
 40
0.3
 40
0.3
 40
0.3
 40
0.4
 40
0.4
 40
0.4
 40
0.4
 40
0.5
 40
0.5
 40
0.5
 40
0.5
 40
0.6
 40
0.6
 40
0.6
 40
0.6
 40
0.7
 40
0.7
 40
0.7
 40
0.7
 40
0.8
 40
0.8
 40
0.8
 40
0.8
 40
1.0
 40
1.0
 40
1.0
 40
1.0
 10
-40.2722
 20
5.1148
 30
0.0
 10
-40.2722
 20
5.1148
 30
0.0
 10
-40.2722
 20
4.9887
 30
0.0
 10
-40.2722
 20
4.9887
 30
0.0
 10
-40.2722
 20
4.9887
 30
0.0
 10
-40.2722
 20
4.2494
 30
0.0
 10
-40.5081
 20
3.747
 30
0.0
 10
-40.5081
 20
3.0544
 30
0.0
 10
-40.5081
 20
3.0544
 30
0.0
 10
-40.5081
 20
3.0544
 30
0.0
 10
-40.5081
 20
2.6547
 30
0.0
 10
-40.5081
 20
2.6547
 30
0.0
 10
-40.5081
 20
2.6547
 30
0.0
 10
-40.5082
 20
0.9133
 30
0.0
 10
-40.5311
 20
-1.5606
 30
0.0
 10
-40.7084
 20
-3.2248
 30
0.0
 10
-40.7084
 20
-3.2248
 30
0.0
 10
-40.7084
 20
-3.2248
 30
0.0
 10
-40.7265
 20
-3.395
 30
0.0
 10
-40.7265
 20
-3.395
 30
0.0
 10
-40.7265
 20
-3.395
 30
0.0
 10
-40.8544
 20
-4.5949
 30
0.0
 10
-40.8066
 20
-5.2591
 30
0.0
 10
-40.9269
 20
-6.4571
 30
0.0
 10
-40.9269
 20
-6.4571
 30
0.0
 10
-40.9925
 20
-7.1107
 30
0.0
 10
-41.0049
 20
-7.8041
 30
0.0
 10
-41.1582
 20
-8.4384
 30
0.0
 10
-41.1582
 20
-8.4384
 30
0.0
 10
-41.3034
 20
-9.0394
 30
0.0
 10
-41.5073
 20
-10.8906
 30
0.0
 10
-41.7297
 20
-11.2627
 30
0.0
 10
-41.7297
 20
-11.2627
 30
0.0
 10
-41.7695
 20
-11.3293
 30
0.0
 10
-41.9656
 20
-12.1017
 30
0.0
 10
-41.9656
 20
-12.2552
 30
0.0
  0
SPLINE
  5
13C
330
1F
100
AcDbEntity
  8
Ilustrace
  6
New Line6
 62
   250
370
    15
100
AcDbSpline
210
0.0
220
0.0
230
1.0
 70
    24
 71
     3
 72
     8
 73
     4
 74
     0
 42
0.0000000001
 43
0.0000000001
 40
0.0
 40
0.0
 40
0.0
 40
0.0
 40
1.0
 40
1.0
 40
1.0
 40
1.0
 10
-74.644
 20
-9.3874
 30
0.0
 10
-74.644
 20
-9.3874
 30
0.0
 10
-74.644
 20
-2.0011
 30
0.0
 10
-74.644
 20
-2.0011
 30
0.0
  0
SPLINE
  5
13E
330
1F
100
AcDbEntity
  8
Ilustrace
  6
New Line7
 62
   250
370
    15
100
AcDbSpline
210
0.0
220
0.0
230
1.0
 70
    24
 71
     3
 72
     8
 73
     4
 74
     0
 42
0.0000000001
 43
0.0000000001
 40
0.0
 40
0.0
 40
0.0
 40
0.0
 40
1.0
 40
1.0
 40
1.0
 40
1.0
 10
-72.1716
 20
-5.2978
 30
0.0
 10
-72.1716
 20
-5.2978
 30
0.0
 10
-76.923
 20
-5.2978
 30
0.0
 10
-76.923
 20
-5.2978
 30
0.0
  0
ENDSEC
  0
SECTION
  2
OBJECTS
  0
DICTIONARY
  5
C
330
0
100
AcDbDictionary
281
     1
  3
ACAD_GROUP
350
D
  3
ACAD_LAYOUT
350
1A
  3
ACAD_MATERIAL
350
3B
  3
ACAD_MLEADERSTYLE
350
142
  3
ACAD_MLINESTYLE
350
17
  3
ACAD_PLOTSETTINGS
350
19
  3
ACAD_PLOTSTYLENAME
350
E
  3
ACAD_SCALELIST
350
45
  3
ACAD_VISUALSTYLE
350
2A
  3
AcDbVariableDictionary
350
140
  0
DICTIONARY
  5
D
102
{ACAD_REACTORS
330
C
102
}
330
C
100
AcDbDictionary
281
     1
  0
DICTIONARY
  5
1A
102
{ACAD_REACTORS
330
C
102
}
330
C
100
AcDbDictionary
281
     1
  3
Layout1
350
1E
  3
Layout2
350
26
  3
Model
350
22
  0
DICTIONARY
  5
3B
102
{ACAD_REACTORS
330
C
102
}
330
C
100
AcDbDictionary
281
     1
  3
ByBlock
350
3D
  3
ByLayer
350
3C
  3
Global
350
3E
  0
DICTIONARY
  5
142
102
{ACAD_REACTORS
330
C
102
}
330
C
100
AcDbDictionary
281
     1
  0
DICTIONARY
  5
17
102
{ACAD_REACTORS
330
C
102
}
330
C
100
AcDbDictionary
281
     1
  3
Standard
350
18
  0
DICTIONARY
  5
19
102
{ACAD_REACTORS
330
C
102
}
330
C
100
AcDbDictionary
281
     1
  0
ACDBDICTIONARYWDFLT
  5
E
102
{ACAD_REACTORS
330
C
102
}
330
C
100
AcDbDictionary
281
     1
  3
Normal
350
F
100
AcDbDictionaryWithDefault
340
F
  0
DICTIONARY
  5
45
102
{ACAD_REACTORS
330
C
102
}
330
C
100
AcDbDictionary
281
     1
  3
A0
350
46
  3
A1
350
47
  3
A2
350
48
  3
A3
350
49
  3
A4
350
4A
  3
A5
350
4B
  3
A6
350
4C
  3
A7
350
4D
  3
A8
350
4E
  3
A9
350
4F
  3
B0
350
50
  3
B1
350
51
  3
B2
350
52
  3
B3
350
53
  3
B4
350
54
  3
B5
350
55
  3
B6
350
56
  3
B7
350
57
  3
B8
350
58
  3
B9
350
59
  3
C0
350
5A
  3
C1
350
5B
  3
C2
350
5C
  3
C3
350
5D
  3
C4
350
5E
  3
C5
350
5F
  3
C6
350
60
  3
C7
350
61
  3
C8
350
62
  3
C9
350
63
  3
D0
350
64
  3
D1
350
65
  3
D2
350
66
  0
DICTIONARY
  5
2A
102
{ACAD_REACTORS
330
C
102
}
330
C
100
AcDbDictionary
281
     1
  3
2dWireframe
350
2F
  3
3D Hidden
350
31
  3
3dWireframe
350
30
  3
Basic
350
32
  3
Brighten
350
36
  3
ColorChange
350
3A
  3
Conceptual
350
34
  3
Dim
350
35
  3
Facepattern
350
39
  3
Flat
350
2B
  3
FlatWithEdges
350
2C
  3
Gouraud
350
2D
  3
GouraudWithEdges
350
2E
  3
Linepattern
350
38
  3
Realistic
350
33
  3
Thicken
350
37
  0
DICTIONARY
  5
140
102
{ACAD_REACTORS
330
C
102
}
330
C
100
AcDbDictionary
281
     1
  3
CANNOSCALE
350
143
  3
DIMASSOC
350
144
  3
HIDETEXT
350
145
  0
LAYOUT
  5
1E
102
{ACAD_REACTORS
330
1A
102
}
330
1A
100
AcDbPlotSettings
  1

  2
none_device
  4

  6

 40
0.0
 41
0.0
 42
0.0
 43
0.0
 44
0.0
 45
0.0
 46
0.0
 47
0.0
 48
0.0
 49
0.0
140
0.0
141
0.0
142
1.0
143
1.0
 70
   688
 72
     0
 73
     0
 74
     5
  7

 75
    16
147
1.0
148
0.0
149
0.0
100
AcDbLayout
  1
Layout1
 70
     1
 71
     1
 10
0.0
 20
0.0
 11
12.0
 21
9.0
 12
0.0
 22
0.0
 32
0.0
 14
1.000000000000000E+20
 24
1.000000000000000E+20
 34
1.000000000000000E+20
 15
-1.000000000000000E+20
 25
-1.000000000000000E+20
 35
-1.000000000000000E+20
146
0.0
 13
0.0
 23
0.0
 33
0.0
 16
1.0
 26
0.0
 36
0.0
 17
0.0
 27
1.0
 37
0.0
 76
     0
330
1B
  0
LAYOUT
  5
26
102
{ACAD_REACTORS
330
1A
102
}
330
1A
100
AcDbPlotSettings
  1

  2
none_device
  4

  6

 40
0.0
 41
0.0
 42
0.0
 43
0.0
 44
0.0
 45
0.0
 46
0.0
 47
0.0
 48
0.0
 49
0.0
140
0.0
141
0.0
142
1.0
143
1.0
 70
   688
 72
     0
 73
     0
 74
     5
  7

 75
    16
147
1.0
148
0.0
149
0.0
100
AcDbLayout
  1
Layout2
 70
     1
 71
     2
 10
0.0
 20
0.0
 11
0.0
 21
0.0
 12
0.0
 22
0.0
 32
0.0
 14
0.0
 24
0.0
 34
0.0
 15
0.0
 25
0.0
 35
0.0
146
0.0
 13
0.0
 23
0.0
 33
0.0
 16
1.0
 26
0.0
 36
0.0
 17
0.0
 27
1.0
 37
0.0
 76
     0
330
23
  0
LAYOUT
  5
22
102
{ACAD_REACTORS
330
1A
102
}
330
1A
100
AcDbPlotSettings
  1

  2
none_device
  4

  6

 40
0.0
 41
0.0
 42
0.0
 43
0.0
 44
0.0
 45
0.0
 46
0.0
 47
0.0
 48
0.0
 49
0.0
140
0.0
141
0.0
142
1.0
143
1.0
 70
  1712
 72
     0
 73
     0
 74
     0
  7

 75
     0
147
1.0
148
0.0
149
0.0
100
AcDbLayout
  1
Model
 70
     1
 71
     0
 10
0.0
 20
0.0
 11
12.0
 21
9.0
 12
0.0
 22
0.0
 32
0.0
 14
-80.4442
 24
-12.375
 34
0.0
 15
80.3031
 25
12.2751
 35
0.0
146
0.0
 13
0.0
 23
0.0
 33
0.0
 16
1.0
 26
0.0
 36
0.0
 17
0.0
 27
1.0
 37
0.0
 76
     0
330
1F
331
29
  0
MATERIAL
  5
3D
102
{ACAD_REACTORS
330
3B
102
}
102
{ACAD_XDICTIONARY
360
168
102
}
330
3B
100
AcDbMaterial
  1
ByBlock
  0
MATERIAL
  5
3C
102
{ACAD_REACTORS
330
3B
102
}
102
{ACAD_XDICTIONARY
360
166
102
}
330
3B
100
AcDbMaterial
  1
ByLayer
  0
MATERIAL
  5
3E
102
{ACAD_REACTORS
330
3B
102
}
102
{ACAD_XDICTIONARY
360
16A
102
}
330
3B
100
AcDbMaterial
  1
Global
  0
MLINESTYLE
  5
18
102
{ACAD_REACTORS
330
17
102
}
330
17
100
AcDbMlineStyle
  2
Standard
 70
     0
  3

 62
   256
 51
90.0
 52
90.0
 71
     2
 49
0.5
 62
   256
  6
BYLAYER
 49
-0.5
 62
   256
  6
BYLAYER
  0
ACDBPLACEHOLDER
  5
F
102
{ACAD_REACTORS
330
E
102
}
330
E
  0
SCALE
  5
46
102
{ACAD_REACTORS
330
45
102
}
330
45
100
AcDbScale
 70
     0
300
1:1
140
1.0
141
1.0
290
     1
  0
SCALE
  5
47
102
{ACAD_REACTORS
330
45
102
}
330
45
100
AcDbScale
 70
     0
300
1:2
140
1.0
141
2.0
290
     0
  0
SCALE
  5
48
102
{ACAD_REACTORS
330
45
102
}
330
45
100
AcDbScale
 70
     0
300
1:4
140
1.0
141
4.0
290
     0
  0
SCALE
  5
49
102
{ACAD_REACTORS
330
45
102
}
330
45
100
AcDbScale
 70
     0
300
1:5
140
1.0
141
5.0
290
     0
  0
SCALE
  5
4A
102
{ACAD_REACTORS
330
45
102
}
330
45
100
AcDbScale
 70
     0
300
1:8
140
1.0
141
8.0
290
     0
  0
SCALE
  5
4B
102
{ACAD_REACTORS
330
45
102
}
330
45
100
AcDbScale
 70
     0
300
1:10
140
1.0
141
10.0
290
     0
  0
SCALE
  5
4C
102
{ACAD_REACTORS
330
45
102
}
330
45
100
AcDbScale
 70
     0
300
1:16
140
1.0
141
16.0
290
     0
  0
SCALE
  5
4D
102
{ACAD_REACTORS
330
45
102
}
330
45
100
AcDbScale
 70
     0
300
1:20
140
1.0
141
20.0
290
     0
  0
SCALE
  5
4E
102
{ACAD_REACTORS
330
45
102
}
330
45
100
AcDbScale
 70
     0
300
1:30
140
1.0
141
30.0
290
     0
  0
SCALE
  5
4F
102
{ACAD_REACTORS
330
45
102
}
330
45
100
AcDbScale
 70
     0
300
1:40
140
1.0
141
40.0
290
     0
  0
SCALE
  5
50
102
{ACAD_REACTORS
330
45
102
}
330
45
100
AcDbScale
 70
     0
300
1:50
140
1.0
141
50.0
290
     0
  0
SCALE
  5
51
102
{ACAD_REACTORS
330
45
102
}
330
45
100
AcDbScale
 70
     0
300
1:100
140
1.0
141
100.0
290
     0
  0
SCALE
  5
52
102
{ACAD_REACTORS
330
45
102
}
330
45
100
AcDbScale
 70
     0
300
2:1
140
2.0
141
1.0
290
     0
  0
SCALE
  5
53
102
{ACAD_REACTORS
330
45
102
}
330
45
100
AcDbScale
 70
     0
300
4:1
140
4.0
141
1.0
290
     0
  0
SCALE
  5
54
102
{ACAD_REACTORS
330
45
102
}
330
45
100
AcDbScale
 70
     0
300
8:1
140
8.0
141
1.0
290
     0
  0
SCALE
  5
55
102
{ACAD_REACTORS
330
45
102
}
330
45
100
AcDbScale
 70
     0
300
10:1
140
10.0
141
1.0
290
     0
  0
SCALE
  5
56
102
{ACAD_REACTORS
330
45
102
}
330
45
100
AcDbScale
 70
     0
300
100:1
140
100.0
141
1.0
290
     0
  0
SCALE
  5
57
102
{ACAD_REACTORS
330
45
102
}
330
45
100
AcDbScale
 70
     0
300
1/128" = 1'-0"
140
0.0078125
141
12.0
290
     0
  0
SCALE
  5
58
102
{ACAD_REACTORS
330
45
102
}
330
45
100
AcDbScale
 70
     0
300
1/64" = 1'-0"
140
0.015625
141
12.0
290
     0
  0
SCALE
  5
59
102
{ACAD_REACTORS
330
45
102
}
330
45
100
AcDbScale
 70
     0
300
1/32" = 1'-0"
140
0.03125
141
12.0
290
     0
  0
SCALE
  5
5A
102
{ACAD_REACTORS
330
45
102
}
330
45
100
AcDbScale
 70
     0
300
1/16" = 1'-0"
140
0.0625
141
12.0
290
     0
  0
SCALE
  5
5B
102
{ACAD_REACTORS
330
45
102
}
330
45
100
AcDbScale
 70
     0
300
3/32" = 1'-0"
140
0.09375
141
12.0
290
     0
  0
SCALE
  5
5C
102
{ACAD_REACTORS
330
45
102
}
330
45
100
AcDbScale
 70
     0
300
1/8" = 1'-0"
140
0.125
141
12.0
290
     0
  0
SCALE
  5
5D
102
{ACAD_REACTORS
330
45
102
}
330
45
100
AcDbScale
 70
     0
300
3/16" = 1'-0"
140
0.1875
141
12.0
290
     0
  0
SCALE
  5
5E
102
{ACAD_REACTORS
330
45
102
}
330
45
100
AcDbScale
 70
     0
300
1/4" = 1'-0"
140
0.25
141
12.0
290
     0
  0
SCALE
  5
5F
102
{ACAD_REACTORS
330
45
102
}
330
45
100
AcDbScale
 70
     0
300
3/8" = 1'-0"
140
0.375
141
12.0
290
     0
  0
SCALE
  5
60
102
{ACAD_REACTORS
330
45
102
}
330
45
100
AcDbScale
 70
     0
300
1/2" = 1'-0"
140
0.5
141
12.0
290
     0
  0
SCALE
  5
61
102
{ACAD_REACTORS
330
45
102
}
330
45
100
AcDbScale
 70
     0
300
3/4" = 1'-0"
140
0.75
141
12.0
290
     0
  0
SCALE
  5
62
102
{ACAD_REACTORS
330
45
102
}
330
45
100
AcDbScale
 70
     0
300
1" = 1'-0"
140
1.0
141
12.0
290
     0
  0
SCALE
  5
63
102
{ACAD_REACTORS
330
45
102
}
330
45
100
AcDbScale
 70
     0
300
1-1/2" = 1'-0"
140
1.5
141
12.0
290
     0
  0
SCALE
  5
64
102
{ACAD_REACTORS
330
45
102
}
330
45
100
AcDbScale
 70
     0
300
3" = 1'-0"
140
3.0
141
12.0
290
     0
  0
SCALE
  5
65
102
{ACAD_REACTORS
330
45
102
}
330
45
100
AcDbScale
 70
     0
300
6" = 1'-0"
140
6.0
141
12.0
290
     0
  0
SCALE
  5
66
102
{ACAD_REACTORS
330
45
102
}
330
45
100
AcDbScale
 70
     0
300
1'-0" = 1'-0"
140
12.0
141
12.0
290
     0
  0
VISUALSTYLE
  5
2F
102
{ACAD_REACTORS
330
2A
102
}
102
{ACAD_XDICTIONARY
360
14E
102
}
330
2A
100
AcDbVisualStyle
  2
2dWireframe
 70
     4
 71
     0
 72
     2
 73
     0
 90
        0
 40
-0.6
 41
-30.0
 62
     5
 63
     7
 74
     1
 91
        4
 64
     7
 65
   257
 75
     1
175
     1
 42
1.0
 92
        0
 66
   257
 43
1.0
 76
     1
 77
     6
 78
     2
 67
     7
 79
     5
170
     0
171
     0
290
     0
174
     0
 93
        1
 44
0.0
173
     0
291
     0
 45
0.0
1001
ACAD
1000
AcDbSavedByObjectVersion
1070
     0
  0
VISUALSTYLE
  5
31
102
{ACAD_REACTORS
330
2A
102
}
102
{ACAD_XDICTIONARY
360
152
102
}
330
2A
100
AcDbVisualStyle
  2
3D Hidden
 70
     6
 71
     1
 72
     2
 73
     2
 90
        0
 40
-0.6
 41
-30.0
 62
     5
 63
     7
 74
     2
 91
        2
 64
     7
 65
   257
 75
     2
175
     1
 42
40.0
 92
        0
 66
   257
 43
1.0
 76
     1
 77
     6
 78
     2
 67
     7
 79
     3
170
     0
171
     0
290
     0
174
     0
 93
        1
 44
0.0
173
     0
291
     0
 45
0.0
1001
ACAD
1000
AcDbSavedByObjectVersion
1070
     0
  0
VISUALSTYLE
  5
30
102
{ACAD_REACTORS
330
2A
102
}
102
{ACAD_XDICTIONARY
360
150
102
}
330
2A
100
AcDbVisualStyle
  2
3dWireframe
 70
     5
 71
     0
 72
     2
 73
     0
 90
        0
 40
-0.6
 41
-30.0
 62
     5
 63
     7
 74
     1
 91
        4
 64
     7
 65
   257
 75
     1
175
     1
 42
1.0
 92
        0
 66
   257
 43
1.0
 76
     1
 77
     6
 78
     2
 67
     7
 79
     5
170
     0
171
     0
290
     0
174
     0
 93
        1
 44
0.0
173
     0
291
     0
 45
0.0
1001
ACAD
1000
AcDbSavedByObjectVersion
1070
     0
  0
VISUALSTYLE
  5
32
102
{ACAD_REACTORS
330
2A
102
}
102
{ACAD_XDICTIONARY
360
154
102
}
330
2A
100
AcDbVisualStyle
  2
Basic
 70
     7
 71
     1
 72
     0
 73
     1
 90
        0
 40
-0.6
 41
-30.0
 62
     5
 63
     7
 74
     0
 91
        4
 64
     7
 65
   257
 75
     1
175
     1
 42
1.0
 92
        8
 66
     7
 43
1.0
 76
     1
 77
     6
 78
     2
 67
     7
 79
     5
170
     0
171
     0
290
     0
174
     0
 93
        1
 44
0.0
173
     0
291
     1
 45
0.0
1001
ACAD
1000
AcDbSavedByObjectVersion
1070
     0
  0
VISUALSTYLE
  5
36
102
{ACAD_REACTORS
330
2A
102
}
102
{ACAD_XDICTIONARY
360
15C
102
}
330
2A
100
AcDbVisualStyle
  2
Brighten
 70
    12
 71
     2
 72
     2
 73
     0
 90
        0
 40
-0.6
 41
-30.0
 62
     5
 63
     7
 74
     1
 91
        4
 64
     7
 65
   257
 75
     1
175
     1
 42
1.0
 92
        8
 66
     7
 43
1.0
 76
     1
 77
     6
 78
     2
 67
     7
 79
     5
170
     0
171
     0
290
     0
174
     0
 93
        1
 44
50.0
173
     0
291
     1
 45
0.0
1001
ACAD
1000
AcDbSavedByObjectVersion
1070
     0
  0
VISUALSTYLE
  5
3A
102
{ACAD_REACTORS
330
2A
102
}
102
{ACAD_XDICTIONARY
360
164
102
}
330
2A
100
AcDbVisualStyle
  2
ColorChange
 70
    16
 71
     2
 72
     2
 73
     3
 90
        0
 40
-0.6
 41
-30.0
 62
     5
 63
     8
 74
     1
 91
        4
 64
     7
 65
   257
 75
     1
175
     1
 42
1.0
 92
        8
 66
     8
 43
1.0
 76
     1
 77
     6
 78
     2
 67
     7
 79
     5
170
     0
171
     0
290
     0
174
     0
 93
        1
 44
0.0
173
     0
291
     1
 45
0.0
1001
ACAD
1000
AcDbSavedByObjectVersion
1070
     0
  0
VISUALSTYLE
  5
34
102
{ACAD_REACTORS
330
2A
102
}
102
{ACAD_XDICTIONARY
360
158
102
}
330
2A
100
AcDbVisualStyle
  2
Conceptual
 70
     9
 71
     3
 72
     2
 73
     0
 90
        0
 40
-0.6
 41
-30.0
 62
     5
 63
     7
 74
     2
 91
        2
 64
     7
 65
   257
 75
     1
175
     1
 42
40.0
 92
        8
 66
     7
 43
1.0
 76
     1
 77
     6
 78
     2
 67
     7
 79
     3
170
     0
171
     0
290
     0
174
     0
 93
        1
 44
0.0
173
     0
291
     0
 45
0.0
1001
ACAD
1000
AcDbSavedByObjectVersion
1070
     0
  0
VISUALSTYLE
  5
35
102
{ACAD_REACTORS
330
2A
102
}
102
{ACAD_XDICTIONARY
360
15A
102
}
330
2A
100
AcDbVisualStyle
  2
Dim
 70
    11
 71
     2
 72
     2
 73
     0
 90
        0
 40
-0.6
 41
-30.0
 62
     5
 63
     7
 74
     1
 91
        4
 64
     7
 65
   257
 75
     1
175
     1
 42
1.0
 92
        8
 66
     7
 43
1.0
 76
     1
 77
     6
 78
     2
 67
     7
 79
     5
170
     0
171
     0
290
     0
174
     0
 93
        1
 44
-50.0
173
     0
291
     1
 45
0.0
1001
ACAD
1000
AcDbSavedByObjectVersion
1070
     0
  0
VISUALSTYLE
  5
39
102
{ACAD_REACTORS
330
2A
102
}
102
{ACAD_XDICTIONARY
360
162
102
}
330
2A
100
AcDbVisualStyle
  2
Facepattern
 70
    15
 71
     2
 72
     2
 73
     0
 90
        0
 40
-0.6
 41
-30.0
 62
     5
 63
     7
 74
     1
 91
        4
 64
     7
 65
   257
 75
     1
175
     1
 42
1.0
 92
        8
 66
     7
 43
1.0
 76
     1
 77
     6
 78
     2
 67
     7
 79
     5
170
     0
171
     0
290
     0
174
     0
 93
        1
 44
0.0
173
     0
291
     1
 45
0.0
1001
ACAD
1000
AcDbSavedByObjectVersion
1070
     0
  0
VISUALSTYLE
  5
2B
102
{ACAD_REACTORS
330
2A
102
}
102
{ACAD_XDICTIONARY
360
146
102
}
330
2A
100
AcDbVisualStyle
  2
Flat
 70
     0
 71
     2
 72
     1
 73
     1
 90
        2
 40
-0.6
 41
30.0
 62
     5
 63
     7
 74
     0
 91
        4
 64
     7
 65
   257
 75
     1
175
     1
 42
1.0
 92
        8
 66
     7
 43
1.0
 76
     1
 77
     6
 78
     2
 67
     7
 79
     5
170
     0
171
     0
290
     0
174
     0
 93
       13
 44
0.0
173
     0
291
     1
 45
0.0
1001
ACAD
1000
AcDbSavedByObjectVersion
1070
     0
  0
VISUALSTYLE
  5
2C
102
{ACAD_REACTORS
330
2A
102
}
102
{ACAD_XDICTIONARY
360
148
102
}
330
2A
100
AcDbVisualStyle
  2
FlatWithEdges
 70
     1
 71
     2
 72
     1
 73
     1
 90
        2
 40
-0.6
 41
30.0
 62
     5
 63
     7
 74
     1
 91
        4
 64
     7
 65
   257
 75
     1
175
     1
 42
1.0
 92
        0
 66
   257
 43
1.0
 76
     1
 77
     6
 78
     2
 67
     7
 79
     5
170
     0
171
     0
290
     0
174
     0
 93
       13
 44
0.0
173
     0
291
     1
 45
0.0
1001
ACAD
1000
AcDbSavedByObjectVersion
1070
     0
  0
VISUALSTYLE
  5
2D
102
{ACAD_REACTORS
330
2A
102
}
102
{ACAD_XDICTIONARY
360
14A
102
}
330
2A
100
AcDbVisualStyle
  2
Gouraud
 70
     2
 71
     2
 72
     2
 73
     1
 90
        2
 40
-0.6
 41
30.0
 62
     5
 63
     7
 74
     0
 91
        4
 64
     7
 65
   257
 75
     1
175
     1
 42
1.0
 92
        0
 66
     7
 43
1.0
 76
     1
 77
     6
 78
     2
 67
     7
 79
     5
170
     0
171
     0
290
     0
174
     0
 93
       13
 44
0.0
173
     0
291
     1
 45
0.0
1001
ACAD
1000
AcDbSavedByObjectVersion
1070
     0
  0
VISUALSTYLE
  5
2E
102
{ACAD_REACTORS
330
2A
102
}
102
{ACAD_XDICTIONARY
360
14C
102
}
330
2A
100
AcDbVisualStyle
  2
GouraudWithEdges
 70
     3
 71
     2
 72
     2
 73
     1
 90
        2
 40
-0.6
 41
30.0
 62
     5
 63
     7
 74
     1
 91
        4
 64
     7
 65
   257
 75
     1
175
     1
 42
1.0
 92
        0
 66
   257
 43
1.0
 76
     1
 77
     6
 78
     2
 67
     7
 79
     5
170
     0
171
     0
290
     0
174
     0
 93
       13
 44
0.0
173
     0
291
     1
 45
0.0
1001
ACAD
1000
AcDbSavedByObjectVersion
1070
     0
  0
VISUALSTYLE
  5
38
102
{ACAD_REACTORS
330
2A
102
}
102
{ACAD_XDICTIONARY
360
160
102
}
330
2A
100
AcDbVisualStyle
  2
Linepattern
 70
    14
 71
     2
 72
     2
 73
     0
 90
        0
 40
-0.6
 41
-30.0
 62
     5
 63
     7
 74
     1
 91
        4
 64
     7
 65
   257
 75
     7
175
     7
 42
1.0
 92
        8
 66
     7
 43
1.0
 76
     1
 77
     6
 78
     2
 67
     7
 79
     5
170
     0
171
     0
290
     0
174
     0
 93
        1
 44
0.0
173
     0
291
     1
 45
0.0
1001
ACAD
1000
AcDbSavedByObjectVersion
1070
     0
  0
VISUALSTYLE
  5
33
102
{ACAD_REACTORS
330
2A
102
}
102
{ACAD_XDICTIONARY
360
156
102
}
330
2A
100
AcDbVisualStyle
  2
Realistic
 70
     8
 71
     2
 72
     2
 73
     0
 90
        0
 40
-0.6
 41
-30.0
 62
     5
 63
     7
 74
     1
 91
        0
 64
     7
 65
   257
 75
     1
175
     1
 42
1.0
 92
        8
 66
     8
 43
1.0
 76
     1
 77
     6
 78
     2
 67
     7
 79
     5
170
     0
171
     0
290
     0
174
     0
 93
       13
 44
0.0
173
     0
291
     0
 45
0.0
1001
ACAD
1000
AcDbSavedByObjectVersion
1070
     0
  0
VISUALSTYLE
  5
37
102
{ACAD_REACTORS
330
2A
102
}
102
{ACAD_XDICTIONARY
360
15E
102
}
330
2A
100
AcDbVisualStyle
  2
Thicken
 70
    13
 71
     2
 72
     2
 73
     0
 90
        0
 40
-0.6
 41
-30.0
 62
     5
 63
     7
 74
     1
 91
        4
 64
     7
 65
   257
 75
     1
175
     1
 42
1.0
 92
       12
 66
     7
 43
1.0
 76
     1
 77
     6
 78
     2
 67
     7
 79
     5
170
     0
171
     0
290
     0
174
     0
 93
        1
 44
0.0
173
     0
291
     1
 45
0.0
1001
ACAD
1000
AcDbSavedByObjectVersion
1070
     0
  0
DICTIONARYVAR
  5
143
102
{ACAD_REACTORS
330
140
102
}
330
140
100
DictionaryVariables
280
     0
  1
1:1
  0
DICTIONARYVAR
  5
144
102
{ACAD_REACTORS
330
140
102
}
330
140
100
DictionaryVariables
280
     0
  1
2
  0
DICTIONARYVAR
  5
145
102
{ACAD_REACTORS
330
140
102
}
330
140
100
DictionaryVariables
280
     0
  1
1
  0
DICTIONARY
  5
168
330
3D
100
AcDbDictionary
280
     1
281
     1
  3
ACAD_XREC_ROUNDTRIP
360
169
  0
DICTIONARY
  5
166
330
3C
100
AcDbDictionary
280
     1
281
     1
  3
ACAD_XREC_ROUNDTRIP
360
167
  0
DICTIONARY
  5
16A
330
3E
100
AcDbDictionary
280
     1
281
     1
  3
ACAD_XREC_ROUNDTRIP
360
16B
  0
DICTIONARY
  5
14E
330
2F
100
AcDbDictionary
280
     1
281
     1
  3
ACAD_XREC_ROUNDTRIP
360
14F
  0
DICTIONARY
  5
152
330
31
100
AcDbDictionary
280
     1
281
     1
  3
ACAD_XREC_ROUNDTRIP
360
153
  0
DICTIONARY
  5
150
330
30
100
AcDbDictionary
280
     1
281
     1
  3
ACAD_XREC_ROUNDTRIP
360
151
  0
DICTIONARY
  5
154
330
32
100
AcDbDictionary
280
     1
281
     1
  3
ACAD_XREC_ROUNDTRIP
360
155
  0
DICTIONARY
  5
15C
330
36
100
AcDbDictionary
280
     1
281
     1
  3
ACAD_XREC_ROUNDTRIP
360
15D
  0
DICTIONARY
  5
164
330
3A
100
AcDbDictionary
280
     1
281
     1
  3
ACAD_XREC_ROUNDTRIP
360
165
  0
DICTIONARY
  5
158
330
34
100
AcDbDictionary
280
     1
281
     1
  3
ACAD_XREC_ROUNDTRIP
360
159
  0
DICTIONARY
  5
15A
330
35
100
AcDbDictionary
280
     1
281
     1
  3
ACAD_XREC_ROUNDTRIP
360
15B
  0
DICTIONARY
  5
162
330
39
100
AcDbDictionary
280
     1
281
     1
  3
ACAD_XREC_ROUNDTRIP
360
163
  0
DICTIONARY
  5
146
330
2B
100
AcDbDictionary
280
     1
281
     1
  3
ACAD_XREC_ROUNDTRIP
360
147
  0
DICTIONARY
  5
148
330
2C
100
AcDbDictionary
280
     1
281
     1
  3
ACAD_XREC_ROUNDTRIP
360
149
  0
DICTIONARY
  5
14A
330
2D
100
AcDbDictionary
280
     1
281
     1
  3
ACAD_XREC_ROUNDTRIP
360
14B
  0
DICTIONARY
  5
14C
330
2E
100
AcDbDictionary
280
     1
281
     1
  3
ACAD_XREC_ROUNDTRIP
360
14D
  0
DICTIONARY
  5
160
330
38
100
AcDbDictionary
280
     1
281
     1
  3
ACAD_XREC_ROUNDTRIP
360
161
  0
DICTIONARY
  5
156
330
33
100
AcDbDictionary
280
     1
281
     1
  3
ACAD_XREC_ROUNDTRIP
360
157
  0
DICTIONARY
  5
15E
330
37
100
AcDbDictionary
280
     1
281
     1
  3
ACAD_XREC_ROUNDTRIP
360
15F
  0
XRECORD
  5
169
102
{ACAD_REACTORS
330
168
102
}
330
168
100
AcDbXrecord
280
     1
102
MATERIAL
148
0.0
149
0.0
149
0.0
 93
        0
 94
      127
282
     0
 72
     1
 77
     1
171
     1
175
     1
179
     1
273
     0
  0
XRECORD
  5
167
102
{ACAD_REACTORS
330
166
102
}
330
166
100
AcDbXrecord
280
     1
102
MATERIAL
148
0.0
149
0.0
149
0.0
 93
        0
 94
      127
282
     0
 72
     1
 77
     1
171
     1
175
     1
179
     1
273
     0
  0
XRECORD
  5
16B
102
{ACAD_REACTORS
330
16A
102
}
330
16A
100
AcDbXrecord
280
     1
102
MATERIAL
148
0.0
149
0.0
149
0.0
 93
        0
 94
      127
282
     0
 72
     1
 77
     1
171
     1
175
     1
179
     1
273
     0
  0
XRECORD
  5
14F
102
{ACAD_REACTORS
330
14E
102
}
330
14E
100
AcDbXrecord
280
     1
102
RTVSPropertyOp0
 70
     1
102
RTVSPropertyOp1
 70
     1
102
RTVSPropertyOp2
 70
     1
102
RTVSPropertyOp3
 70
     1
102
RTVSPropertyOp4
 70
     1
102
RTVSPropertyOp5
 70
     1
102
RTVSPropertyOp6
 70
     1
102
RTVSPropertyOp7
 70
     1
102
RTVSPropertyOp8
 70
     1
102
RTVSPropertyOp9
 70
     1
102
RTVSPropertyOp10
 70
     1
102
RTVSPropertyOp11
 70
     1
102
RTVSPropertyOp12
 70
     1
102
RTVSPropertyOp13
 70
     1
102
RTVSPropertyOp14
 70
     1
102
RTVSPropertyOp15
 70
     1
102
RTVSPropertyOp16
 70
     1
102
RTVSPropertyOp17
 70
     1
102
RTVSPropertyOp18
 70
     1
102
RTVSPropertyOp19
 70
     1
102
RTVSPropertyOp20
 70
     1
102
RTVSPropertyOp21
 70
     1
102
RTVSPropertyOp22
 70
     1
102
RTVSPropertyOp23
 70
     1
102
RTVSPropertyOp24
 70
     1
102
RTVSPropertyOp25
 70
     1
102
RTVSPropertyOp26
 70
     1
102
RTVSPropertyOp27
 70
     1
  0
XRECORD
  5
153
102
{ACAD_REACTORS
330
152
102
}
330
152
100
AcDbXrecord
280
     1
102
RTVSPropertyOp0
 70
     1
102
RTVSPropertyOp1
 70
     1
102
RTVSPropertyOp2
 70
     1
102
RTVSPropertyOp3
 70
     1
102
RTVSPropertyOp4
 70
     1
102
RTVSPropertyOp5
 70
     1
102
RTVSPropertyOp6
 70
     1
102
RTVSPropertyOp7
 70
     1
102
RTVSPropertyOp8
 70
     1
102
RTVSPropertyOp9
 70
     1
102
RTVSPropertyOp10
 70
     1
102
RTVSPropertyOp11
 70
     1
102
RTVSPropertyOp12
 70
     1
102
RTVSPropertyOp13
 70
     1
102
RTVSPropertyOp14
 70
     1
102
RTVSPropertyOp15
 70
     1
102
RTVSPropertyOp16
 70
     1
102
RTVSPropertyOp17
 70
     1
102
RTVSPropertyOp18
 70
     1
102
RTVSPropertyOp19
 70
     1
102
RTVSPropertyOp20
 70
     1
102
RTVSPropertyOp21
 70
     1
102
RTVSPropertyOp22
 70
     1
102
RTVSPropertyOp23
 70
     1
102
RTVSPropertyOp24
 70
     1
102
RTVSPropertyOp25
 70
     1
102
RTVSPropertyOp26
 70
     1
102
RTVSPropertyOp27
 70
     1
  0
XRECORD
  5
151
102
{ACAD_REACTORS
330
150
102
}
330
150
100
AcDbXrecord
280
     1
102
RTVSPropertyOp0
 70
     1
102
RTVSPropertyOp1
 70
     1
102
RTVSPropertyOp2
 70
     1
102
RTVSPropertyOp3
 70
     1
102
RTVSPropertyOp4
 70
     1
102
RTVSPropertyOp5
 70
     1
102
RTVSPropertyOp6
 70
     1
102
RTVSPropertyOp7
 70
     1
102
RTVSPropertyOp8
 70
     1
102
RTVSPropertyOp9
 70
     1
102
RTVSPropertyOp10
 70
     1
102
RTVSPropertyOp11
 70
     1
102
RTVSPropertyOp12
 70
     1
102
RTVSPropertyOp13
 70
     1
102
RTVSPropertyOp14
 70
     1
102
RTVSPropertyOp15
 70
     1
102
RTVSPropertyOp16
 70
     1
102
RTVSPropertyOp17
 70
     1
102
RTVSPropertyOp18
 70
     1
102
RTVSPropertyOp19
 70
     1
102
RTVSPropertyOp20
 70
     1
102
RTVSPropertyOp21
 70
     1
102
RTVSPropertyOp22
 70
     1
102
RTVSPropertyOp23
 70
     1
102
RTVSPropertyOp24
 70
     1
102
RTVSPropertyOp25
 70
     1
102
RTVSPropertyOp26
 70
     1
102
RTVSPropertyOp27
 70
     1
  0
XRECORD
  5
155
102
{ACAD_REACTORS
330
154
102
}
330
154
100
AcDbXrecord
280
     1
102
RTVSPropertyOp0
 70
     1
102
RTVSPropertyOp1
 70
     1
102
RTVSPropertyOp2
 70
     1
102
RTVSPropertyOp3
 70
     1
102
RTVSPropertyOp4
 70
     1
102
RTVSPropertyOp5
 70
     1
102
RTVSPropertyOp6
 70
     1
102
RTVSPropertyOp7
 70
     1
102
RTVSPropertyOp8
 70
     1
102
RTVSPropertyOp9
 70
     1
102
RTVSPropertyOp10
 70
     1
102
RTVSPropertyOp11
 70
     1
102
RTVSPropertyOp12
 70
     1
102
RTVSPropertyOp13
 70
     1
102
RTVSPropertyOp14
 70
     1
102
RTVSPropertyOp15
 70
     1
102
RTVSPropertyOp16
 70
     1
102
RTVSPropertyOp17
 70
     1
102
RTVSPropertyOp18
 70
     1
102
RTVSPropertyOp19
 70
     1
102
RTVSPropertyOp20
 70
     1
102
RTVSPropertyOp21
 70
     1
102
RTVSPropertyOp22
 70
     1
102
RTVSPropertyOp23
 70
     1
102
RTVSPropertyOp24
 70
     1
102
RTVSPropertyOp25
 70
     1
102
RTVSPropertyOp26
 70
     1
102
RTVSPropertyOp27
 70
     1
  0
XRECORD
  5
15D
102
{ACAD_REACTORS
330
15C
102
}
330
15C
100
AcDbXrecord
280
     1
102
RTVSPropertyOp0
 70
     1
102
RTVSPropertyOp1
 70
     1
102
RTVSPropertyOp2
 70
     1
102
RTVSPropertyOp3
 70
     1
102
RTVSPropertyOp4
 70
     1
102
RTVSPropertyOp5
 70
     1
102
RTVSPropertyOp6
 70
     1
102
RTVSPropertyOp7
 70
     1
102
RTVSPropertyOp8
 70
     1
102
RTVSPropertyOp9
 70
     1
102
RTVSPropertyOp10
 70
     1
102
RTVSPropertyOp11
 70
     1
102
RTVSPropertyOp12
 70
     1
102
RTVSPropertyOp13
 70
     1
102
RTVSPropertyOp14
 70
     1
102
RTVSPropertyOp15
 70
     1
102
RTVSPropertyOp16
 70
     1
102
RTVSPropertyOp17
 70
     1
102
RTVSPropertyOp18
 70
     1
102
RTVSPropertyOp19
 70
     1
102
RTVSPropertyOp20
 70
     1
102
RTVSPropertyOp21
 70
     1
102
RTVSPropertyOp22
 70
     1
102
RTVSPropertyOp23
 70
     1
102
RTVSPropertyOp24
 70
     1
102
RTVSPropertyOp25
 70
     1
102
RTVSPropertyOp26
 70
     1
102
RTVSPropertyOp27
 70
     1
  0
XRECORD
  5
165
102
{ACAD_REACTORS
330
164
102
}
330
164
100
AcDbXrecord
280
     1
102
RTVSPropertyOp0
 70
     1
102
RTVSPropertyOp1
 70
     1
102
RTVSPropertyOp2
 70
     1
102
RTVSPropertyOp3
 70
     1
102
RTVSPropertyOp4
 70
     1
102
RTVSPropertyOp5
 70
     1
102
RTVSPropertyOp6
 70
     1
102
RTVSPropertyOp7
 70
     1
102
RTVSPropertyOp8
 70
     1
102
RTVSPropertyOp9
 70
     1
102
RTVSPropertyOp10
 70
     1
102
RTVSPropertyOp11
 70
     1
102
RTVSPropertyOp12
 70
     1
102
RTVSPropertyOp13
 70
     1
102
RTVSPropertyOp14
 70
     1
102
RTVSPropertyOp15
 70
     1
102
RTVSPropertyOp16
 70
     1
102
RTVSPropertyOp17
 70
     1
102
RTVSPropertyOp18
 70
     1
102
RTVSPropertyOp19
 70
     1
102
RTVSPropertyOp20
 70
     1
102
RTVSPropertyOp21
 70
     1
102
RTVSPropertyOp22
 70
     1
102
RTVSPropertyOp23
 70
     1
102
RTVSPropertyOp24
 70
     1
102
RTVSPropertyOp25
 70
     1
102
RTVSPropertyOp26
 70
     1
102
RTVSPropertyOp27
 70
     1
  0
XRECORD
  5
159
102
{ACAD_REACTORS
330
158
102
}
330
158
100
AcDbXrecord
280
     1
102
RTVSPropertyOp0
 70
     1
102
RTVSPropertyOp1
 70
     1
102
RTVSPropertyOp2
 70
     1
102
RTVSPropertyOp3
 70
     1
102
RTVSPropertyOp4
 70
     1
102
RTVSPropertyOp5
 70
     1
102
RTVSPropertyOp6
 70
     1
102
RTVSPropertyOp7
 70
     1
102
RTVSPropertyOp8
 70
     1
102
RTVSPropertyOp9
 70
     1
102
RTVSPropertyOp10
 70
     1
102
RTVSPropertyOp11
 70
     1
102
RTVSPropertyOp12
 70
     1
102
RTVSPropertyOp13
 70
     1
102
RTVSPropertyOp14
 70
     1
102
RTVSPropertyOp15
 70
     1
102
RTVSPropertyOp16
 70
     1
102
RTVSPropertyOp17
 70
     1
102
RTVSPropertyOp18
 70
     1
102
RTVSPropertyOp19
 70
     1
102
RTVSPropertyOp20
 70
     1
102
RTVSPropertyOp21
 70
     1
102
RTVSPropertyOp22
 70
     1
102
RTVSPropertyOp23
 70
     1
102
RTVSPropertyOp24
 70
     1
102
RTVSPropertyOp25
 70
     1
102
RTVSPropertyOp26
 70
     1
102
RTVSPropertyOp27
 70
     1
  0
XRECORD
  5
15B
102
{ACAD_REACTORS
330
15A
102
}
330
15A
100
AcDbXrecord
280
     1
102
RTVSPropertyOp0
 70
     1
102
RTVSPropertyOp1
 70
     1
102
RTVSPropertyOp2
 70
     1
102
RTVSPropertyOp3
 70
     1
102
RTVSPropertyOp4
 70
     1
102
RTVSPropertyOp5
 70
     1
102
RTVSPropertyOp6
 70
     1
102
RTVSPropertyOp7
 70
     1
102
RTVSPropertyOp8
 70
     1
102
RTVSPropertyOp9
 70
     1
102
RTVSPropertyOp10
 70
     1
102
RTVSPropertyOp11
 70
     1
102
RTVSPropertyOp12
 70
     1
102
RTVSPropertyOp13
 70
     1
102
RTVSPropertyOp14
 70
     1
102
RTVSPropertyOp15
 70
     1
102
RTVSPropertyOp16
 70
     1
102
RTVSPropertyOp17
 70
     1
102
RTVSPropertyOp18
 70
     1
102
RTVSPropertyOp19
 70
     1
102
RTVSPropertyOp20
 70
     1
102
RTVSPropertyOp21
 70
     1
102
RTVSPropertyOp22
 70
     1
102
RTVSPropertyOp23
 70
     1
102
RTVSPropertyOp24
 70
     1
102
RTVSPropertyOp25
 70
     1
102
RTVSPropertyOp26
 70
     1
102
RTVSPropertyOp27
 70
     1
  0
XRECORD
  5
163
102
{ACAD_REACTORS
330
162
102
}
330
162
100
AcDbXrecord
280
     1
102
RTVSPropertyOp0
 70
     1
102
RTVSPropertyOp1
 70
     1
102
RTVSPropertyOp2
 70
     1
102
RTVSPropertyOp3
 70
     1
102
RTVSPropertyOp4
 70
     1
102
RTVSPropertyOp5
 70
     1
102
RTVSPropertyOp6
 70
     1
102
RTVSPropertyOp7
 70
     1
102
RTVSPropertyOp8
 70
     1
102
RTVSPropertyOp9
 70
     1
102
RTVSPropertyOp10
 70
     1
102
RTVSPropertyOp11
 70
     1
102
RTVSPropertyOp12
 70
     1
102
RTVSPropertyOp13
 70
     1
102
RTVSPropertyOp14
 70
     1
102
RTVSPropertyOp15
 70
     1
102
RTVSPropertyOp16
 70
     1
102
RTVSPropertyOp17
 70
     1
102
RTVSPropertyOp18
 70
     1
102
RTVSPropertyOp19
 70
     1
102
RTVSPropertyOp20
 70
     1
102
RTVSPropertyOp21
 70
     1
102
RTVSPropertyOp22
 70
     1
102
RTVSPropertyOp23
 70
     1
102
RTVSPropertyOp24
 70
     1
102
RTVSPropertyOp25
 70
     1
102
RTVSPropertyOp26
 70
     1
102
RTVSPropertyOp27
 70
     1
  0
XRECORD
  5
147
102
{ACAD_REACTORS
330
146
102
}
330
146
100
AcDbXrecord
280
     1
102
RTVSPropertyOp0
 70
     1
102
RTVSPropertyOp1
 70
     1
102
RTVSPropertyOp2
 70
     1
102
RTVSPropertyOp3
 70
     1
102
RTVSPropertyOp4
 70
     1
102
RTVSPropertyOp5
 70
     1
102
RTVSPropertyOp6
 70
     1
102
RTVSPropertyOp7
 70
     1
102
RTVSPropertyOp8
 70
     1
102
RTVSPropertyOp9
 70
     1
102
RTVSPropertyOp10
 70
     1
102
RTVSPropertyOp11
 70
     1
102
RTVSPropertyOp12
 70
     1
102
RTVSPropertyOp13
 70
     1
102
RTVSPropertyOp14
 70
     1
102
RTVSPropertyOp15
 70
     1
102
RTVSPropertyOp16
 70
     1
102
RTVSPropertyOp17
 70
     1
102
RTVSPropertyOp18
 70
     1
102
RTVSPropertyOp19
 70
     1
102
RTVSPropertyOp20
 70
     1
102
RTVSPropertyOp21
 70
     1
102
RTVSPropertyOp22
 70
     1
102
RTVSPropertyOp23
 70
     1
102
RTVSPropertyOp24
 70
     1
102
RTVSPropertyOp25
 70
     1
102
RTVSPropertyOp26
 70
     1
102
RTVSPropertyOp27
 70
     1
  0
XRECORD
  5
149
102
{ACAD_REACTORS
330
148
102
}
330
148
100
AcDbXrecord
280
     1
102
RTVSPropertyOp0
 70
     1
102
RTVSPropertyOp1
 70
     1
102
RTVSPropertyOp2
 70
     1
102
RTVSPropertyOp3
 70
     1
102
RTVSPropertyOp4
 70
     1
102
RTVSPropertyOp5
 70
     1
102
RTVSPropertyOp6
 70
     1
102
RTVSPropertyOp7
 70
     1
102
RTVSPropertyOp8
 70
     1
102
RTVSPropertyOp9
 70
     1
102
RTVSPropertyOp10
 70
     1
102
RTVSPropertyOp11
 70
     1
102
RTVSPropertyOp12
 70
     1
102
RTVSPropertyOp13
 70
     1
102
RTVSPropertyOp14
 70
     1
102
RTVSPropertyOp15
 70
     1
102
RTVSPropertyOp16
 70
     1
102
RTVSPropertyOp17
 70
     1
102
RTVSPropertyOp18
 70
     1
102
RTVSPropertyOp19
 70
     1
102
RTVSPropertyOp20
 70
     1
102
RTVSPropertyOp21
 70
     1
102
RTVSPropertyOp22
 70
     1
102
RTVSPropertyOp23
 70
     1
102
RTVSPropertyOp24
 70
     1
102
RTVSPropertyOp25
 70
     1
102
RTVSPropertyOp26
 70
     1
102
RTVSPropertyOp27
 70
     1
  0
XRECORD
  5
14B
102
{ACAD_REACTORS
330
14A
102
}
330
14A
100
AcDbXrecord
280
     1
102
RTVSPropertyOp0
 70
     1
102
RTVSPropertyOp1
 70
     1
102
RTVSPropertyOp2
 70
     1
102
RTVSPropertyOp3
 70
     1
102
RTVSPropertyOp4
 70
     1
102
RTVSPropertyOp5
 70
     1
102
RTVSPropertyOp6
 70
     1
102
RTVSPropertyOp7
 70
     1
102
RTVSPropertyOp8
 70
     1
102
RTVSPropertyOp9
 70
     1
102
RTVSPropertyOp10
 70
     1
102
RTVSPropertyOp11
 70
     1
102
RTVSPropertyOp12
 70
     1
102
RTVSPropertyOp13
 70
     1
102
RTVSPropertyOp14
 70
     1
102
RTVSPropertyOp15
 70
     1
102
RTVSPropertyOp16
 70
     1
102
RTVSPropertyOp17
 70
     1
102
RTVSPropertyOp18
 70
     1
102
RTVSPropertyOp19
 70
     1
102
RTVSPropertyOp20
 70
     1
102
RTVSPropertyOp21
 70
     1
102
RTVSPropertyOp22
 70
     1
102
RTVSPropertyOp23
 70
     1
102
RTVSPropertyOp24
 70
     1
102
RTVSPropertyOp25
 70
     1
102
RTVSPropertyOp26
 70
     1
102
RTVSPropertyOp27
 70
     1
  0
XRECORD
  5
14D
102
{ACAD_REACTORS
330
14C
102
}
330
14C
100
AcDbXrecord
280
     1
102
RTVSPropertyOp0
 70
     1
102
RTVSPropertyOp1
 70
     1
102
RTVSPropertyOp2
 70
     1
102
RTVSPropertyOp3
 70
     1
102
RTVSPropertyOp4
 70
     1
102
RTVSPropertyOp5
 70
     1
102
RTVSPropertyOp6
 70
     1
102
RTVSPropertyOp7
 70
     1
102
RTVSPropertyOp8
 70
     1
102
RTVSPropertyOp9
 70
     1
102
RTVSPropertyOp10
 70
     1
102
RTVSPropertyOp11
 70
     1
102
RTVSPropertyOp12
 70
     1
102
RTVSPropertyOp13
 70
     1
102
RTVSPropertyOp14
 70
     1
102
RTVSPropertyOp15
 70
     1
102
RTVSPropertyOp16
 70
     1
102
RTVSPropertyOp17
 70
     1
102
RTVSPropertyOp18
 70
     1
102
RTVSPropertyOp19
 70
     1
102
RTVSPropertyOp20
 70
     1
102
RTVSPropertyOp21
 70
     1
102
RTVSPropertyOp22
 70
     1
102
RTVSPropertyOp23
 70
     1
102
RTVSPropertyOp24
 70
     1
102
RTVSPropertyOp25
 70
     1
102
RTVSPropertyOp26
 70
     1
102
RTVSPropertyOp27
 70
     1
  0
XRECORD
  5
161
102
{ACAD_REACTORS
330
160
102
}
330
160
100
AcDbXrecord
280
     1
102
RTVSPropertyOp0
 70
     1
102
RTVSPropertyOp1
 70
     1
102
RTVSPropertyOp2
 70
     1
102
RTVSPropertyOp3
 70
     1
102
RTVSPropertyOp4
 70
     1
102
RTVSPropertyOp5
 70
     1
102
RTVSPropertyOp6
 70
     1
102
RTVSPropertyOp7
 70
     1
102
RTVSPropertyOp8
 70
     1
102
RTVSPropertyOp9
 70
     1
102
RTVSPropertyOp10
 70
     1
102
RTVSPropertyOp11
 70
     1
102
RTVSPropertyOp12
 70
     1
102
RTVSPropertyOp13
 70
     1
102
RTVSPropertyOp14
 70
     1
102
RTVSPropertyOp15
 70
     1
102
RTVSPropertyOp16
 70
     1
102
RTVSPropertyOp17
 70
     1
102
RTVSPropertyOp18
 70
     1
102
RTVSPropertyOp19
 70
     1
102
RTVSPropertyOp20
 70
     1
102
RTVSPropertyOp21
 70
     1
102
RTVSPropertyOp22
 70
     1
102
RTVSPropertyOp23
 70
     1
102
RTVSPropertyOp24
 70
     1
102
RTVSPropertyOp25
 70
     1
102
RTVSPropertyOp26
 70
     1
102
RTVSPropertyOp27
 70
     1
  0
XRECORD
  5
157
102
{ACAD_REACTORS
330
156
102
}
330
156
100
AcDbXrecord
280
     1
102
RTVSPropertyOp0
 70
     1
102
RTVSPropertyOp1
 70
     1
102
RTVSPropertyOp2
 70
     1
102
RTVSPropertyOp3
 70
     1
102
RTVSPropertyOp4
 70
     1
102
RTVSPropertyOp5
 70
     1
102
RTVSPropertyOp6
 70
     1
102
RTVSPropertyOp7
 70
     1
102
RTVSPropertyOp8
 70
     1
102
RTVSPropertyOp9
 70
     1
102
RTVSPropertyOp10
 70
     1
102
RTVSPropertyOp11
 70
     1
102
RTVSPropertyOp12
 70
     1
102
RTVSPropertyOp13
 70
     1
102
RTVSPropertyOp14
 70
     1
102
RTVSPropertyOp15
 70
     1
102
RTVSPropertyOp16
 70
     1
102
RTVSPropertyOp17
 70
     1
102
RTVSPropertyOp18
 70
     1
102
RTVSPropertyOp19
 70
     1
102
RTVSPropertyOp20
 70
     1
102
RTVSPropertyOp21
 70
     1
102
RTVSPropertyOp22
 70
     1
102
RTVSPropertyOp23
 70
     1
102
RTVSPropertyOp24
 70
     1
102
RTVSPropertyOp25
 70
     1
102
RTVSPropertyOp26
 70
     1
102
RTVSPropertyOp27
 70
     1
  0
XRECORD
  5
15F
102
{ACAD_REACTORS
330
15E
102
}
330
15E
100
AcDbXrecord
280
     1
102
RTVSPropertyOp0
 70
     1
102
RTVSPropertyOp1
 70
     1
102
RTVSPropertyOp2
 70
     1
102
RTVSPropertyOp3
 70
     1
102
RTVSPropertyOp4
 70
     1
102
RTVSPropertyOp5
 70
     1
102
RTVSPropertyOp6
 70
     1
102
RTVSPropertyOp7
 70
     1
102
RTVSPropertyOp8
 70
     1
102
RTVSPropertyOp9
 70
     1
102
RTVSPropertyOp10
 70
     1
102
RTVSPropertyOp11
 70
     1
102
RTVSPropertyOp12
 70
     1
102
RTVSPropertyOp13
 70
     1
102
RTVSPropertyOp14
 70
     1
102
RTVSPropertyOp15
 70
     1
102
RTVSPropertyOp16
 70
     1
102
RTVSPropertyOp17
 70
     1
102
RTVSPropertyOp18
 70
     1
102
RTVSPropertyOp19
 70
     1
102
RTVSPropertyOp20
 70
     1
102
RTVSPropertyOp21
 70
     1
102
RTVSPropertyOp22
 70
     1
102
RTVSPropertyOp23
 70
     1
102
RTVSPropertyOp24
 70
     1
102
RTVSPropertyOp25
 70
     1
102
RTVSPropertyOp26
 70
     1
102
RTVSPropertyOp27
 70
     1
  0
ENDSEC
  0
EOF
