  0
SECTION
  2
HEADER
  9
$ACADVER
  1
AC1015
  9
$ACADMAINTVER
 70
     6
  9
$DWGCODEPAGE
  3
ANSI_1250
  9
$INSBASE
 10
0.0
 20
0.0
 30
0.0
  9
$EXTMIN
 10
-83.9403
 20
-14.853
 30
0.0
  9
$EXTMAX
 10
83.853
 20
14.853
 30
0.0
  9
$LIMMIN
 10
0.0
 20
0.0
  9
$LIMMAX
 10
12.0
 20
9.0
  9
$ORTHOMODE
 70
     0
  9
$REGENMODE
 70
     1
  9
$FILLMODE
 70
     1
  9
$QTEXTMODE
 70
     0
  9
$MIRRTEXT
 70
     1
  9
$LTSCALE
 40
1.0
  9
$ATTMODE
 70
     1
  9
$TEXTSIZE
 40
0.2
  9
$TRACEWID
 40
0.05
  9
$TEXTSTYLE
  7
Standard
  9
$CLAYER
  8
0
  9
$CELTYPE
  6
ByLayer
  9
$CECOLOR
 62
   256
  9
$CELTSCALE
 40
1.0
  9
$DISPSILH
 70
     0
  9
$DIMSCALE
 40
1.0
  9
$DIMASZ
 40
0.18
  9
$DIMEXO
 40
0.0625
  9
$DIMDLI
 40
0.38
  9
$DIMRND
 40
0.0
  9
$DIMDLE
 40
0.0
  9
$DIMEXE
 40
0.18
  9
$DIMTP
 40
0.0
  9
$DIMTM
 40
0.0
  9
$DIMTXT
 40
0.18
  9
$DIMCEN
 40
0.09
  9
$DIMTSZ
 40
0.0
  9
$DIMTOL
 70
     0
  9
$DIMLIM
 70
     0
  9
$DIMTIH
 70
     1
  9
$DIMTOH
 70
     1
  9
$DIMSE1
 70
     0
  9
$DIMSE2
 70
     0
  9
$DIMTAD
 70
     0
  9
$DIMZIN
 70
     0
  9
$DIMBLK
  1

  9
$DIMASO
 70
     1
  9
$DIMSHO
 70
     1
  9
$DIMPOST
  1

  9
$DIMAPOST
  1

  9
$DIMALT
 70
     0
  9
$DIMALTD
 70
     2
  9
$DIMALTF
 40
25.4
  9
$DIMLFAC
 40
1.0
  9
$DIMTOFL
 70
     0
  9
$DIMTVP
 40
0.0
  9
$DIMTIX
 70
     0
  9
$DIMSOXD
 70
     0
  9
$DIMSAH
 70
     0
  9
$DIMBLK1
  1

  9
$DIMBLK2
  1

  9
$DIMSTYLE
  2
Standard
  9
$DIMCLRD
 70
     0
  9
$DIMCLRE
 70
     0
  9
$DIMCLRT
 70
     0
  9
$DIMTFAC
 40
1.0
  9
$DIMGAP
 40
0.09
  9
$DIMJUST
 70
     0
  9
$DIMSD1
 70
     0
  9
$DIMSD2
 70
     0
  9
$DIMTOLJ
 70
     1
  9
$DIMTZIN
 70
     0
  9
$DIMALTZ
 70
     0
  9
$DIMALTTZ
 70
     0
  9
$DIMUPT
 70
     0
  9
$DIMDEC
 70
     4
  9
$DIMTDEC
 70
     4
  9
$DIMALTU
 70
     2
  9
$DIMALTTD
 70
     2
  9
$DIMTXSTY
  7
Standard
  9
$DIMAUNIT
 70
     0
  9
$DIMADEC
 70
     0
  9
$DIMALTRND
 40
0.0
  9
$DIMAZIN
 70
     0
  9
$DIMDSEP
 70
    46
  9
$DIMATFIT
 70
     3
  9
$DIMFRAC
 70
     0
  9
$DIMLDRBLK
  1

  9
$DIMLUNIT
 70
     2
  9
$DIMLWD
 70
    -2
  9
$DIMLWE
 70
    -2
  9
$DIMTMOVE
 70
     0
  9
$LUNITS
 70
     2
  9
$LUPREC
 70
     4
  9
$SKETCHINC
 40
0.1
  9
$FILLETRAD
 40
0.5
  9
$AUNITS
 70
     0
  9
$AUPREC
 70
     0
  9
$MENU
  1
.
  9
$ELEVATION
 40
0.0
  9
$PELEVATION
 40
0.0
  9
$THICKNESS
 40
0.0
  9
$LIMCHECK
 70
     0
  9
$CHAMFERA
 40
0.5
  9
$CHAMFERB
 40
0.5
  9
$CHAMFERC
 40
1.0
  9
$CHAMFERD
 40
0.0
  9
$SKPOLY
 70
     0
  9
$TDCREATE
 40
2457822.464064711
  9
$TDUCREATE
 40
2457822.422398044
  9
$TDUPDATE
 40
2457822.464064722
  9
$TDUUPDATE
 40
2457822.422398055
  9
$TDINDWG
 40
0.0000000116
  9
$TDUSRTIMER
 40
0.0000000116
  9
$USRTIMER
 70
     1
  9
$ANGBASE
 50
0.0
  9
$ANGDIR
 70
     0
  9
$PDMODE
 70
     0
  9
$PDSIZE
 40
0.0
  9
$PLINEWID
 40
0.0
  9
$SPLFRAME
 70
     0
  9
$SPLINETYPE
 70
     6
  9
$SPLINESEGS
 70
     8
  9
$HANDSEED
  5
1F5
  9
$SURFTAB1
 70
     6
  9
$SURFTAB2
 70
     6
  9
$SURFTYPE
 70
     6
  9
$SURFU
 70
     6
  9
$SURFV
 70
     6
  9
$UCSBASE
  2

  9
$UCSNAME
  2

  9
$UCSORG
 10
0.0
 20
0.0
 30
0.0
  9
$UCSXDIR
 10
1.0
 20
0.0
 30
0.0
  9
$UCSYDIR
 10
0.0
 20
1.0
 30
0.0
  9
$UCSORTHOREF
  2

  9
$UCSORTHOVIEW
 70
     0
  9
$UCSORGTOP
 10
0.0
 20
0.0
 30
0.0
  9
$UCSORGBOTTOM
 10
0.0
 20
0.0
 30
0.0
  9
$UCSORGLEFT
 10
0.0
 20
0.0
 30
0.0
  9
$UCSORGRIGHT
 10
0.0
 20
0.0
 30
0.0
  9
$UCSORGFRONT
 10
0.0
 20
0.0
 30
0.0
  9
$UCSORGBACK
 10
0.0
 20
0.0
 30
0.0
  9
$PUCSBASE
  2

  9
$PUCSNAME
  2

  9
$PUCSORG
 10
0.0
 20
0.0
 30
0.0
  9
$PUCSXDIR
 10
1.0
 20
0.0
 30
0.0
  9
$PUCSYDIR
 10
0.0
 20
1.0
 30
0.0
  9
$PUCSORTHOREF
  2

  9
$PUCSORTHOVIEW
 70
     0
  9
$PUCSORGTOP
 10
0.0
 20
0.0
 30
0.0
  9
$PUCSORGBOTTOM
 10
0.0
 20
0.0
 30
0.0
  9
$PUCSORGLEFT
 10
0.0
 20
0.0
 30
0.0
  9
$PUCSORGRIGHT
 10
0.0
 20
0.0
 30
0.0
  9
$PUCSORGFRONT
 10
0.0
 20
0.0
 30
0.0
  9
$PUCSORGBACK
 10
0.0
 20
0.0
 30
0.0
  9
$USERI1
 70
     0
  9
$USERI2
 70
     0
  9
$USERI3
 70
     0
  9
$USERI4
 70
     0
  9
$USERI5
 70
     0
  9
$USERR1
 40
0.0
  9
$USERR2
 40
0.0
  9
$USERR3
 40
0.0
  9
$USERR4
 40
0.0
  9
$USERR5
 40
0.0
  9
$WORLDVIEW
 70
     1
  9
$SHADEDGE
 70
     3
  9
$SHADEDIF
 70
    70
  9
$TILEMODE
 70
     1
  9
$MAXACTVP
 70
    64
  9
$PINSBASE
 10
0.0
 20
0.0
 30
0.0
  9
$PLIMCHECK
 70
     0
  9
$PEXTMIN
 10
1.000000000000000E+20
 20
1.000000000000000E+20
 30
1.000000000000000E+20
  9
$PEXTMAX
 10
-1.000000000000000E+20
 20
-1.000000000000000E+20
 30
-1.000000000000000E+20
  9
$PLIMMIN
 10
0.0
 20
0.0
  9
$PLIMMAX
 10
12.0
 20
9.0
  9
$UNITMODE
 70
     0
  9
$VISRETAIN
 70
     1
  9
$PLINEGEN
 70
     0
  9
$PSLTSCALE
 70
     1
  9
$TREEDEPTH
 70
  3020
  9
$CMLSTYLE
  2
Standard
  9
$CMLJUST
 70
     0
  9
$CMLSCALE
 40
1.0
  9
$PROXYGRAPHICS
 70
     1
  9
$MEASUREMENT
 70
     0
  9
$CELWEIGHT
370
    -1
  9
$ENDCAPS
280
     0
  9
$JOINSTYLE
280
     0
  9
$LWDISPLAY
290
     0
  9
$INSUNITS
 70
     4
  9
$HYPERLINKBASE
  1

  9
$STYLESHEET
  1

  9
$XEDIT
290
     1
  9
$CEPSNTYPE
380
     0
  9
$PSTYLEMODE
290
     1
  9
$FINGERPRINTGUID
  2
{66580178-A024-445E-B3B8-31FCED973AE4}
  9
$VERSIONGUID
  2
{FAEB1C32-E019-11D5-929B-00C0DF256EC4}
  9
$EXTNAMES
290
     1
  9
$PSVPSCALE
 40
0.0
  9
$OLESTARTUP
290
     0
  0
ENDSEC
  0
SECTION
  2
CLASSES
  0
CLASS
  1
ACDBDICTIONARYWDFLT
  2
AcDbDictionaryWithDefault
  3
ObjectDBX Classes
 90
        0
280
     0
281
     0
  0
CLASS
  1
VISUALSTYLE
  2
AcDbVisualStyle
  3
ObjectDBX Classes
 90
     4095
280
     0
281
     0
  0
CLASS
  1
MATERIAL
  2
AcDbMaterial
  3
ObjectDBX Classes
 90
     1153
280
     0
281
     0
  0
CLASS
  1
SCALE
  2
AcDbScale
  3
ObjectDBX Classes
 90
     1153
280
     0
281
     0
  0
CLASS
  1
DICTIONARYVAR
  2
AcDbDictionaryVar
  3
ObjectDBX Classes
 90
        0
280
     0
281
     0
  0
CLASS
  1
ACDBPLACEHOLDER
  2
AcDbPlaceHolder
  3
ObjectDBX Classes
 90
        0
280
     0
281
     0
  0
CLASS
  1
LAYOUT
  2
AcDbLayout
  3
ObjectDBX Classes
 90
        0
280
     0
281
     0
  0
ENDSEC
  0
SECTION
  2
TABLES
  0
TABLE
  2
VPORT
  5
8
330
0
100
AcDbSymbolTable
 70
     1
  0
VPORT
  5
29
330
8
100
AcDbSymbolTableRecord
100
AcDbViewportTableRecord
  2
*Active
 70
     0
 10
0.0
 20
0.0
 11
1.0
 21
1.0
 12
10.42990654205607
 22
4.5
 13
0.0
 23
0.0
 14
0.5
 24
0.5
 15
0.5
 25
0.5
 16
0.0
 26
0.0
 36
1.0
 17
0.0
 27
0.0
 37
0.0
 40
9.0
 41
1.972972972850329
 42
50.0
 43
0.0
 44
0.0
 50
0.0
 51
0.0
 71
     0
 72
   100
 73
     1
 74
     3
 75
     0
 76
     0
 77
     0
 78
     0
281
     0
 65
     1
110
0.0
120
0.0
130
0.0
111
1.0
121
0.0
131
0.0
112
0.0
122
1.0
132
0.0
 79
     0
146
0.0
  0
ENDTAB
  0
TABLE
  2
LTYPE
  5
5
330
0
100
AcDbSymbolTable
 70
     8
  0
LTYPE
  5
14
330
5
100
AcDbSymbolTableRecord
100
AcDbLinetypeTableRecord
  2
ByBlock
 70
     0
  3

 72
    65
 73
     0
 40
0.0
  0
LTYPE
  5
15
330
5
100
AcDbSymbolTableRecord
100
AcDbLinetypeTableRecord
  2
ByLayer
 70
     0
  3

 72
    65
 73
     0
 40
0.0
  0
LTYPE
  5
16
330
5
100
AcDbSymbolTableRecord
100
AcDbLinetypeTableRecord
  2
Continuous
 70
     0
  3
Solid line
 72
    65
 73
     0
 40
0.0
  0
LTYPE
  5
16C
330
5
100
AcDbSymbolTableRecord
100
AcDbLinetypeTableRecord
  2
New Line1
 70
     0
  3

 72
    65
 73
     4
 40
1.2
 49
0.5
 74
     4
 75
     0
340
0
 46
1.0
 50
0.0
 44
0.0
 45
0.0
 49
-0.3
 74
     4
 75
     0
340
0
 46
1.0
 50
0.0
 44
0.0
 45
0.0
 49
0.1
 74
     4
 75
     0
340
0
 46
1.0
 50
0.0
 44
0.0
 45
0.0
 49
-0.3
 74
     4
 75
     0
340
0
 46
1.0
 50
0.0
 44
0.0
 45
0.0
  0
LTYPE
  5
1A2
330
5
100
AcDbSymbolTableRecord
100
AcDbLinetypeTableRecord
  2
New Line2
 70
     0
  3

 72
    65
 73
     4
 40
1.2
 49
0.5
 74
     4
 75
     0
340
0
 46
1.0
 50
0.0
 44
0.0
 45
0.0
 49
-0.3
 74
     4
 75
     0
340
0
 46
1.0
 50
0.0
 44
0.0
 45
0.0
 49
0.1
 74
     4
 75
     0
340
0
 46
1.0
 50
0.0
 44
0.0
 45
0.0
 49
-0.3
 74
     4
 75
     0
340
0
 46
1.0
 50
0.0
 44
0.0
 45
0.0
  0
LTYPE
  5
1A4
330
5
100
AcDbSymbolTableRecord
100
AcDbLinetypeTableRecord
  2
New Line3
 70
     0
  3

 72
    65
 73
     4
 40
1.2
 49
0.5
 74
     4
 75
     0
340
0
 46
1.0
 50
0.0
 44
0.0
 45
0.0
 49
-0.3
 74
     4
 75
     0
340
0
 46
1.0
 50
0.0
 44
0.0
 45
0.0
 49
0.1
 74
     4
 75
     0
340
0
 46
1.0
 50
0.0
 44
0.0
 45
0.0
 49
-0.3
 74
     4
 75
     0
340
0
 46
1.0
 50
0.0
 44
0.0
 45
0.0
  0
LTYPE
  5
1A6
330
5
100
AcDbSymbolTableRecord
100
AcDbLinetypeTableRecord
  2
New Line4
 70
     0
  3

 72
    65
 73
     4
 40
1.2
 49
0.5
 74
     4
 75
     0
340
0
 46
1.0
 50
0.0
 44
0.0
 45
0.0
 49
-0.3
 74
     4
 75
     0
340
0
 46
1.0
 50
0.0
 44
0.0
 45
0.0
 49
0.1
 74
     4
 75
     0
340
0
 46
1.0
 50
0.0
 44
0.0
 45
0.0
 49
-0.3
 74
     4
 75
     0
340
0
 46
1.0
 50
0.0
 44
0.0
 45
0.0
  0
LTYPE
  5
1A8
330
5
100
AcDbSymbolTableRecord
100
AcDbLinetypeTableRecord
  2
New Line5
 70
     0
  3

 72
    65
 73
     4
 40
1.2
 49
0.5
 74
     4
 75
     0
340
0
 46
1.0
 50
0.0
 44
0.0
 45
0.0
 49
-0.3
 74
     4
 75
     0
340
0
 46
1.0
 50
0.0
 44
0.0
 45
0.0
 49
0.1
 74
     4
 75
     0
340
0
 46
1.0
 50
0.0
 44
0.0
 45
0.0
 49
-0.3
 74
     4
 75
     0
340
0
 46
1.0
 50
0.0
 44
0.0
 45
0.0
  0
LTYPE
  5
1AA
330
5
100
AcDbSymbolTableRecord
100
AcDbLinetypeTableRecord
  2
New Line6
 70
     0
  3

 72
    65
 73
     4
 40
1.2
 49
0.5
 74
     4
 75
     0
340
0
 46
1.0
 50
0.0
 44
0.0
 45
0.0
 49
-0.3
 74
     4
 75
     0
340
0
 46
1.0
 50
0.0
 44
0.0
 45
0.0
 49
0.1
 74
     4
 75
     0
340
0
 46
1.0
 50
0.0
 44
0.0
 45
0.0
 49
-0.3
 74
     4
 75
     0
340
0
 46
1.0
 50
0.0
 44
0.0
 45
0.0
  0
LTYPE
  5
1AC
330
5
100
AcDbSymbolTableRecord
100
AcDbLinetypeTableRecord
  2
New Line7
 70
     0
  3

 72
    65
 73
     4
 40
1.2
 49
0.5
 74
     4
 75
     0
340
0
 46
1.0
 50
0.0
 44
0.0
 45
0.0
 49
-0.3
 74
     4
 75
     0
340
0
 46
1.0
 50
0.0
 44
0.0
 45
0.0
 49
0.1
 74
     4
 75
     0
340
0
 46
1.0
 50
0.0
 44
0.0
 45
0.0
 49
-0.3
 74
     4
 75
     0
340
0
 46
1.0
 50
0.0
 44
0.0
 45
0.0
  0
ENDTAB
  0
TABLE
  2
LAYER
  5
2
330
0
100
AcDbSymbolTable
 70
     2
  0
LAYER
  5
10
330
2
100
AcDbSymbolTableRecord
100
AcDbLayerTableRecord
  2
0
 70
     0
 62
     7
  6
Continuous
370
    -3
390
F
  0
LAYER
  5
40
330
2
100
AcDbSymbolTableRecord
100
AcDbLayerTableRecord
  2
Ilustrace
 70
     0
 62
     7
  6
Continuous
370
    -3
390
F
  0
ENDTAB
  0
TABLE
  2
STYLE
  5
3
330
0
100
AcDbSymbolTable
 70
     3
  0
STYLE
  5
11
330
3
100
AcDbSymbolTableRecord
100
AcDbTextStyleTableRecord
  2
Standard
 70
     0
 40
0.0
 41
1.0
 50
0.0
 71
     0
 42
0.2
  3
txt
  4

  0
STYLE
  5
139
330
3
100
AcDbSymbolTableRecord
100
AcDbTextStyleTableRecord
  2
0
 70
     0
 40
1.0
 41
1.0
 50
0.0
 71
     0
 42
1.0
  3
Myriad Pro
  4

1001
ACAD
1000
Myriad Pro
1071
    60962
  0
STYLE
  5
163
330
3
100
AcDbSymbolTableRecord
100
AcDbTextStyleTableRecord
  2
1
 70
     0
 40
1.0
 41
1.0
 50
0.0
 71
     0
 42
1.0
  3
Myriad Pro
  4

1001
ACAD
1000
Myriad Pro
1071
    60962
  0
ENDTAB
  0
TABLE
  2
VIEW
  5
6
330
0
100
AcDbSymbolTable
 70
     0
  0
ENDTAB
  0
TABLE
  2
UCS
  5
7
330
0
100
AcDbSymbolTable
 70
     0
  0
ENDTAB
  0
TABLE
  2
APPID
  5
9
330
0
100
AcDbSymbolTable
 70
     2
  0
APPID
  5
12
330
9
100
AcDbSymbolTableRecord
100
AcDbRegAppTableRecord
  2
ACAD
 70
     0
  0
APPID
  5
3F
330
9
100
AcDbSymbolTableRecord
100
AcDbRegAppTableRecord
  2
ODA
 70
     0
  0
ENDTAB
  0
TABLE
  2
DIMSTYLE
  5
A
330
0
100
AcDbSymbolTable
 70
     1
100
AcDbDimStyleTable
  0
DIMSTYLE
105
27
330
A
100
AcDbSymbolTableRecord
100
AcDbDimStyleTableRecord
  2
Standard
 70
     0
340
11
  0
ENDTAB
  0
TABLE
  2
BLOCK_RECORD
  5
1
330
0
100
AcDbSymbolTable
 70
     1
  0
BLOCK_RECORD
  5
1F
330
1
100
AcDbSymbolTableRecord
100
AcDbBlockTableRecord
  2
*Model_Space
340
22
  0
BLOCK_RECORD
  5
1B
330
1
100
AcDbSymbolTableRecord
100
AcDbBlockTableRecord
  2
*Paper_Space
340
1E
  0
BLOCK_RECORD
  5
23
330
1
100
AcDbSymbolTableRecord
100
AcDbBlockTableRecord
  2
*Paper_Space0
340
26
  0
ENDTAB
  0
ENDSEC
  0
SECTION
  2
BLOCKS
  0
BLOCK
  5
20
330
1F
100
AcDbEntity
  8
0
100
AcDbBlockBegin
  2
*Model_Space
 70
     0
 10
0.0
 20
0.0
 30
0.0
  3
*Model_Space
  1

  0
ENDBLK
  5
21
330
1F
100
AcDbEntity
  8
0
100
AcDbBlockEnd
  0
BLOCK
  5
1C
330
1B
100
AcDbEntity
 67
     1
  8
0
100
AcDbBlockBegin
  2
*Paper_Space
 70
     0
 10
0.0
 20
0.0
 30
0.0
  3
*Paper_Space
  1

  0
ENDBLK
  5
1D
330
1B
100
AcDbEntity
 67
     1
  8
0
100
AcDbBlockEnd
  0
BLOCK
  5
24
330
23
100
AcDbEntity
  8
0
100
AcDbBlockBegin
  2
*Paper_Space0
 70
     0
 10
0.0
 20
0.0
 30
0.0
  3
*Paper_Space0
  1

  0
ENDBLK
  5
25
330
23
100
AcDbEntity
  8
0
100
AcDbBlockEnd
  0
ENDSEC
  0
SECTION
  2
ENTITIES
  0
SPLINE
  5
41
330
1F
100
AcDbEntity
  8
Ilustrace
 62
   250
370
    30
100
AcDbSpline
210
0.0
220
0.0
230
1.0
 70
    24
 71
     3
 72
     8
 73
     4
 74
     0
 42
0.0000000001
 43
0.0000000001
 40
0.0
 40
0.0
 40
0.0
 40
0.0
 40
1.0
 40
1.0
 40
1.0
 40
1.0
 10
57.535
 20
-2.7832
 30
0.0
 10
57.535
 20
-2.7832
 30
0.0
 10
57.535
 20
-3.7829
 30
0.0
 10
57.535
 20
-3.7829
 30
0.0
  0
SPLINE
  5
42
330
1F
100
AcDbEntity
  8
Ilustrace
 62
   250
370
    30
100
AcDbSpline
210
0.0
220
0.0
230
1.0
 70
    24
 71
     3
 72
     8
 73
     4
 74
     0
 42
0.0000000001
 43
0.0000000001
 40
0.0
 40
0.0
 40
0.0
 40
0.0
 40
1.0
 40
1.0
 40
1.0
 40
1.0
 10
53.5367
 20
-4.976
 30
0.0
 10
53.5367
 20
-4.976
 30
0.0
 10
53.373
 20
-4.976
 30
0.0
 10
53.373
 20
-4.976
 30
0.0
  0
SPLINE
  5
43
330
1F
100
AcDbEntity
  8
Ilustrace
 62
   250
370
    30
100
AcDbSpline
210
0.0
220
0.0
230
1.0
 70
    24
 71
     3
 72
     8
 73
     4
 74
     0
 42
0.0000000001
 43
0.0000000001
 40
0.0
 40
0.0
 40
0.0
 40
0.0
 40
1.0
 40
1.0
 40
1.0
 40
1.0
 10
53.5367
 20
-1.5899
 30
0.0
 10
53.5367
 20
-1.5899
 30
0.0
 10
53.373
 20
-1.5899
 30
0.0
 10
53.373
 20
-1.5899
 30
0.0
  0
SPLINE
  5
44
330
1F
100
AcDbEntity
  8
Ilustrace
 62
   250
370
    30
100
AcDbSpline
210
0.0
220
0.0
230
1.0
 70
    24
 71
     3
 72
    12
 73
     8
 74
     0
 42
0.0000000001
 43
0.0000000001
 40
0.0
 40
0.0
 40
0.0
 40
0.0
 40
0.3333333333333333
 40
0.3333333333333333
 40
0.3333333333333333
 40
0.3333333333333333
 40
1.0
 40
1.0
 40
1.0
 40
1.0
 10
55.361
 20
-2.6582
 30
0.0
 10
55.361
 20
-2.6582
 30
0.0
 10
55.8608
 20
-2.6582
 30
0.0
 10
55.8608
 20
-2.6582
 30
0.0
 10
55.8608
 20
-2.6582
 30
0.0
 10
55.8608
 20
-2.6582
 30
0.0
 10
56.9103
 20
-2.6582
 30
0.0
 10
56.9103
 20
-2.6582
 30
0.0
  0
SPLINE
  5
45
330
1F
100
AcDbEntity
  8
Ilustrace
 62
   250
370
    30
100
AcDbSpline
210
0.0
220
0.0
230
1.0
 70
     8
 71
     3
 72
     8
 73
     4
 74
     0
 42
0.0000000001
 43
0.0000000001
 40
0.0
 40
0.0
 40
0.0
 40
0.0
 40
1.0
 40
1.0
 40
1.0
 40
1.0
 10
56.9103
 20
-2.6582
 30
0.0
 10
56.9198
 20
-2.6582
 30
0.0
 10
57.4865
 20
-2.5405
 30
0.0
 10
57.535
 20
-2.7832
 30
0.0
  0
SPLINE
  5
46
330
1F
100
AcDbEntity
  8
Ilustrace
 62
   250
370
    30
100
AcDbSpline
210
0.0
220
0.0
230
1.0
 70
    24
 71
     3
 72
     8
 73
     4
 74
     0
 42
0.0000000001
 43
0.0000000001
 40
0.0
 40
0.0
 40
0.0
 40
0.0
 40
1.0
 40
1.0
 40
1.0
 40
1.0
 10
57.535
 20
-2.7832
 30
0.0
 10
57.535
 20
-2.7832
 30
0.0
 10
57.535
 20
-3.283
 30
0.0
 10
57.535
 20
-3.283
 30
0.0
  0
SPLINE
  5
47
330
1F
100
AcDbEntity
  8
Ilustrace
 62
   250
370
    30
100
AcDbSpline
210
0.0
220
0.0
230
1.0
 70
     8
 71
     3
 72
     8
 73
     4
 74
     0
 42
0.0000000001
 43
0.0000000001
 40
0.0
 40
0.0
 40
0.0
 40
0.0
 40
1.0
 40
1.0
 40
1.0
 40
1.0
 10
57.535
 20
-3.283
 30
0.0
 10
57.535
 20
-3.8418
 30
0.0
 10
57.6529
 20
-3.6651
 30
0.0
 10
57.4101
 20
-3.9077
 30
0.0
  0
SPLINE
  5
48
330
1F
100
AcDbEntity
  8
Ilustrace
 62
   250
370
    30
100
AcDbSpline
210
0.0
220
0.0
230
1.0
 70
    24
 71
     3
 72
     8
 73
     4
 74
     0
 42
0.0000000001
 43
0.0000000001
 40
0.0
 40
0.0
 40
0.0
 40
0.0
 40
1.0
 40
1.0
 40
1.0
 40
1.0
 10
57.4101
 20
-3.9077
 30
0.0
 10
57.4101
 20
-3.9077
 30
0.0
 10
55.361
 20
-3.9077
 30
0.0
 10
55.361
 20
-3.9077
 30
0.0
  0
SPLINE
  5
49
330
1F
100
AcDbEntity
  8
Ilustrace
 62
   250
370
    30
100
AcDbSpline
210
0.0
220
0.0
230
1.0
 70
     8
 71
     3
 72
    16
 73
    12
 74
     0
 42
0.0000000001
 43
0.0000000001
 40
0.0
 40
0.0
 40
0.0
 40
0.0
 40
0.25
 40
0.25
 40
0.25
 40
0.25
 40
0.5
 40
0.5
 40
0.5
 40
0.5
 40
1.0
 40
1.0
 40
1.0
 40
1.0
 10
53.373
 20
-1.5899
 30
0.0
 10
53.1923
 20
-1.8031
 30
0.0
 10
53.0357
 20
-2.0215
 30
0.0
 10
52.9226
 20
-2.2789
 30
0.0
 10
52.9226
 20
-2.2789
 30
0.0
 10
52.6438
 20
-2.9141
 30
0.0
 10
52.6438
 20
-3.652
 30
0.0
 10
52.9226
 20
-4.2872
 30
0.0
 10
52.9226
 20
-4.2872
 30
0.0
 10
53.0357
 20
-4.5446
 30
0.0
 10
53.1923
 20
-4.7628
 30
0.0
 10
53.373
 20
-4.976
 30
0.0
  0
SPLINE
  5
4A
330
1F
100
AcDbEntity
  8
Ilustrace
 62
   250
370
    30
100
AcDbSpline
210
0.0
220
0.0
230
1.0
 70
    24
 71
     3
 72
     8
 73
     4
 74
     0
 42
0.0000000001
 43
0.0000000001
 40
0.0
 40
0.0
 40
0.0
 40
0.0
 40
1.0
 40
1.0
 40
1.0
 40
1.0
 10
57.4101
 20
-2.6582
 30
0.0
 10
57.4101
 20
-2.6582
 30
0.0
 10
55.361
 20
-2.6582
 30
0.0
 10
55.361
 20
-2.6582
 30
0.0
  0
SPLINE
  5
4B
330
1F
100
AcDbEntity
  8
Ilustrace
 62
   250
370
    30
100
AcDbSpline
210
0.0
220
0.0
230
1.0
 70
    24
 71
     3
 72
     8
 73
     4
 74
     0
 42
0.0000000001
 43
0.0000000001
 40
0.0
 40
0.0
 40
0.0
 40
0.0
 40
1.0
 40
1.0
 40
1.0
 40
1.0
 10
57.4101
 20
-3.9077
 30
0.0
 10
57.4101
 20
-3.9077
 30
0.0
 10
55.361
 20
-3.9077
 30
0.0
 10
55.361
 20
-3.9077
 30
0.0
  0
SPLINE
  5
4C
330
1F
100
AcDbEntity
  8
Ilustrace
 62
   250
370
    30
100
AcDbSpline
210
0.0
220
0.0
230
1.0
 70
    24
 71
     3
 72
     8
 73
     4
 74
     0
 42
0.0000000001
 43
0.0000000001
 40
0.0
 40
0.0
 40
0.0
 40
0.0
 40
1.0
 40
1.0
 40
1.0
 40
1.0
 10
67.5309
 20
-3.7829
 30
0.0
 10
67.5309
 20
-3.7829
 30
0.0
 10
67.5309
 20
-2.7832
 30
0.0
 10
67.5309
 20
-2.7832
 30
0.0
  0
SPLINE
  5
4D
330
1F
100
AcDbEntity
  8
Ilustrace
 62
   250
370
    30
100
AcDbSpline
210
0.0
220
0.0
230
1.0
 70
    24
 71
     3
 72
     8
 73
     4
 74
     0
 42
0.0000000001
 43
0.0000000001
 40
0.0
 40
0.0
 40
0.0
 40
0.0
 40
1.0
 40
1.0
 40
1.0
 40
1.0
 10
71.5291
 20
-4.976
 30
0.0
 10
71.5291
 20
-4.976
 30
0.0
 10
71.6929
 20
-4.976
 30
0.0
 10
71.6929
 20
-4.976
 30
0.0
  0
SPLINE
  5
4E
330
1F
100
AcDbEntity
  8
Ilustrace
 62
   250
370
    30
100
AcDbSpline
210
0.0
220
0.0
230
1.0
 70
    24
 71
     3
 72
     8
 73
     4
 74
     0
 42
0.0000000001
 43
0.0000000001
 40
0.0
 40
0.0
 40
0.0
 40
0.0
 40
1.0
 40
1.0
 40
1.0
 40
1.0
 10
71.5291
 20
-1.5899
 30
0.0
 10
71.5291
 20
-1.5899
 30
0.0
 10
71.6929
 20
-1.5899
 30
0.0
 10
71.6929
 20
-1.5899
 30
0.0
  0
SPLINE
  5
4F
330
1F
100
AcDbEntity
  8
Ilustrace
 62
   250
370
    30
100
AcDbSpline
210
0.0
220
0.0
230
1.0
 70
    24
 71
     3
 72
     8
 73
     4
 74
     0
 42
0.0000000001
 43
0.0000000001
 40
0.0
 40
0.0
 40
0.0
 40
0.0
 40
1.0
 40
1.0
 40
1.0
 40
1.0
 10
69.705
 20
-3.9077
 30
0.0
 10
69.0219
 20
-3.9077
 30
0.0
 10
68.3388
 20
-3.9077
 30
0.0
 10
67.6558
 20
-3.9077
 30
0.0
  0
SPLINE
  5
50
330
1F
100
AcDbEntity
  8
Ilustrace
 62
   250
370
    30
100
AcDbSpline
210
0.0
220
0.0
230
1.0
 70
     8
 71
     3
 72
    12
 73
     8
 74
     0
 42
0.0000000001
 43
0.0000000001
 40
0.0
 40
0.0
 40
0.0
 40
0.0
 40
0.3333333333333333
 40
0.3333333333333333
 40
0.3333333333333333
 40
0.3333333333333333
 40
1.0
 40
1.0
 40
1.0
 40
1.0
 10
67.6558
 20
-3.9077
 30
0.0
 10
67.6558
 20
-3.9077
 30
0.0
 10
67.5309
 20
-3.7829
 30
0.0
 10
67.5309
 20
-3.7829
 30
0.0
 10
67.5309
 20
-3.7829
 30
0.0
 10
67.5309
 20
-3.7829
 30
0.0
 10
67.5309
 20
-2.7832
 30
0.0
 10
67.5309
 20
-2.7832
 30
0.0
  0
SPLINE
  5
51
330
1F
100
AcDbEntity
  8
Ilustrace
 62
   250
370
    30
100
AcDbSpline
210
0.0
220
0.0
230
1.0
 70
     8
 71
     3
 72
     8
 73
     4
 74
     0
 42
0.0000000001
 43
0.0000000001
 40
0.0
 40
0.0
 40
0.0
 40
0.0
 40
1.0
 40
1.0
 40
1.0
 40
1.0
 10
67.5309
 20
-2.7832
 30
0.0
 10
67.7736
 20
-2.5405
 30
0.0
 10
67.5969
 20
-2.6582
 30
0.0
 10
68.1556
 20
-2.6582
 30
0.0
  0
SPLINE
  5
52
330
1F
100
AcDbEntity
  8
Ilustrace
 62
   250
370
    30
100
AcDbSpline
210
0.0
220
0.0
230
1.0
 70
    24
 71
     3
 72
    12
 73
     8
 74
     0
 42
0.0000000001
 43
0.0000000001
 40
0.0
 40
0.0
 40
0.0
 40
0.0
 40
0.3333333333333333
 40
0.3333333333333333
 40
0.3333333333333333
 40
0.3333333333333333
 40
1.0
 40
1.0
 40
1.0
 40
1.0
 10
68.1556
 20
-2.6582
 30
0.0
 10
68.1556
 20
-2.6582
 30
0.0
 10
69.2051
 20
-2.6582
 30
0.0
 10
69.2051
 20
-2.6582
 30
0.0
 10
69.2051
 20
-2.6582
 30
0.0
 10
69.2051
 20
-2.6582
 30
0.0
 10
69.705
 20
-2.6582
 30
0.0
 10
69.705
 20
-2.6582
 30
0.0
  0
SPLINE
  5
53
330
1F
100
AcDbEntity
  8
Ilustrace
 62
   250
370
    30
100
AcDbSpline
210
0.0
220
0.0
230
1.0
 70
     8
 71
     3
 72
    16
 73
    12
 74
     0
 42
0.0000000001
 43
0.0000000001
 40
0.0
 40
0.0
 40
0.0
 40
0.0
 40
0.25
 40
0.25
 40
0.25
 40
0.25
 40
0.5
 40
0.5
 40
0.5
 40
0.5
 40
1.0
 40
1.0
 40
1.0
 40
1.0
 10
71.6929
 20
-1.5899
 30
0.0
 10
71.8736
 20
-1.8032
 30
0.0
 10
72.0303
 20
-2.0215
 30
0.0
 10
72.1431
 20
-2.2789
 30
0.0
 10
72.1431
 20
-2.2789
 30
0.0
 10
72.422
 20
-2.9141
 30
0.0
 10
72.422
 20
-3.652
 30
0.0
 10
72.1431
 20
-4.2872
 30
0.0
 10
72.1431
 20
-4.2872
 30
0.0
 10
72.0303
 20
-4.5446
 30
0.0
 10
71.8736
 20
-4.7628
 30
0.0
 10
71.6929
 20
-4.976
 30
0.0
  0
SPLINE
  5
54
330
1F
100
AcDbEntity
  8
Ilustrace
 62
   250
370
    30
100
AcDbSpline
210
0.0
220
0.0
230
1.0
 70
    24
 71
     3
 72
     8
 73
     4
 74
     0
 42
0.0000000001
 43
0.0000000001
 40
0.0
 40
0.0
 40
0.0
 40
0.0
 40
1.0
 40
1.0
 40
1.0
 40
1.0
 10
69.705
 20
-3.9077
 30
0.0
 10
69.705
 20
-3.9077
 30
0.0
 10
67.6558
 20
-3.9077
 30
0.0
 10
67.6558
 20
-3.9077
 30
0.0
  0
SPLINE
  5
55
330
1F
100
AcDbEntity
  8
Ilustrace
 62
   250
370
    30
100
AcDbSpline
210
0.0
220
0.0
230
1.0
 70
    24
 71
     3
 72
     8
 73
     4
 74
     0
 42
0.0000000001
 43
0.0000000001
 40
0.0
 40
0.0
 40
0.0
 40
0.0
 40
1.0
 40
1.0
 40
1.0
 40
1.0
 10
69.705
 20
-2.6582
 30
0.0
 10
69.705
 20
-2.6582
 30
0.0
 10
67.6558
 20
-2.6582
 30
0.0
 10
67.6558
 20
-2.6582
 30
0.0
  0
SPLINE
  5
56
330
1F
100
AcDbEntity
  8
Ilustrace
 62
   250
370
    30
100
AcDbSpline
210
0.0
220
0.0
230
1.0
 70
    24
 71
     3
 72
     8
 73
     4
 74
     0
 42
0.0000000001
 43
0.0000000001
 40
0.0
 40
0.0
 40
0.0
 40
0.0
 40
1.0
 40
1.0
 40
1.0
 40
1.0
 10
54.3097
 20
-3.3218
 30
0.0
 10
54.3097
 20
-3.3218
 30
0.0
 10
54.3273
 20
-3.2664
 30
0.0
 10
54.3273
 20
-3.2664
 30
0.0
  0
SPLINE
  5
57
330
1F
100
AcDbEntity
  8
Ilustrace
 62
   250
370
    30
100
AcDbSpline
210
0.0
220
0.0
230
1.0
 70
    24
 71
     3
 72
     8
 73
     4
 74
     0
 42
0.0000000001
 43
0.0000000001
 40
0.0
 40
0.0
 40
0.0
 40
0.0
 40
1.0
 40
1.0
 40
1.0
 40
1.0
 10
54.3592
 20
-4.6824
 30
0.0
 10
54.3592
 20
-4.6824
 30
0.0
 10
54.3592
 20
-4.6713
 30
0.0
 10
54.3592
 20
-4.6713
 30
0.0
  0
SPLINE
  5
58
330
1F
100
AcDbEntity
  8
Ilustrace
 62
   250
370
    30
100
AcDbSpline
210
0.0
220
0.0
230
1.0
 70
    24
 71
     3
 72
     8
 73
     4
 74
     0
 42
0.0000000001
 43
0.0000000001
 40
0.0
 40
0.0
 40
0.0
 40
0.0
 40
1.0
 40
1.0
 40
1.0
 40
1.0
 10
54.3232
 20
-3.2792
 30
0.0
 10
54.3232
 20
-3.2792
 30
0.0
 10
54.3097
 20
-3.3141
 30
0.0
 10
54.3097
 20
-3.3141
 30
0.0
  0
SPLINE
  5
59
330
1F
100
AcDbEntity
  8
Ilustrace
 62
   250
370
    30
100
AcDbSpline
210
0.0
220
0.0
230
1.0
 70
    24
 71
     3
 72
     8
 73
     4
 74
     0
 42
0.0000000001
 43
0.0000000001
 40
0.0
 40
0.0
 40
0.0
 40
0.0
 40
1.0
 40
1.0
 40
1.0
 40
1.0
 10
54.3168
 20
-3.2993
 30
0.0
 10
54.3168
 20
-3.2993
 30
0.0
 10
54.3097
 20
-3.3141
 30
0.0
 10
54.3097
 20
-3.3141
 30
0.0
  0
SPLINE
  5
5A
330
1F
100
AcDbEntity
  8
Ilustrace
 62
   250
370
    30
100
AcDbSpline
210
0.0
220
0.0
230
1.0
 70
    24
 71
     3
 72
     8
 73
     4
 74
     0
 42
0.0000000001
 43
0.0000000001
 40
0.0
 40
0.0
 40
0.0
 40
0.0
 40
1.0
 40
1.0
 40
1.0
 40
1.0
 10
54.3191
 20
-3.2951
 30
0.0
 10
54.3191
 20
-3.2951
 30
0.0
 10
54.3097
 20
-3.3218
 30
0.0
 10
54.3097
 20
-3.3218
 30
0.0
  0
SPLINE
  5
5B
330
1F
100
AcDbEntity
  8
Ilustrace
 62
   250
370
    30
100
AcDbSpline
210
0.0
220
0.0
230
1.0
 70
    24
 71
     3
 72
     8
 73
     4
 74
     0
 42
0.0000000001
 43
0.0000000001
 40
0.0
 40
0.0
 40
0.0
 40
0.0
 40
1.0
 40
1.0
 40
1.0
 40
1.0
 10
54.3097
 20
-3.3297
 30
0.0
 10
54.3097
 20
-3.3297
 30
0.0
 10
54.333
 20
-3.2434
 30
0.0
 10
54.333
 20
-3.2434
 30
0.0
  0
SPLINE
  5
5C
330
1F
100
AcDbEntity
  8
Ilustrace
 62
   250
370
    30
100
AcDbSpline
210
0.0
220
0.0
230
1.0
 70
    24
 71
     3
 72
     8
 73
     4
 74
     0
 42
0.0000000001
 43
0.0000000001
 40
0.0
 40
0.0
 40
0.0
 40
0.0
 40
1.0
 40
1.0
 40
1.0
 40
1.0
 10
54.3097
 20
-3.3297
 30
0.0
 10
54.3097
 20
-3.3297
 30
0.0
 10
54.323
 20
-3.2841
 30
0.0
 10
54.323
 20
-3.2841
 30
0.0
  0
SPLINE
  5
5D
330
1F
100
AcDbEntity
  8
Ilustrace
 62
   250
370
    30
100
AcDbSpline
210
0.0
220
0.0
230
1.0
 70
    24
 71
     3
 72
     8
 73
     4
 74
     0
 42
0.0000000001
 43
0.0000000001
 40
0.0
 40
0.0
 40
0.0
 40
0.0
 40
1.0
 40
1.0
 40
1.0
 40
1.0
 10
54.3172
 20
-3.3074
 30
0.0
 10
54.3172
 20
-3.3074
 30
0.0
 10
54.3592
 20
-3.1368
 30
0.0
 10
54.3592
 20
-3.1368
 30
0.0
  0
SPLINE
  5
5E
330
1F
100
AcDbEntity
  8
Ilustrace
 62
   250
370
    30
100
AcDbSpline
210
0.0
220
0.0
230
1.0
 70
    24
 71
     3
 72
     8
 73
     4
 74
     0
 42
0.0000000001
 43
0.0000000001
 40
0.0
 40
0.0
 40
0.0
 40
0.0
 40
1.0
 40
1.0
 40
1.0
 40
1.0
 10
54.2863
 20
-3.9827
 30
0.0
 10
54.2863
 20
-3.9827
 30
0.0
 10
54.3592
 20
-3.9827
 30
0.0
 10
54.3592
 20
-3.9827
 30
0.0
  0
SPLINE
  5
5F
330
1F
100
AcDbEntity
  8
Ilustrace
 62
   250
370
    30
100
AcDbSpline
210
0.0
220
0.0
230
1.0
 70
    24
 71
     3
 72
     8
 73
     4
 74
     0
 42
0.0000000001
 43
0.0000000001
 40
0.0
 40
0.0
 40
0.0
 40
0.0
 40
1.0
 40
1.0
 40
1.0
 40
1.0
 10
54.2863
 20
-3.7155
 30
0.0
 10
54.2863
 20
-3.7155
 30
0.0
 10
54.3592
 20
-3.7155
 30
0.0
 10
54.3592
 20
-3.7155
 30
0.0
  0
SPLINE
  5
60
330
1F
100
AcDbEntity
  8
Ilustrace
 62
   250
370
    30
100
AcDbSpline
210
0.0
220
0.0
230
1.0
 70
    24
 71
     3
 72
     8
 73
     4
 74
     0
 42
0.0000000001
 43
0.0000000001
 40
0.0
 40
0.0
 40
0.0
 40
0.0
 40
1.0
 40
1.0
 40
1.0
 40
1.0
 10
54.2863
 20
-3.4293
 30
0.0
 10
54.2863
 20
-3.4293
 30
0.0
 10
54.3592
 20
-3.4293
 30
0.0
 10
54.3592
 20
-3.4293
 30
0.0
  0
SPLINE
  5
61
330
1F
100
AcDbEntity
  8
Ilustrace
 62
   250
370
    30
100
AcDbSpline
210
0.0
220
0.0
230
1.0
 70
    24
 71
     3
 72
     8
 73
     4
 74
     0
 42
0.0000000001
 43
0.0000000001
 40
0.0
 40
0.0
 40
0.0
 40
0.0
 40
1.0
 40
1.0
 40
1.0
 40
1.0
 10
54.3592
 20
-3.9687
 30
0.0
 10
54.3592
 20
-3.9687
 30
0.0
 10
54.3592
 20
-3.9815
 30
0.0
 10
54.3592
 20
-3.9815
 30
0.0
  0
SPLINE
  5
62
330
1F
100
AcDbEntity
  8
Ilustrace
 62
   250
370
    30
100
AcDbSpline
210
0.0
220
0.0
230
1.0
 70
    24
 71
     3
 72
     8
 73
     4
 74
     0
 42
0.0000000001
 43
0.0000000001
 40
0.0
 40
0.0
 40
0.0
 40
0.0
 40
1.0
 40
1.0
 40
1.0
 40
1.0
 10
54.3592
 20
-3.7146
 30
0.0
 10
54.3592
 20
-3.7146
 30
0.0
 10
54.3592
 20
-3.7068
 30
0.0
 10
54.3592
 20
-3.7068
 30
0.0
  0
SPLINE
  5
63
330
1F
100
AcDbEntity
  8
Ilustrace
 62
   250
370
    30
100
AcDbSpline
210
0.0
220
0.0
230
1.0
 70
    24
 71
     3
 72
     8
 73
     4
 74
     0
 42
0.0000000001
 43
0.0000000001
 40
0.0
 40
0.0
 40
0.0
 40
0.0
 40
1.0
 40
1.0
 40
1.0
 40
1.0
 10
54.3592
 20
-3.1396
 30
0.0
 10
54.3592
 20
-3.1396
 30
0.0
 10
54.3592
 20
-3.1369
 30
0.0
 10
54.3592
 20
-3.1369
 30
0.0
  0
SPLINE
  5
64
330
1F
100
AcDbEntity
  8
Ilustrace
 62
   250
370
    30
100
AcDbSpline
210
0.0
220
0.0
230
1.0
 70
    24
 71
     3
 72
     8
 73
     4
 74
     0
 42
0.0000000001
 43
0.0000000001
 40
0.0
 40
0.0
 40
0.0
 40
0.0
 40
1.0
 40
1.0
 40
1.0
 40
1.0
 10
54.3592
 20
-4.5358
 30
0.0
 10
54.3592
 20
-4.5358
 30
0.0
 10
54.3592
 20
-4.5592
 30
0.0
 10
54.3592
 20
-4.5592
 30
0.0
  0
SPLINE
  5
65
330
1F
100
AcDbEntity
  8
Ilustrace
 62
   250
370
    30
100
AcDbSpline
210
0.0
220
0.0
230
1.0
 70
    24
 71
     3
 72
     8
 73
     4
 74
     0
 42
0.0000000001
 43
0.0000000001
 40
0.0
 40
0.0
 40
0.0
 40
0.0
 40
1.0
 40
1.0
 40
1.0
 40
1.0
 10
54.3592
 20
-4.6219
 30
0.0
 10
54.3592
 20
-4.6219
 30
0.0
 10
54.3592
 20
-4.6495
 30
0.0
 10
54.3592
 20
-4.6495
 30
0.0
  0
SPLINE
  5
66
330
1F
100
AcDbEntity
  8
Ilustrace
 62
   250
370
    30
100
AcDbSpline
210
0.0
220
0.0
230
1.0
 70
    24
 71
     3
 72
     8
 73
     4
 74
     0
 42
0.0000000001
 43
0.0000000001
 40
0.0
 40
0.0
 40
0.0
 40
0.0
 40
1.0
 40
1.0
 40
1.0
 40
1.0
 10
54.3102
 20
-3.3349
 30
0.0
 10
54.3102
 20
-3.3349
 30
0.0
 10
54.3355
 20
-3.2345
 30
0.0
 10
54.3355
 20
-3.2345
 30
0.0
  0
SPLINE
  5
67
330
1F
100
AcDbEntity
  8
Ilustrace
 62
   250
370
    30
100
AcDbSpline
210
0.0
220
0.0
230
1.0
 70
    24
 71
     3
 72
     8
 73
     4
 74
     0
 42
0.0000000001
 43
0.0000000001
 40
0.0
 40
0.0
 40
0.0
 40
0.0
 40
1.0
 40
1.0
 40
1.0
 40
1.0
 10
54.5822
 20
-4.6824
 30
0.0
 10
54.5822
 20
-4.6824
 30
0.0
 10
54.2863
 20
-4.6824
 30
0.0
 10
54.2863
 20
-4.6824
 30
0.0
  0
SPLINE
  5
68
330
1F
100
AcDbEntity
  8
Ilustrace
 62
   250
370
    30
100
AcDbSpline
210
0.0
220
0.0
230
1.0
 70
    24
 71
     3
 72
     8
 73
     4
 74
     0
 42
0.0000000001
 43
0.0000000001
 40
0.0
 40
0.0
 40
0.0
 40
0.0
 40
1.0
 40
1.0
 40
1.0
 40
1.0
 10
54.3592
 20
-4.2006
 30
0.0
 10
54.3592
 20
-4.2006
 30
0.0
 10
54.3592
 20
-4.2177
 30
0.0
 10
54.3592
 20
-4.2177
 30
0.0
  0
SPLINE
  5
69
330
1F
100
AcDbEntity
  8
Ilustrace
 62
   250
370
    30
100
AcDbSpline
210
0.0
220
0.0
230
1.0
 70
    24
 71
     3
 72
     8
 73
     4
 74
     0
 42
0.0000000001
 43
0.0000000001
 40
0.0
 40
0.0
 40
0.0
 40
0.0
 40
1.0
 40
1.0
 40
1.0
 40
1.0
 10
54.2863
 20
-4.2194
 30
0.0
 10
54.2863
 20
-4.2194
 30
0.0
 10
54.3592
 20
-4.2194
 30
0.0
 10
54.3592
 20
-4.2194
 30
0.0
  0
SPLINE
  5
6A
330
1F
100
AcDbEntity
  8
Ilustrace
 62
   250
370
    30
100
AcDbSpline
210
0.0
220
0.0
230
1.0
 70
    24
 71
     3
 72
     8
 73
     4
 74
     0
 42
0.0000000001
 43
0.0000000001
 40
0.0
 40
0.0
 40
0.0
 40
0.0
 40
1.0
 40
1.0
 40
1.0
 40
1.0
 10
54.5822
 20
-4.6824
 30
0.0
 10
54.5822
 20
-4.6824
 30
0.0
 10
54.7237
 20
-4.4373
 30
0.0
 10
54.7237
 20
-4.4373
 30
0.0
  0
SPLINE
  5
6B
330
1F
100
AcDbEntity
  8
Ilustrace
 62
   250
370
    30
100
AcDbSpline
210
0.0
220
0.0
230
1.0
 70
    24
 71
     3
 72
     8
 73
     4
 74
     0
 42
0.0000000001
 43
0.0000000001
 40
0.0
 40
0.0
 40
0.0
 40
0.0
 40
1.0
 40
1.0
 40
1.0
 40
1.0
 10
55.2717
 20
-4.4373
 30
0.0
 10
55.2717
 20
-4.4373
 30
0.0
 10
54.7237
 20
-4.4373
 30
0.0
 10
54.7237
 20
-4.4373
 30
0.0
  0
SPLINE
  5
6C
330
1F
100
AcDbEntity
  8
Ilustrace
 62
   250
370
    30
100
AcDbSpline
210
0.0
220
0.0
230
1.0
 70
    24
 71
     3
 72
     8
 73
     4
 74
     0
 42
0.0000000001
 43
0.0000000001
 40
0.0
 40
0.0
 40
0.0
 40
0.0
 40
1.0
 40
1.0
 40
1.0
 40
1.0
 10
54.3592
 20
-4.3924
 30
0.0
 10
54.3592
 20
-4.3924
 30
0.0
 10
54.3592
 20
-4.4131
 30
0.0
 10
54.3592
 20
-4.4131
 30
0.0
  0
SPLINE
  5
6D
330
1F
100
AcDbEntity
  8
Ilustrace
 62
   250
370
    30
100
AcDbSpline
210
0.0
220
0.0
230
1.0
 70
    24
 71
     3
 72
     8
 73
     4
 74
     0
 42
0.0000000001
 43
0.0000000001
 40
0.0
 40
0.0
 40
0.0
 40
0.0
 40
1.0
 40
1.0
 40
1.0
 40
1.0
 10
54.2863
 20
-4.4152
 30
0.0
 10
54.2863
 20
-4.4152
 30
0.0
 10
54.3592
 20
-4.4152
 30
0.0
 10
54.3592
 20
-4.4152
 30
0.0
  0
SPLINE
  5
6E
330
1F
100
AcDbEntity
  8
Ilustrace
 62
   250
370
    30
100
AcDbSpline
210
0.0
220
0.0
230
1.0
 70
    24
 71
     3
 72
     8
 73
     4
 74
     0
 42
0.0000000001
 43
0.0000000001
 40
0.0
 40
0.0
 40
0.0
 40
0.0
 40
1.0
 40
1.0
 40
1.0
 40
1.0
 10
54.3592
 20
-4.5615
 30
0.0
 10
54.3592
 20
-4.5615
 30
0.0
 10
54.2863
 20
-4.5615
 30
0.0
 10
54.2863
 20
-4.5615
 30
0.0
  0
SPLINE
  5
6F
330
1F
100
AcDbEntity
  8
Ilustrace
 62
   250
370
    30
100
AcDbSpline
210
0.0
220
0.0
230
1.0
 70
    24
 71
     3
 72
     8
 73
     4
 74
     0
 42
0.0000000001
 43
0.0000000001
 40
0.0
 40
0.0
 40
0.0
 40
0.0
 40
1.0
 40
1.0
 40
1.0
 40
1.0
 10
54.3592
 20
-4.6519
 30
0.0
 10
54.3592
 20
-4.6519
 30
0.0
 10
54.2863
 20
-4.6519
 30
0.0
 10
54.2863
 20
-4.6519
 30
0.0
  0
SPLINE
  5
70
330
1F
100
AcDbEntity
  8
Ilustrace
 62
   250
370
    30
100
AcDbSpline
210
0.0
220
0.0
230
1.0
 70
    24
 71
     3
 72
     8
 73
     4
 74
     0
 42
0.0000000001
 43
0.0000000001
 40
0.0
 40
0.0
 40
0.0
 40
0.0
 40
1.0
 40
1.0
 40
1.0
 40
1.0
 10
54.7237
 20
-2.1289
 30
0.0
 10
54.7237
 20
-2.1289
 30
0.0
 10
54.5822
 20
-1.8835
 30
0.0
 10
54.5822
 20
-1.8835
 30
0.0
  0
SPLINE
  5
71
330
1F
100
AcDbEntity
  8
Ilustrace
 62
   250
370
    30
100
AcDbSpline
210
0.0
220
0.0
230
1.0
 70
    24
 71
     3
 72
     8
 73
     4
 74
     0
 42
0.0000000001
 43
0.0000000001
 40
0.0
 40
0.0
 40
0.0
 40
0.0
 40
1.0
 40
1.0
 40
1.0
 40
1.0
 10
54.7237
 20
-2.1289
 30
0.0
 10
54.7237
 20
-2.1289
 30
0.0
 10
55.2717
 20
-2.1289
 30
0.0
 10
55.2717
 20
-2.1289
 30
0.0
  0
SPLINE
  5
72
330
1F
100
AcDbEntity
  8
Ilustrace
 62
   250
370
    30
100
AcDbSpline
210
0.0
220
0.0
230
1.0
 70
    24
 71
     3
 72
     8
 73
     4
 74
     0
 42
0.0000000001
 43
0.0000000001
 40
0.0
 40
0.0
 40
0.0
 40
0.0
 40
1.0
 40
1.0
 40
1.0
 40
1.0
 10
54.3355
 20
-1.9638
 30
0.0
 10
54.3355
 20
-1.9638
 30
0.0
 10
54.2863
 20
-2.0046
 30
0.0
 10
54.2863
 20
-2.0046
 30
0.0
  0
SPLINE
  5
73
330
1F
100
AcDbEntity
  8
Ilustrace
 62
   250
370
    30
100
AcDbSpline
210
0.0
220
0.0
230
1.0
 70
    24
 71
     3
 72
     8
 73
     4
 74
     0
 42
0.0000000001
 43
0.0000000001
 40
0.0
 40
0.0
 40
0.0
 40
0.0
 40
1.0
 40
1.0
 40
1.0
 40
1.0
 10
54.3549
 20
-3.9827
 30
0.0
 10
54.3549
 20
-3.9827
 30
0.0
 10
54.2863
 20
-4.2194
 30
0.0
 10
54.2863
 20
-4.2194
 30
0.0
  0
SPLINE
  5
74
330
1F
100
AcDbEntity
  8
Ilustrace
 62
   250
370
    30
100
AcDbSpline
210
0.0
220
0.0
230
1.0
 70
    24
 71
     3
 72
     8
 73
     4
 74
     0
 42
0.0000000001
 43
0.0000000001
 40
0.0
 40
0.0
 40
0.0
 40
0.0
 40
1.0
 40
1.0
 40
1.0
 40
1.0
 10
54.2863
 20
-4.6824
 30
0.0
 10
54.2863
 20
-4.6824
 30
0.0
 10
54.3232
 20
-4.6519
 30
0.0
 10
54.3232
 20
-4.6519
 30
0.0
  0
SPLINE
  5
75
330
1F
100
AcDbEntity
  8
Ilustrace
 62
   250
370
    30
100
AcDbSpline
210
0.0
220
0.0
230
1.0
 70
    24
 71
     3
 72
     8
 73
     4
 74
     0
 42
0.0000000001
 43
0.0000000001
 40
0.0
 40
0.0
 40
0.0
 40
0.0
 40
1.0
 40
1.0
 40
1.0
 40
1.0
 10
54.3355
 20
-2.4377
 30
0.0
 10
54.3355
 20
-2.4377
 30
0.0
 10
54.2863
 20
-2.5832
 30
0.0
 10
54.2863
 20
-2.5832
 30
0.0
  0
SPLINE
  5
76
330
1F
100
AcDbEntity
  8
Ilustrace
 62
   250
370
    30
100
AcDbSpline
210
0.0
220
0.0
230
1.0
 70
    24
 71
     3
 72
     8
 73
     4
 74
     0
 42
0.0000000001
 43
0.0000000001
 40
0.0
 40
0.0
 40
0.0
 40
0.0
 40
1.0
 40
1.0
 40
1.0
 40
1.0
 10
54.2863
 20
-2.3467
 30
0.0
 10
54.2863
 20
-2.3467
 30
0.0
 10
54.3355
 20
-2.2315
 30
0.0
 10
54.3355
 20
-2.2315
 30
0.0
  0
SPLINE
  5
77
330
1F
100
AcDbEntity
  8
Ilustrace
 62
   250
370
    30
100
AcDbSpline
210
0.0
220
0.0
230
1.0
 70
    24
 71
     3
 72
     8
 73
     4
 74
     0
 42
0.0000000001
 43
0.0000000001
 40
0.0
 40
0.0
 40
0.0
 40
0.0
 40
1.0
 40
1.0
 40
1.0
 40
1.0
 10
54.2863
 20
-3.9827
 30
0.0
 10
54.2863
 20
-3.9827
 30
0.0
 10
54.3567
 20
-3.7155
 30
0.0
 10
54.3567
 20
-3.7155
 30
0.0
  0
SPLINE
  5
78
330
1F
100
AcDbEntity
  8
Ilustrace
 62
   250
370
    30
100
AcDbSpline
210
0.0
220
0.0
230
1.0
 70
    24
 71
     3
 72
     8
 73
     4
 74
     0
 42
0.0000000001
 43
0.0000000001
 40
0.0
 40
0.0
 40
0.0
 40
0.0
 40
1.0
 40
1.0
 40
1.0
 40
1.0
 10
54.2863
 20
-3.7155
 30
0.0
 10
54.2863
 20
-3.7155
 30
0.0
 10
54.3585
 20
-3.4293
 30
0.0
 10
54.3585
 20
-3.4293
 30
0.0
  0
SPLINE
  5
79
330
1F
100
AcDbEntity
  8
Ilustrace
 62
   250
370
    30
100
AcDbSpline
210
0.0
220
0.0
230
1.0
 70
    24
 71
     3
 72
     8
 73
     4
 74
     0
 42
0.0000000001
 43
0.0000000001
 40
0.0
 40
0.0
 40
0.0
 40
0.0
 40
1.0
 40
1.0
 40
1.0
 40
1.0
 10
54.2863
 20
-3.1368
 30
0.0
 10
54.2863
 20
-3.1368
 30
0.0
 10
54.3355
 20
-2.9505
 30
0.0
 10
54.3355
 20
-2.9505
 30
0.0
  0
SPLINE
  5
7A
330
1F
100
AcDbEntity
  8
Ilustrace
 62
   250
370
    30
100
AcDbSpline
210
0.0
220
0.0
230
1.0
 70
    24
 71
     3
 72
     8
 73
     4
 74
     0
 42
0.0000000001
 43
0.0000000001
 40
0.0
 40
0.0
 40
0.0
 40
0.0
 40
1.0
 40
1.0
 40
1.0
 40
1.0
 10
54.2863
 20
-4.6519
 30
0.0
 10
54.2863
 20
-4.6519
 30
0.0
 10
54.342
 20
-4.5615
 30
0.0
 10
54.342
 20
-4.5615
 30
0.0
  0
SPLINE
  5
7B
330
1F
100
AcDbEntity
  8
Ilustrace
 62
   250
370
    30
100
AcDbSpline
210
0.0
220
0.0
230
1.0
 70
    24
 71
     3
 72
     8
 73
     4
 74
     0
 42
0.0000000001
 43
0.0000000001
 40
0.0
 40
0.0
 40
0.0
 40
0.0
 40
1.0
 40
1.0
 40
1.0
 40
1.0
 10
54.3487
 20
-4.4152
 30
0.0
 10
54.3487
 20
-4.4152
 30
0.0
 10
54.2863
 20
-4.5615
 30
0.0
 10
54.2863
 20
-4.5615
 30
0.0
  0
SPLINE
  5
7C
330
1F
100
AcDbEntity
  8
Ilustrace
 62
   250
370
    30
100
AcDbSpline
210
0.0
220
0.0
230
1.0
 70
    24
 71
     3
 72
     8
 73
     4
 74
     0
 42
0.0000000001
 43
0.0000000001
 40
0.0
 40
0.0
 40
0.0
 40
0.0
 40
1.0
 40
1.0
 40
1.0
 40
1.0
 10
54.2863
 20
-4.4152
 30
0.0
 10
54.2863
 20
-4.4152
 30
0.0
 10
54.3523
 20
-4.2194
 30
0.0
 10
54.3523
 20
-4.2194
 30
0.0
  0
SPLINE
  5
7D
330
1F
100
AcDbEntity
  8
Ilustrace
 62
   250
370
    30
100
AcDbSpline
210
0.0
220
0.0
230
1.0
 70
    24
 71
     3
 72
     8
 73
     4
 74
     0
 42
0.0000000001
 43
0.0000000001
 40
0.0
 40
0.0
 40
0.0
 40
0.0
 40
1.0
 40
1.0
 40
1.0
 40
1.0
 10
54.2863
 20
-2.1509
 30
0.0
 10
54.2863
 20
-2.1509
 30
0.0
 10
54.3355
 20
-2.0712
 30
0.0
 10
54.3355
 20
-2.0712
 30
0.0
  0
SPLINE
  5
7E
330
1F
100
AcDbEntity
  8
Ilustrace
 62
   250
370
    30
100
AcDbSpline
210
0.0
220
0.0
230
1.0
 70
    24
 71
     3
 72
     8
 73
     4
 74
     0
 42
0.0000000001
 43
0.0000000001
 40
0.0
 40
0.0
 40
0.0
 40
0.0
 40
1.0
 40
1.0
 40
1.0
 40
1.0
 10
54.2863
 20
-2.8505
 30
0.0
 10
54.2863
 20
-2.8505
 30
0.0
 10
54.3355
 20
-2.6809
 30
0.0
 10
54.3355
 20
-2.6809
 30
0.0
  0
SPLINE
  5
7F
330
1F
100
AcDbEntity
  8
Ilustrace
 62
   250
370
    30
100
AcDbSpline
210
0.0
220
0.0
230
1.0
 70
    24
 71
     3
 72
     8
 73
     4
 74
     0
 42
0.0000000001
 43
0.0000000001
 40
0.0
 40
0.0
 40
0.0
 40
0.0
 40
1.0
 40
1.0
 40
1.0
 40
1.0
 10
54.5822
 20
-1.8835
 30
0.0
 10
54.5822
 20
-1.8835
 30
0.0
 10
54.5822
 20
-4.6824
 30
0.0
 10
54.5822
 20
-4.6824
 30
0.0
  0
SPLINE
  5
80
330
1F
100
AcDbEntity
  8
Ilustrace
 62
   250
370
    30
100
AcDbSpline
210
0.0
220
0.0
230
1.0
 70
    24
 71
     3
 72
     8
 73
     4
 74
     0
 42
0.0000000001
 43
0.0000000001
 40
0.0
 40
0.0
 40
0.0
 40
0.0
 40
1.0
 40
1.0
 40
1.0
 40
1.0
 10
54.2863
 20
-1.9142
 30
0.0
 10
54.2863
 20
-1.9142
 30
0.0
 10
54.3592
 20
-1.9142
 30
0.0
 10
54.3592
 20
-1.9142
 30
0.0
  0
SPLINE
  5
81
330
1F
100
AcDbEntity
  8
Ilustrace
 62
   250
370
    30
100
AcDbSpline
210
0.0
220
0.0
230
1.0
 70
    24
 71
     3
 72
     8
 73
     4
 74
     0
 42
0.0000000001
 43
0.0000000001
 40
0.0
 40
0.0
 40
0.0
 40
0.0
 40
1.0
 40
1.0
 40
1.0
 40
1.0
 10
54.2863
 20
-2.0046
 30
0.0
 10
54.2863
 20
-2.0046
 30
0.0
 10
54.3592
 20
-2.0046
 30
0.0
 10
54.3592
 20
-2.0046
 30
0.0
  0
SPLINE
  5
82
330
1F
100
AcDbEntity
  8
Ilustrace
 62
   250
370
    30
100
AcDbSpline
210
0.0
220
0.0
230
1.0
 70
    24
 71
     3
 72
     8
 73
     4
 74
     0
 42
0.0000000001
 43
0.0000000001
 40
0.0
 40
0.0
 40
0.0
 40
0.0
 40
1.0
 40
1.0
 40
1.0
 40
1.0
 10
54.3592
 20
-2.1509
 30
0.0
 10
54.3592
 20
-2.1509
 30
0.0
 10
54.2863
 20
-2.1509
 30
0.0
 10
54.2863
 20
-2.1509
 30
0.0
  0
SPLINE
  5
83
330
1F
100
AcDbEntity
  8
Ilustrace
 62
   250
370
    30
100
AcDbSpline
210
0.0
220
0.0
230
1.0
 70
    24
 71
     3
 72
     8
 73
     4
 74
     0
 42
0.0000000001
 43
0.0000000001
 40
0.0
 40
0.0
 40
0.0
 40
0.0
 40
1.0
 40
1.0
 40
1.0
 40
1.0
 10
54.3592
 20
-2.3467
 30
0.0
 10
54.3592
 20
-2.3467
 30
0.0
 10
54.2863
 20
-2.3467
 30
0.0
 10
54.2863
 20
-2.3467
 30
0.0
  0
SPLINE
  5
84
330
1F
100
AcDbEntity
  8
Ilustrace
 62
   250
370
    30
100
AcDbSpline
210
0.0
220
0.0
230
1.0
 70
    24
 71
     3
 72
     8
 73
     4
 74
     0
 42
0.0000000001
 43
0.0000000001
 40
0.0
 40
0.0
 40
0.0
 40
0.0
 40
1.0
 40
1.0
 40
1.0
 40
1.0
 10
55.2717
 20
-2.706
 30
0.0
 10
55.2717
 20
-2.706
 30
0.0
 10
54.7237
 20
-2.706
 30
0.0
 10
54.7237
 20
-2.706
 30
0.0
  0
SPLINE
  5
85
330
1F
100
AcDbEntity
  8
Ilustrace
 62
   250
370
    30
100
AcDbSpline
210
0.0
220
0.0
230
1.0
 70
    24
 71
     3
 72
     8
 73
     4
 74
     0
 42
0.0000000001
 43
0.0000000001
 40
0.0
 40
0.0
 40
0.0
 40
0.0
 40
1.0
 40
1.0
 40
1.0
 40
1.0
 10
54.7237
 20
-3.8601
 30
0.0
 10
54.7237
 20
-3.8601
 30
0.0
 10
55.2717
 20
-3.8601
 30
0.0
 10
55.2717
 20
-3.8601
 30
0.0
  0
SPLINE
  5
86
330
1F
100
AcDbEntity
  8
Ilustrace
 62
   250
370
    30
100
AcDbSpline
210
0.0
220
0.0
230
1.0
 70
    24
 71
     3
 72
     8
 73
     4
 74
     0
 42
0.0000000001
 43
0.0000000001
 40
0.0
 40
0.0
 40
0.0
 40
0.0
 40
1.0
 40
1.0
 40
1.0
 40
1.0
 10
54.3592
 20
-2.5832
 30
0.0
 10
54.3592
 20
-2.5832
 30
0.0
 10
54.2863
 20
-2.5832
 30
0.0
 10
54.2863
 20
-2.5832
 30
0.0
  0
SPLINE
  5
87
330
1F
100
AcDbEntity
  8
Ilustrace
 62
   250
370
    30
100
AcDbSpline
210
0.0
220
0.0
230
1.0
 70
    24
 71
     3
 72
     8
 73
     4
 74
     0
 42
0.0000000001
 43
0.0000000001
 40
0.0
 40
0.0
 40
0.0
 40
0.0
 40
1.0
 40
1.0
 40
1.0
 40
1.0
 10
54.3592
 20
-2.8505
 30
0.0
 10
54.3592
 20
-2.8505
 30
0.0
 10
54.2863
 20
-2.8505
 30
0.0
 10
54.2863
 20
-2.8505
 30
0.0
  0
SPLINE
  5
88
330
1F
100
AcDbEntity
  8
Ilustrace
 62
   250
370
    30
100
AcDbSpline
210
0.0
220
0.0
230
1.0
 70
    24
 71
     3
 72
     8
 73
     4
 74
     0
 42
0.0000000001
 43
0.0000000001
 40
0.0
 40
0.0
 40
0.0
 40
0.0
 40
1.0
 40
1.0
 40
1.0
 40
1.0
 10
54.5822
 20
-1.8835
 30
0.0
 10
54.5822
 20
-1.8835
 30
0.0
 10
54.3592
 20
-1.8835
 30
0.0
 10
54.3592
 20
-1.8835
 30
0.0
  0
SPLINE
  5
89
330
1F
100
AcDbEntity
  8
Ilustrace
 62
   250
370
    30
100
AcDbSpline
210
0.0
220
0.0
230
1.0
 70
     8
 71
     3
 72
     8
 73
     4
 74
     0
 42
0.0000000001
 43
0.0000000001
 40
0.0
 40
0.0
 40
0.0
 40
0.0
 40
1.0
 40
1.0
 40
1.0
 40
1.0
 10
54.3592
 20
-1.8835
 30
0.0
 10
54.3282
 20
-1.8879
 30
0.0
 10
54.3119
 20
-1.8967
 30
0.0
 10
54.2863
 20
-1.9142
 30
0.0
  0
SPLINE
  5
8A
330
1F
100
AcDbEntity
  8
Ilustrace
 62
   250
370
    30
100
AcDbSpline
210
0.0
220
0.0
230
1.0
 70
     8
 71
     3
 72
     8
 73
     4
 74
     0
 42
0.0000000001
 43
0.0000000001
 40
0.0
 40
0.0
 40
0.0
 40
0.0
 40
1.0
 40
1.0
 40
1.0
 40
1.0
 10
54.2863
 20
-3.1368
 30
0.0
 10
54.3108
 20
-3.0414
 30
0.0
 10
54.3349
 20
-2.946
 30
0.0
 10
54.3592
 20
-2.8505
 30
0.0
  0
SPLINE
  5
8B
330
1F
100
AcDbEntity
  8
Ilustrace
 62
   250
370
    30
100
AcDbSpline
210
0.0
220
0.0
230
1.0
 70
     8
 71
     3
 72
     8
 73
     4
 74
     0
 42
0.0000000001
 43
0.0000000001
 40
0.0
 40
0.0
 40
0.0
 40
0.0
 40
1.0
 40
1.0
 40
1.0
 40
1.0
 10
54.2863
 20
-2.8505
 30
0.0
 10
54.3104
 20
-2.7615
 30
0.0
 10
54.3344
 20
-2.6723
 30
0.0
 10
54.3592
 20
-2.5832
 30
0.0
  0
SPLINE
  5
8C
330
1F
100
AcDbEntity
  8
Ilustrace
 62
   250
370
    30
100
AcDbSpline
210
0.0
220
0.0
230
1.0
 70
     8
 71
     3
 72
     8
 73
     4
 74
     0
 42
0.0000000001
 43
0.0000000001
 40
0.0
 40
0.0
 40
0.0
 40
0.0
 40
1.0
 40
1.0
 40
1.0
 40
1.0
 10
54.2863
 20
-2.3467
 30
0.0
 10
54.3093
 20
-2.2809
 30
0.0
 10
54.3329
 20
-2.2154
 30
0.0
 10
54.3592
 20
-2.1509
 30
0.0
  0
SPLINE
  5
8D
330
1F
100
AcDbEntity
  8
Ilustrace
 62
   250
370
    30
100
AcDbSpline
210
0.0
220
0.0
230
1.0
 70
     8
 71
     3
 72
     8
 73
     4
 74
     0
 42
0.0000000001
 43
0.0000000001
 40
0.0
 40
0.0
 40
0.0
 40
0.0
 40
1.0
 40
1.0
 40
1.0
 40
1.0
 10
54.2863
 20
-2.0046
 30
0.0
 10
54.3077
 20
-1.9717
 30
0.0
 10
54.3303
 20
-1.9407
 30
0.0
 10
54.3592
 20
-1.9142
 30
0.0
  0
SPLINE
  5
8E
330
1F
100
AcDbEntity
  8
Ilustrace
 62
   250
370
    30
100
AcDbSpline
210
0.0
220
0.0
230
1.0
 70
     8
 71
     3
 72
     8
 73
     4
 74
     0
 42
0.0000000001
 43
0.0000000001
 40
0.0
 40
0.0
 40
0.0
 40
0.0
 40
1.0
 40
1.0
 40
1.0
 40
1.0
 10
54.2863
 20
-2.5832
 30
0.0
 10
54.3099
 20
-2.5042
 30
0.0
 10
54.3338
 20
-2.4252
 30
0.0
 10
54.3592
 20
-2.3467
 30
0.0
  0
SPLINE
  5
8F
330
1F
100
AcDbEntity
  8
Ilustrace
 62
   250
370
    30
100
AcDbSpline
210
0.0
220
0.0
230
1.0
 70
     8
 71
     3
 72
     8
 73
     4
 74
     0
 42
0.0000000001
 43
0.0000000001
 40
0.0
 40
0.0
 40
0.0
 40
0.0
 40
1.0
 40
1.0
 40
1.0
 40
1.0
 10
55.2717
 20
-2.1289
 30
0.0
 10
55.4442
 20
-2.4277
 30
0.0
 10
55.361
 20
-2.2239
 30
0.0
 10
55.361
 20
-2.7832
 30
0.0
  0
SPLINE
  5
90
330
1F
100
AcDbEntity
  8
Ilustrace
 62
   250
370
    30
100
AcDbSpline
210
0.0
220
0.0
230
1.0
 70
     8
 71
     3
 72
    16
 73
    12
 74
     0
 42
0.0000000001
 43
0.0000000001
 40
0.0
 40
0.0
 40
0.0
 40
0.0
 40
0.25
 40
0.25
 40
0.25
 40
0.25
 40
0.5
 40
0.5
 40
0.5
 40
0.5
 40
1.0
 40
1.0
 40
1.0
 40
1.0
 10
55.361
 20
-2.7832
 30
0.0
 10
55.361
 20
-2.7832
 30
0.0
 10
55.361
 20
-3.7829
 30
0.0
 10
55.361
 20
-3.7829
 30
0.0
 10
55.361
 20
-3.7829
 30
0.0
 10
55.361
 20
-3.7829
 30
0.0
 10
55.361
 20
-4.2826
 30
0.0
 10
55.361
 20
-4.2826
 30
0.0
 10
55.361
 20
-4.2826
 30
0.0
 10
55.361
 20
-4.2826
 30
0.0
 10
55.2717
 20
-4.4373
 30
0.0
 10
55.2717
 20
-4.4373
 30
0.0
  0
SPLINE
  5
91
330
1F
100
AcDbEntity
  8
Ilustrace
 62
   250
370
    30
100
AcDbSpline
210
0.0
220
0.0
230
1.0
 70
     8
 71
     3
 72
     8
 73
     4
 74
     0
 42
0.0000000001
 43
0.0000000001
 40
0.0
 40
0.0
 40
0.0
 40
0.0
 40
1.0
 40
1.0
 40
1.0
 40
1.0
 10
54.2863
 20
-2.1509
 30
0.0
 10
54.3091
 20
-2.1011
 30
0.0
 10
54.3324
 20
-2.0524
 30
0.0
 10
54.3592
 20
-2.0046
 30
0.0
  0
SPLINE
  5
92
330
1F
100
AcDbEntity
  8
Ilustrace
 62
   250
370
    30
100
AcDbSpline
210
0.0
220
0.0
230
1.0
 70
     8
 71
     3
 72
     8
 73
     4
 74
     0
 42
0.0000000001
 43
0.0000000001
 40
0.0
 40
0.0
 40
0.0
 40
0.0
 40
1.0
 40
1.0
 40
1.0
 40
1.0
 10
54.3592
 20
-2.5832
 30
0.0
 10
54.6446
 20
-2.5832
 30
0.0
 10
54.526
 20
-2.5347
 30
0.0
 10
54.7237
 20
-2.706
 30
0.0
  0
SPLINE
  5
93
330
1F
100
AcDbEntity
  8
Ilustrace
 62
   250
370
    30
100
AcDbSpline
210
0.0
220
0.0
230
1.0
 70
     8
 71
     3
 72
    12
 73
     8
 74
     0
 42
0.0000000001
 43
0.0000000001
 40
0.0
 40
0.0
 40
0.0
 40
0.0
 40
0.3333333333333333
 40
0.3333333333333333
 40
0.3333333333333333
 40
0.3333333333333333
 40
1.0
 40
1.0
 40
1.0
 40
1.0
 10
55.2717
 20
-2.1289
 30
0.0
 10
55.3405
 20
-2.2586
 30
0.0
 10
55.3802
 20
-2.3838
 30
0.0
 10
55.3462
 20
-2.5307
 30
0.0
 10
55.3462
 20
-2.5307
 30
0.0
 10
55.3373
 20
-2.5697
 30
0.0
 10
55.3205
 20
-2.6102
 30
0.0
 10
55.3036
 20
-2.6457
 30
0.0
  0
SPLINE
  5
94
330
1F
100
AcDbEntity
  8
Ilustrace
 62
   250
370
    30
100
AcDbSpline
210
0.0
220
0.0
230
1.0
 70
     8
 71
     3
 72
    12
 73
     8
 74
     0
 42
0.0000000001
 43
0.0000000001
 40
0.0
 40
0.0
 40
0.0
 40
0.0
 40
0.3333333333333333
 40
0.3333333333333333
 40
0.3333333333333333
 40
0.3333333333333333
 40
1.0
 40
1.0
 40
1.0
 40
1.0
 10
55.3036
 20
-2.6457
 30
0.0
 10
55.3036
 20
-2.6457
 30
0.0
 10
55.2717
 20
-2.706
 30
0.0
 10
55.2717
 20
-2.706
 30
0.0
 10
55.2717
 20
-2.706
 30
0.0
 10
55.2717
 20
-2.706
 30
0.0
 10
55.3284
 20
-2.9423
 30
0.0
 10
55.3284
 20
-2.9423
 30
0.0
  0
SPLINE
  5
95
330
1F
100
AcDbEntity
  8
Ilustrace
 62
   250
370
    30
100
AcDbSpline
210
0.0
220
0.0
230
1.0
 70
     8
 71
     3
 72
    12
 73
     8
 74
     0
 42
0.0000000001
 43
0.0000000001
 40
0.0
 40
0.0
 40
0.0
 40
0.0
 40
0.3333333333333333
 40
0.3333333333333333
 40
0.3333333333333333
 40
0.3333333333333333
 40
1.0
 40
1.0
 40
1.0
 40
1.0
 10
55.3284
 20
-2.9423
 30
0.0
 10
55.3492
 20
-3.0548
 30
0.0
 10
55.361
 20
-3.1686
 30
0.0
 10
55.361
 20
-3.283
 30
0.0
 10
55.361
 20
-3.283
 30
0.0
 10
55.361
 20
-3.3973
 30
0.0
 10
55.3492
 20
-3.5113
 30
0.0
 10
55.3284
 20
-3.6236
 30
0.0
  0
SPLINE
  5
96
330
1F
100
AcDbEntity
  8
Ilustrace
 62
   250
370
    30
100
AcDbSpline
210
0.0
220
0.0
230
1.0
 70
     8
 71
     3
 72
    12
 73
     8
 74
     0
 42
0.0000000001
 43
0.0000000001
 40
0.0
 40
0.0
 40
0.0
 40
0.0
 40
0.3333333333333333
 40
0.3333333333333333
 40
0.3333333333333333
 40
0.3333333333333333
 40
1.0
 40
1.0
 40
1.0
 40
1.0
 10
55.3284
 20
-3.6236
 30
0.0
 10
55.3284
 20
-3.6236
 30
0.0
 10
55.2717
 20
-3.8601
 30
0.0
 10
55.2717
 20
-3.8601
 30
0.0
 10
55.2717
 20
-3.8601
 30
0.0
 10
55.2717
 20
-3.8601
 30
0.0
 10
55.3036
 20
-3.9202
 30
0.0
 10
55.3036
 20
-3.9202
 30
0.0
  0
SPLINE
  5
97
330
1F
100
AcDbEntity
  8
Ilustrace
 62
   250
370
    30
100
AcDbSpline
210
0.0
220
0.0
230
1.0
 70
     8
 71
     3
 72
    12
 73
     8
 74
     0
 42
0.0000000001
 43
0.0000000001
 40
0.0
 40
0.0
 40
0.0
 40
0.0
 40
0.3333333333333333
 40
0.3333333333333333
 40
0.3333333333333333
 40
0.3333333333333333
 40
1.0
 40
1.0
 40
1.0
 40
1.0
 10
55.3036
 20
-3.9202
 30
0.0
 10
55.3206
 20
-3.9558
 30
0.0
 10
55.3373
 20
-3.9965
 30
0.0
 10
55.3462
 20
-4.0353
 30
0.0
 10
55.3462
 20
-4.0353
 30
0.0
 10
55.3802
 20
-4.1823
 30
0.0
 10
55.3405
 20
-4.3074
 30
0.0
 10
55.2717
 20
-4.4373
 30
0.0
  0
SPLINE
  5
98
330
1F
100
AcDbEntity
  8
Ilustrace
 62
   250
370
    30
100
AcDbSpline
210
0.0
220
0.0
230
1.0
 70
     8
 71
     3
 72
     8
 73
     4
 74
     0
 42
0.0000000001
 43
0.0000000001
 40
0.0
 40
0.0
 40
0.0
 40
0.0
 40
1.0
 40
1.0
 40
1.0
 40
1.0
 10
54.3592
 20
-4.5592
 30
0.0
 10
54.3396
 20
-4.5942
 30
0.0
 10
54.3166
 20
-4.6255
 30
0.0
 10
54.2863
 20
-4.6519
 30
0.0
  0
SPLINE
  5
99
330
1F
100
AcDbEntity
  8
Ilustrace
 62
   250
370
    30
100
AcDbSpline
210
0.0
220
0.0
230
1.0
 70
     8
 71
     3
 72
    12
 73
     8
 74
     0
 42
0.0000000001
 43
0.0000000001
 40
0.0
 40
0.0
 40
0.0
 40
0.0
 40
0.3333333333333333
 40
0.3333333333333333
 40
0.3333333333333333
 40
0.3333333333333333
 40
1.0
 40
1.0
 40
1.0
 40
1.0
 10
54.7237
 20
-2.1289
 30
0.0
 10
54.7874
 20
-2.2503
 30
0.0
 10
54.8324
 20
-2.3726
 30
0.0
 10
54.8027
 20
-2.5118
 30
0.0
 10
54.8027
 20
-2.5118
 30
0.0
 10
54.7935
 20
-2.5557
 30
0.0
 10
54.7778
 20
-2.5985
 30
0.0
 10
54.7587
 20
-2.6392
 30
0.0
  0
SPLINE
  5
9A
330
1F
100
AcDbEntity
  8
Ilustrace
 62
   250
370
    30
100
AcDbSpline
210
0.0
220
0.0
230
1.0
 70
     8
 71
     3
 72
    12
 73
     8
 74
     0
 42
0.0000000001
 43
0.0000000001
 40
0.0
 40
0.0
 40
0.0
 40
0.0
 40
0.3333333333333333
 40
0.3333333333333333
 40
0.3333333333333333
 40
0.3333333333333333
 40
1.0
 40
1.0
 40
1.0
 40
1.0
 10
54.7587
 20
-2.6392
 30
0.0
 10
54.7587
 20
-2.6392
 30
0.0
 10
54.7237
 20
-2.706
 30
0.0
 10
54.7237
 20
-2.706
 30
0.0
 10
54.7237
 20
-2.706
 30
0.0
 10
54.7237
 20
-2.706
 30
0.0
 10
54.7849
 20
-2.9679
 30
0.0
 10
54.7849
 20
-2.9679
 30
0.0
  0
SPLINE
  5
9B
330
1F
100
AcDbEntity
  8
Ilustrace
 62
   250
370
    30
100
AcDbSpline
210
0.0
220
0.0
230
1.0
 70
     8
 71
     3
 72
    12
 73
     8
 74
     0
 42
0.0000000001
 43
0.0000000001
 40
0.0
 40
0.0
 40
0.0
 40
0.0
 40
0.3333333333333333
 40
0.3333333333333333
 40
0.3333333333333333
 40
0.3333333333333333
 40
1.0
 40
1.0
 40
1.0
 40
1.0
 10
54.7849
 20
-2.9679
 30
0.0
 10
54.8066
 20
-3.0927
 30
0.0
 10
54.8163
 20
-3.2192
 30
0.0
 10
54.8119
 20
-3.346
 30
0.0
 10
54.8119
 20
-3.346
 30
0.0
 10
54.8072
 20
-3.4743
 30
0.0
 10
54.7879
 20
-3.6015
 30
0.0
 10
54.7587
 20
-3.7266
 30
0.0
  0
SPLINE
  5
9C
330
1F
100
AcDbEntity
  8
Ilustrace
 62
   250
370
    30
100
AcDbSpline
210
0.0
220
0.0
230
1.0
 70
     8
 71
     3
 72
    12
 73
     8
 74
     0
 42
0.0000000001
 43
0.0000000001
 40
0.0
 40
0.0
 40
0.0
 40
0.0
 40
0.3333333333333333
 40
0.3333333333333333
 40
0.3333333333333333
 40
0.3333333333333333
 40
1.0
 40
1.0
 40
1.0
 40
1.0
 10
54.7587
 20
-3.7266
 30
0.0
 10
54.7587
 20
-3.7266
 30
0.0
 10
54.7237
 20
-3.8601
 30
0.0
 10
54.7237
 20
-3.8601
 30
0.0
 10
54.7237
 20
-3.8601
 30
0.0
 10
54.7237
 20
-3.8601
 30
0.0
 10
54.7587
 20
-3.9268
 30
0.0
 10
54.7587
 20
-3.9268
 30
0.0
  0
SPLINE
  5
9D
330
1F
100
AcDbEntity
  8
Ilustrace
 62
   250
370
    30
100
AcDbSpline
210
0.0
220
0.0
230
1.0
 70
     8
 71
     3
 72
    12
 73
     8
 74
     0
 42
0.0000000001
 43
0.0000000001
 40
0.0
 40
0.0
 40
0.0
 40
0.0
 40
0.3333333333333333
 40
0.3333333333333333
 40
0.3333333333333333
 40
0.3333333333333333
 40
1.0
 40
1.0
 40
1.0
 40
1.0
 10
54.7587
 20
-3.9268
 30
0.0
 10
54.7778
 20
-3.9675
 30
0.0
 10
54.7935
 20
-4.0103
 30
0.0
 10
54.8027
 20
-4.0542
 30
0.0
 10
54.8027
 20
-4.0542
 30
0.0
 10
54.8324
 20
-4.1934
 30
0.0
 10
54.7874
 20
-4.3156
 30
0.0
 10
54.7237
 20
-4.4373
 30
0.0
  0
SPLINE
  5
9E
330
1F
100
AcDbEntity
  8
Ilustrace
 62
   250
370
    30
100
AcDbSpline
210
0.0
220
0.0
230
1.0
 70
     8
 71
     3
 72
     8
 73
     4
 74
     0
 42
0.0000000001
 43
0.0000000001
 40
0.0
 40
0.0
 40
0.0
 40
0.0
 40
1.0
 40
1.0
 40
1.0
 40
1.0
 10
54.3592
 20
-4.6519
 30
0.0
 10
54.3351
 20
-4.6691
 30
0.0
 10
54.3157
 20
-4.6787
 30
0.0
 10
54.2863
 20
-4.6824
 30
0.0
  0
SPLINE
  5
9F
330
1F
100
AcDbEntity
  8
Ilustrace
 62
   250
370
    30
100
AcDbSpline
210
0.0
220
0.0
230
1.0
 70
     8
 71
     3
 72
     8
 73
     4
 74
     0
 42
0.0000000001
 43
0.0000000001
 40
0.0
 40
0.0
 40
0.0
 40
0.0
 40
1.0
 40
1.0
 40
1.0
 40
1.0
 10
54.3592
 20
-4.4131
 30
0.0
 10
54.3378
 20
-4.4644
 30
0.0
 10
54.3145
 20
-4.5134
 30
0.0
 10
54.2863
 20
-4.5615
 30
0.0
  0
SPLINE
  5
A0
330
1F
100
AcDbEntity
  8
Ilustrace
 62
   250
370
    30
100
AcDbSpline
210
0.0
220
0.0
230
1.0
 70
     8
 71
     3
 72
     8
 73
     4
 74
     0
 42
0.0000000001
 43
0.0000000001
 40
0.0
 40
0.0
 40
0.0
 40
0.0
 40
1.0
 40
1.0
 40
1.0
 40
1.0
 10
54.2863
 20
-4.2194
 30
0.0
 10
54.3125
 20
-4.1411
 30
0.0
 10
54.3362
 20
-4.0622
 30
0.0
 10
54.3592
 20
-3.9827
 30
0.0
  0
SPLINE
  5
A1
330
1F
100
AcDbEntity
  8
Ilustrace
 62
   250
370
    30
100
AcDbSpline
210
0.0
220
0.0
230
1.0
 70
     8
 71
     3
 72
     8
 73
     4
 74
     0
 42
0.0000000001
 43
0.0000000001
 40
0.0
 40
0.0
 40
0.0
 40
0.0
 40
1.0
 40
1.0
 40
1.0
 40
1.0
 10
54.3172
 20
-3.3074
 30
0.0
 10
54.3071
 20
-3.3479
 30
0.0
 10
54.2967
 20
-3.3887
 30
0.0
 10
54.2863
 20
-3.4293
 30
0.0
  0
SPLINE
  5
A2
330
1F
100
AcDbEntity
  8
Ilustrace
 62
   250
370
    30
100
AcDbSpline
210
0.0
220
0.0
230
1.0
 70
     8
 71
     3
 72
     8
 73
     4
 74
     0
 42
0.0000000001
 43
0.0000000001
 40
0.0
 40
0.0
 40
0.0
 40
0.0
 40
1.0
 40
1.0
 40
1.0
 40
1.0
 10
54.3592
 20
-3.429
 30
0.0
 10
54.3358
 20
-3.5248
 30
0.0
 10
54.3119
 20
-3.6203
 30
0.0
 10
54.2863
 20
-3.7155
 30
0.0
  0
SPLINE
  5
A3
330
1F
100
AcDbEntity
  8
Ilustrace
 62
   250
370
    30
100
AcDbSpline
210
0.0
220
0.0
230
1.0
 70
     8
 71
     3
 72
     8
 73
     4
 74
     0
 42
0.0000000001
 43
0.0000000001
 40
0.0
 40
0.0
 40
0.0
 40
0.0
 40
1.0
 40
1.0
 40
1.0
 40
1.0
 10
54.3592
 20
-4.2177
 30
0.0
 10
54.3378
 20
-4.2846
 30
0.0
 10
54.314
 20
-4.3504
 30
0.0
 10
54.2863
 20
-4.4152
 30
0.0
  0
SPLINE
  5
A4
330
1F
100
AcDbEntity
  8
Ilustrace
 62
   250
370
    30
100
AcDbSpline
210
0.0
220
0.0
230
1.0
 70
     8
 71
     3
 72
     8
 73
     4
 74
     0
 42
0.0000000001
 43
0.0000000001
 40
0.0
 40
0.0
 40
0.0
 40
0.0
 40
1.0
 40
1.0
 40
1.0
 40
1.0
 10
54.3592
 20
-3.7155
 30
0.0
 10
54.3359
 20
-3.8049
 30
0.0
 10
54.312
 20
-3.894
 30
0.0
 10
54.2863
 20
-3.9827
 30
0.0
  0
SPLINE
  5
A5
330
1F
100
AcDbEntity
  8
Ilustrace
 62
   250
370
    30
100
AcDbSpline
210
0.0
220
0.0
230
1.0
 70
    24
 71
     3
 72
     8
 73
     4
 74
     0
 42
0.0000000001
 43
0.0000000001
 40
0.0
 40
0.0
 40
0.0
 40
0.0
 40
1.0
 40
1.0
 40
1.0
 40
1.0
 10
70.7065
 20
-2.3654
 30
0.0
 10
70.7065
 20
-2.3654
 30
0.0
 10
70.7065
 20
-2.3483
 30
0.0
 10
70.7065
 20
-2.3483
 30
0.0
  0
SPLINE
  5
A6
330
1F
100
AcDbEntity
  8
Ilustrace
 62
   250
370
    30
100
AcDbSpline
210
0.0
220
0.0
230
1.0
 70
    24
 71
     3
 72
     8
 73
     4
 74
     0
 42
0.0000000001
 43
0.0000000001
 40
0.0
 40
0.0
 40
0.0
 40
0.0
 40
1.0
 40
1.0
 40
1.0
 40
1.0
 10
70.7065
 20
-2.1737
 30
0.0
 10
70.7065
 20
-2.1737
 30
0.0
 10
70.7065
 20
-2.1528
 30
0.0
 10
70.7065
 20
-2.1528
 30
0.0
  0
SPLINE
  5
A7
330
1F
100
AcDbEntity
  8
Ilustrace
 62
   250
370
    30
100
AcDbSpline
210
0.0
220
0.0
230
1.0
 70
    24
 71
     3
 72
     8
 73
     4
 74
     0
 42
0.0000000001
 43
0.0000000001
 40
0.0
 40
0.0
 40
0.0
 40
0.0
 40
1.0
 40
1.0
 40
1.0
 40
1.0
 10
70.7065
 20
-2.0303
 30
0.0
 10
70.7065
 20
-2.0303
 30
0.0
 10
70.7065
 20
-2.0068
 30
0.0
 10
70.7065
 20
-2.0068
 30
0.0
  0
SPLINE
  5
A8
330
1F
100
AcDbEntity
  8
Ilustrace
 62
   250
370
    30
100
AcDbSpline
210
0.0
220
0.0
230
1.0
 70
    24
 71
     3
 72
     8
 73
     4
 74
     0
 42
0.0000000001
 43
0.0000000001
 40
0.0
 40
0.0
 40
0.0
 40
0.0
 40
1.0
 40
1.0
 40
1.0
 40
1.0
 10
70.7065
 20
-1.9333
 30
0.0
 10
70.7065
 20
-1.9333
 30
0.0
 10
70.7065
 20
-1.9166
 30
0.0
 10
70.7065
 20
-1.9166
 30
0.0
  0
SPLINE
  5
A9
330
1F
100
AcDbEntity
  8
Ilustrace
 62
   250
370
    30
100
AcDbSpline
210
0.0
220
0.0
230
1.0
 70
    24
 71
     3
 72
     8
 73
     4
 74
     0
 42
0.0000000001
 43
0.0000000001
 40
0.0
 40
0.0
 40
0.0
 40
0.0
 40
1.0
 40
1.0
 40
1.0
 40
1.0
 10
70.7065
 20
-1.8835
 30
0.0
 10
70.7065
 20
-1.8835
 30
0.0
 10
70.7065
 20
-1.8947
 30
0.0
 10
70.7065
 20
-1.8947
 30
0.0
  0
SPLINE
  5
AA
330
1F
100
AcDbEntity
  8
Ilustrace
 62
   250
370
    30
100
AcDbSpline
210
0.0
220
0.0
230
1.0
 70
    24
 71
     3
 72
     8
 73
     4
 74
     0
 42
0.0000000001
 43
0.0000000001
 40
0.0
 40
0.0
 40
0.0
 40
0.0
 40
1.0
 40
1.0
 40
1.0
 40
1.0
 10
70.3422
 20
-2.1289
 30
0.0
 10
70.3422
 20
-2.1289
 30
0.0
 10
70.4838
 20
-1.8835
 30
0.0
 10
70.4838
 20
-1.8835
 30
0.0
  0
SPLINE
  5
AB
330
1F
100
AcDbEntity
  8
Ilustrace
 62
   250
370
    30
100
AcDbSpline
210
0.0
220
0.0
230
1.0
 70
    24
 71
     3
 72
     8
 73
     4
 74
     0
 42
0.0000000001
 43
0.0000000001
 40
0.0
 40
0.0
 40
0.0
 40
0.0
 40
1.0
 40
1.0
 40
1.0
 40
1.0
 10
70.3422
 20
-2.1289
 30
0.0
 10
70.3422
 20
-2.1289
 30
0.0
 10
69.7942
 20
-2.1289
 30
0.0
 10
69.7942
 20
-2.1289
 30
0.0
  0
SPLINE
  5
AC
330
1F
100
AcDbEntity
  8
Ilustrace
 62
   250
370
    30
100
AcDbSpline
210
0.0
220
0.0
230
1.0
 70
    24
 71
     3
 72
     8
 73
     4
 74
     0
 42
0.0000000001
 43
0.0000000001
 40
0.0
 40
0.0
 40
0.0
 40
0.0
 40
1.0
 40
1.0
 40
1.0
 40
1.0
 10
70.7065
 20
-2.1509
 30
0.0
 10
70.7065
 20
-2.1509
 30
0.0
 10
70.7794
 20
-2.1509
 30
0.0
 10
70.7794
 20
-2.1509
 30
0.0
  0
SPLINE
  5
AD
330
1F
100
AcDbEntity
  8
Ilustrace
 62
   250
370
    30
100
AcDbSpline
210
0.0
220
0.0
230
1.0
 70
    24
 71
     3
 72
     8
 73
     4
 74
     0
 42
0.0000000001
 43
0.0000000001
 40
0.0
 40
0.0
 40
0.0
 40
0.0
 40
1.0
 40
1.0
 40
1.0
 40
1.0
 10
70.7489
 20
-3.2667
 30
0.0
 10
70.7489
 20
-3.2667
 30
0.0
 10
70.7561
 20
-3.2518
 30
0.0
 10
70.7561
 20
-3.2518
 30
0.0
  0
SPLINE
  5
AE
330
1F
100
AcDbEntity
  8
Ilustrace
 62
   250
370
    30
100
AcDbSpline
210
0.0
220
0.0
230
1.0
 70
    24
 71
     3
 72
     8
 73
     4
 74
     0
 42
0.0000000001
 43
0.0000000001
 40
0.0
 40
0.0
 40
0.0
 40
0.0
 40
1.0
 40
1.0
 40
1.0
 40
1.0
 10
70.7467
 20
-3.2709
 30
0.0
 10
70.7467
 20
-3.2709
 30
0.0
 10
70.7561
 20
-3.2442
 30
0.0
 10
70.7561
 20
-3.2442
 30
0.0
  0
SPLINE
  5
AF
330
1F
100
AcDbEntity
  8
Ilustrace
 62
   250
370
    30
100
AcDbSpline
210
0.0
220
0.0
230
1.0
 70
    24
 71
     3
 72
     8
 73
     4
 74
     0
 42
0.0000000001
 43
0.0000000001
 40
0.0
 40
0.0
 40
0.0
 40
0.0
 40
1.0
 40
1.0
 40
1.0
 40
1.0
 10
70.7429
 20
-3.282
 30
0.0
 10
70.7429
 20
-3.282
 30
0.0
 10
70.7561
 20
-3.2364
 30
0.0
 10
70.7561
 20
-3.2364
 30
0.0
  0
SPLINE
  5
B0
330
1F
100
AcDbEntity
  8
Ilustrace
 62
   250
370
    30
100
AcDbSpline
210
0.0
220
0.0
230
1.0
 70
    24
 71
     3
 72
     8
 73
     4
 74
     0
 42
0.0000000001
 43
0.0000000001
 40
0.0
 40
0.0
 40
0.0
 40
0.0
 40
1.0
 40
1.0
 40
1.0
 40
1.0
 10
70.4838
 20
-1.8835
 30
0.0
 10
70.4838
 20
-1.8835
 30
0.0
 10
70.7794
 20
-1.8835
 30
0.0
 10
70.7794
 20
-1.8835
 30
0.0
  0
SPLINE
  5
B1
330
1F
100
AcDbEntity
  8
Ilustrace
 62
   250
370
    30
100
AcDbSpline
210
0.0
220
0.0
230
1.0
 70
    24
 71
     3
 72
     8
 73
     4
 74
     0
 42
0.0000000001
 43
0.0000000001
 40
0.0
 40
0.0
 40
0.0
 40
0.0
 40
1.0
 40
1.0
 40
1.0
 40
1.0
 10
70.3422
 20
-4.4373
 30
0.0
 10
70.3422
 20
-4.4373
 30
0.0
 10
70.4838
 20
-4.6824
 30
0.0
 10
70.4838
 20
-4.6824
 30
0.0
  0
SPLINE
  5
B2
330
1F
100
AcDbEntity
  8
Ilustrace
 62
   250
370
    30
100
AcDbSpline
210
0.0
220
0.0
230
1.0
 70
    24
 71
     3
 72
     8
 73
     4
 74
     0
 42
0.0000000001
 43
0.0000000001
 40
0.0
 40
0.0
 40
0.0
 40
0.0
 40
1.0
 40
1.0
 40
1.0
 40
1.0
 10
70.3422
 20
-4.4373
 30
0.0
 10
70.3422
 20
-4.4373
 30
0.0
 10
69.7942
 20
-4.4373
 30
0.0
 10
69.7942
 20
-4.4373
 30
0.0
  0
SPLINE
  5
B3
330
1F
100
AcDbEntity
  8
Ilustrace
 62
   250
370
    30
100
AcDbSpline
210
0.0
220
0.0
230
1.0
 70
    24
 71
     3
 72
     8
 73
     4
 74
     0
 42
0.0000000001
 43
0.0000000001
 40
0.0
 40
0.0
 40
0.0
 40
0.0
 40
1.0
 40
1.0
 40
1.0
 40
1.0
 10
70.7065
 20
-3.4293
 30
0.0
 10
70.7065
 20
-3.4293
 30
0.0
 10
70.7487
 20
-3.2588
 30
0.0
 10
70.7487
 20
-3.2588
 30
0.0
  0
SPLINE
  5
B4
330
1F
100
AcDbEntity
  8
Ilustrace
 62
   250
370
    30
100
AcDbSpline
210
0.0
220
0.0
230
1.0
 70
    24
 71
     3
 72
     8
 73
     4
 74
     0
 42
0.0000000001
 43
0.0000000001
 40
0.0
 40
0.0
 40
0.0
 40
0.0
 40
1.0
 40
1.0
 40
1.0
 40
1.0
 10
70.7065
 20
-3.1368
 30
0.0
 10
70.7065
 20
-3.1368
 30
0.0
 10
70.7794
 20
-3.1368
 30
0.0
 10
70.7794
 20
-3.1368
 30
0.0
  0
SPLINE
  5
B5
330
1F
100
AcDbEntity
  8
Ilustrace
 62
   250
370
    30
100
AcDbSpline
210
0.0
220
0.0
230
1.0
 70
    24
 71
     3
 72
     8
 73
     4
 74
     0
 42
0.0000000001
 43
0.0000000001
 40
0.0
 40
0.0
 40
0.0
 40
0.0
 40
1.0
 40
1.0
 40
1.0
 40
1.0
 10
70.7065
 20
-2.5832
 30
0.0
 10
70.7065
 20
-2.5832
 30
0.0
 10
70.7794
 20
-2.5832
 30
0.0
 10
70.7794
 20
-2.5832
 30
0.0
  0
SPLINE
  5
B6
330
1F
100
AcDbEntity
  8
Ilustrace
 62
   250
370
    30
100
AcDbSpline
210
0.0
220
0.0
230
1.0
 70
    24
 71
     3
 72
     8
 73
     4
 74
     0
 42
0.0000000001
 43
0.0000000001
 40
0.0
 40
0.0
 40
0.0
 40
0.0
 40
1.0
 40
1.0
 40
1.0
 40
1.0
 10
70.7065
 20
-2.8505
 30
0.0
 10
70.7065
 20
-2.8505
 30
0.0
 10
70.7794
 20
-2.8505
 30
0.0
 10
70.7794
 20
-2.8505
 30
0.0
  0
SPLINE
  5
B7
330
1F
100
AcDbEntity
  8
Ilustrace
 62
   250
370
    30
100
AcDbSpline
210
0.0
220
0.0
230
1.0
 70
    24
 71
     3
 72
     8
 73
     4
 74
     0
 42
0.0000000001
 43
0.0000000001
 40
0.0
 40
0.0
 40
0.0
 40
0.0
 40
1.0
 40
1.0
 40
1.0
 40
1.0
 10
70.7065
 20
-2.5846
 30
0.0
 10
70.7065
 20
-2.5846
 30
0.0
 10
70.7065
 20
-2.5974
 30
0.0
 10
70.7065
 20
-2.5974
 30
0.0
  0
SPLINE
  5
B8
330
1F
100
AcDbEntity
  8
Ilustrace
 62
   250
370
    30
100
AcDbSpline
210
0.0
220
0.0
230
1.0
 70
    24
 71
     3
 72
     8
 73
     4
 74
     0
 42
0.0000000001
 43
0.0000000001
 40
0.0
 40
0.0
 40
0.0
 40
0.0
 40
1.0
 40
1.0
 40
1.0
 40
1.0
 10
70.7065
 20
-2.8513
 30
0.0
 10
70.7065
 20
-2.8513
 30
0.0
 10
70.7065
 20
-2.8592
 30
0.0
 10
70.7065
 20
-2.8592
 30
0.0
  0
SPLINE
  5
B9
330
1F
100
AcDbEntity
  8
Ilustrace
 62
   250
370
    30
100
AcDbSpline
210
0.0
220
0.0
230
1.0
 70
    24
 71
     3
 72
     8
 73
     4
 74
     0
 42
0.0000000001
 43
0.0000000001
 40
0.0
 40
0.0
 40
0.0
 40
0.0
 40
1.0
 40
1.0
 40
1.0
 40
1.0
 10
70.7304
 20
-3.3319
 30
0.0
 10
70.7304
 20
-3.3319
 30
0.0
 10
70.7556
 20
-3.2311
 30
0.0
 10
70.7556
 20
-3.2311
 30
0.0
  0
SPLINE
  5
BA
330
1F
100
AcDbEntity
  8
Ilustrace
 62
   250
370
    30
100
AcDbSpline
210
0.0
220
0.0
230
1.0
 70
    24
 71
     3
 72
     8
 73
     4
 74
     0
 42
0.0000000001
 43
0.0000000001
 40
0.0
 40
0.0
 40
0.0
 40
0.0
 40
1.0
 40
1.0
 40
1.0
 40
1.0
 10
70.7065
 20
-2.3467
 30
0.0
 10
70.7065
 20
-2.3467
 30
0.0
 10
70.7794
 20
-2.3467
 30
0.0
 10
70.7794
 20
-2.3467
 30
0.0
  0
SPLINE
  5
BB
330
1F
100
AcDbEntity
  8
Ilustrace
 62
   250
370
    30
100
AcDbSpline
210
0.0
220
0.0
230
1.0
 70
    24
 71
     3
 72
     8
 73
     4
 74
     0
 42
0.0000000001
 43
0.0000000001
 40
0.0
 40
0.0
 40
0.0
 40
0.0
 40
1.0
 40
1.0
 40
1.0
 40
1.0
 10
70.7794
 20
-1.9142
 30
0.0
 10
70.7794
 20
-1.9142
 30
0.0
 10
70.7065
 20
-1.9142
 30
0.0
 10
70.7065
 20
-1.9142
 30
0.0
  0
SPLINE
  5
BC
330
1F
100
AcDbEntity
  8
Ilustrace
 62
   250
370
    30
100
AcDbSpline
210
0.0
220
0.0
230
1.0
 70
    24
 71
     3
 72
     8
 73
     4
 74
     0
 42
0.0000000001
 43
0.0000000001
 40
0.0
 40
0.0
 40
0.0
 40
0.0
 40
1.0
 40
1.0
 40
1.0
 40
1.0
 10
70.7794
 20
-2.0046
 30
0.0
 10
70.7794
 20
-2.0046
 30
0.0
 10
70.7065
 20
-2.0046
 30
0.0
 10
70.7065
 20
-2.0046
 30
0.0
  0
SPLINE
  5
BD
330
1F
100
AcDbEntity
  8
Ilustrace
 62
   250
370
    30
100
AcDbSpline
210
0.0
220
0.0
230
1.0
 70
    24
 71
     3
 72
     8
 73
     4
 74
     0
 42
0.0000000001
 43
0.0000000001
 40
0.0
 40
0.0
 40
0.0
 40
0.0
 40
1.0
 40
1.0
 40
1.0
 40
1.0
 10
70.7065
 20
-4.2194
 30
0.0
 10
70.7065
 20
-4.2194
 30
0.0
 10
70.7794
 20
-4.2194
 30
0.0
 10
70.7794
 20
-4.2194
 30
0.0
  0
SPLINE
  5
BE
330
1F
100
AcDbEntity
  8
Ilustrace
 62
   250
370
    30
100
AcDbSpline
210
0.0
220
0.0
230
1.0
 70
    24
 71
     3
 72
     8
 73
     4
 74
     0
 42
0.0000000001
 43
0.0000000001
 40
0.0
 40
0.0
 40
0.0
 40
0.0
 40
1.0
 40
1.0
 40
1.0
 40
1.0
 10
70.7065
 20
-3.9827
 30
0.0
 10
70.7065
 20
-3.9827
 30
0.0
 10
70.7794
 20
-3.9827
 30
0.0
 10
70.7794
 20
-3.9827
 30
0.0
  0
SPLINE
  5
BF
330
1F
100
AcDbEntity
  8
Ilustrace
 62
   250
370
    30
100
AcDbSpline
210
0.0
220
0.0
230
1.0
 70
    24
 71
     3
 72
     8
 73
     4
 74
     0
 42
0.0000000001
 43
0.0000000001
 40
0.0
 40
0.0
 40
0.0
 40
0.0
 40
1.0
 40
1.0
 40
1.0
 40
1.0
 10
70.4838
 20
-4.6824
 30
0.0
 10
70.4838
 20
-4.6824
 30
0.0
 10
70.4838
 20
-1.8835
 30
0.0
 10
70.4838
 20
-1.8835
 30
0.0
  0
SPLINE
  5
C0
330
1F
100
AcDbEntity
  8
Ilustrace
 62
   250
370
    30
100
AcDbSpline
210
0.0
220
0.0
230
1.0
 70
    24
 71
     3
 72
     8
 73
     4
 74
     0
 42
0.0000000001
 43
0.0000000001
 40
0.0
 40
0.0
 40
0.0
 40
0.0
 40
1.0
 40
1.0
 40
1.0
 40
1.0
 10
69.7942
 20
-2.706
 30
0.0
 10
69.7942
 20
-2.706
 30
0.0
 10
70.3422
 20
-2.706
 30
0.0
 10
70.3422
 20
-2.706
 30
0.0
  0
SPLINE
  5
C1
330
1F
100
AcDbEntity
  8
Ilustrace
 62
   250
370
    30
100
AcDbSpline
210
0.0
220
0.0
230
1.0
 70
    24
 71
     3
 72
     8
 73
     4
 74
     0
 42
0.0000000001
 43
0.0000000001
 40
0.0
 40
0.0
 40
0.0
 40
0.0
 40
1.0
 40
1.0
 40
1.0
 40
1.0
 10
69.7942
 20
-3.8601
 30
0.0
 10
69.7942
 20
-3.8601
 30
0.0
 10
70.3422
 20
-3.8601
 30
0.0
 10
70.3422
 20
-3.8601
 30
0.0
  0
SPLINE
  5
C2
330
1F
100
AcDbEntity
  8
Ilustrace
 62
   250
370
    30
100
AcDbSpline
210
0.0
220
0.0
230
1.0
 70
    24
 71
     3
 72
     8
 73
     4
 74
     0
 42
0.0000000001
 43
0.0000000001
 40
0.0
 40
0.0
 40
0.0
 40
0.0
 40
1.0
 40
1.0
 40
1.0
 40
1.0
 10
70.7794
 20
-3.7155
 30
0.0
 10
70.7794
 20
-3.7155
 30
0.0
 10
70.7065
 20
-3.7155
 30
0.0
 10
70.7065
 20
-3.7155
 30
0.0
  0
SPLINE
  5
C3
330
1F
100
AcDbEntity
  8
Ilustrace
 62
   250
370
    30
100
AcDbSpline
210
0.0
220
0.0
230
1.0
 70
    24
 71
     3
 72
     8
 73
     4
 74
     0
 42
0.0000000001
 43
0.0000000001
 40
0.0
 40
0.0
 40
0.0
 40
0.0
 40
1.0
 40
1.0
 40
1.0
 40
1.0
 10
70.7794
 20
-4.4152
 30
0.0
 10
70.7794
 20
-4.4152
 30
0.0
 10
70.7065
 20
-4.4152
 30
0.0
 10
70.7065
 20
-4.4152
 30
0.0
  0
SPLINE
  5
C4
330
1F
100
AcDbEntity
  8
Ilustrace
 62
   250
370
    30
100
AcDbSpline
210
0.0
220
0.0
230
1.0
 70
    24
 71
     3
 72
     8
 73
     4
 74
     0
 42
0.0000000001
 43
0.0000000001
 40
0.0
 40
0.0
 40
0.0
 40
0.0
 40
1.0
 40
1.0
 40
1.0
 40
1.0
 10
70.7065
 20
-4.5615
 30
0.0
 10
70.7065
 20
-4.5615
 30
0.0
 10
70.7794
 20
-4.5615
 30
0.0
 10
70.7794
 20
-4.5615
 30
0.0
  0
SPLINE
  5
C5
330
1F
100
AcDbEntity
  8
Ilustrace
 62
   250
370
    30
100
AcDbSpline
210
0.0
220
0.0
230
1.0
 70
    24
 71
     3
 72
     8
 73
     4
 74
     0
 42
0.0000000001
 43
0.0000000001
 40
0.0
 40
0.0
 40
0.0
 40
0.0
 40
1.0
 40
1.0
 40
1.0
 40
1.0
 10
70.7065
 20
-4.6519
 30
0.0
 10
70.7065
 20
-4.6519
 30
0.0
 10
70.7794
 20
-4.6519
 30
0.0
 10
70.7794
 20
-4.6519
 30
0.0
  0
SPLINE
  5
C6
330
1F
100
AcDbEntity
  8
Ilustrace
 62
   250
370
    30
100
AcDbSpline
210
0.0
220
0.0
230
1.0
 70
    24
 71
     3
 72
     8
 73
     4
 74
     0
 42
0.0000000001
 43
0.0000000001
 40
0.0
 40
0.0
 40
0.0
 40
0.0
 40
1.0
 40
1.0
 40
1.0
 40
1.0
 10
70.7794
 20
-2.1509
 30
0.0
 10
70.7794
 20
-2.1509
 30
0.0
 10
70.7135
 20
-2.3467
 30
0.0
 10
70.7135
 20
-2.3467
 30
0.0
  0
SPLINE
  5
C7
330
1F
100
AcDbEntity
  8
Ilustrace
 62
   250
370
    30
100
AcDbSpline
210
0.0
220
0.0
230
1.0
 70
    24
 71
     3
 72
     8
 73
     4
 74
     0
 42
0.0000000001
 43
0.0000000001
 40
0.0
 40
0.0
 40
0.0
 40
0.0
 40
1.0
 40
1.0
 40
1.0
 40
1.0
 10
70.7794
 20
-4.4152
 30
0.0
 10
70.7794
 20
-4.4152
 30
0.0
 10
70.7304
 20
-4.4949
 30
0.0
 10
70.7304
 20
-4.4949
 30
0.0
  0
SPLINE
  5
C8
330
1F
100
AcDbEntity
  8
Ilustrace
 62
   250
370
    30
100
AcDbSpline
210
0.0
220
0.0
230
1.0
 70
    24
 71
     3
 72
     8
 73
     4
 74
     0
 42
0.0000000001
 43
0.0000000001
 40
0.0
 40
0.0
 40
0.0
 40
0.0
 40
1.0
 40
1.0
 40
1.0
 40
1.0
 10
70.7304
 20
-4.6022
 30
0.0
 10
70.7304
 20
-4.6022
 30
0.0
 10
70.7794
 20
-4.5615
 30
0.0
 10
70.7794
 20
-4.5615
 30
0.0
  0
SPLINE
  5
C9
330
1F
100
AcDbEntity
  8
Ilustrace
 62
   250
370
    30
100
AcDbSpline
210
0.0
220
0.0
230
1.0
 70
    24
 71
     3
 72
     8
 73
     4
 74
     0
 42
0.0000000001
 43
0.0000000001
 40
0.0
 40
0.0
 40
0.0
 40
0.0
 40
1.0
 40
1.0
 40
1.0
 40
1.0
 10
70.7426
 20
-1.9142
 30
0.0
 10
70.7426
 20
-1.9142
 30
0.0
 10
70.7794
 20
-1.8835
 30
0.0
 10
70.7794
 20
-1.8835
 30
0.0
  0
SPLINE
  5
CA
330
1F
100
AcDbEntity
  8
Ilustrace
 62
   250
370
    30
100
AcDbSpline
210
0.0
220
0.0
230
1.0
 70
    24
 71
     3
 72
     8
 73
     4
 74
     0
 42
0.0000000001
 43
0.0000000001
 40
0.0
 40
0.0
 40
0.0
 40
0.0
 40
1.0
 40
1.0
 40
1.0
 40
1.0
 10
70.7794
 20
-3.7155
 30
0.0
 10
70.7794
 20
-3.7155
 30
0.0
 10
70.7304
 20
-3.8851
 30
0.0
 10
70.7304
 20
-3.8851
 30
0.0
  0
SPLINE
  5
CB
330
1F
100
AcDbEntity
  8
Ilustrace
 62
   250
370
    30
100
AcDbSpline
210
0.0
220
0.0
230
1.0
 70
    24
 71
     3
 72
     8
 73
     4
 74
     0
 42
0.0000000001
 43
0.0000000001
 40
0.0
 40
0.0
 40
0.0
 40
0.0
 40
1.0
 40
1.0
 40
1.0
 40
1.0
 10
70.7794
 20
-4.2194
 30
0.0
 10
70.7794
 20
-4.2194
 30
0.0
 10
70.7304
 20
-4.3346
 30
0.0
 10
70.7304
 20
-4.3346
 30
0.0
  0
SPLINE
  5
CC
330
1F
100
AcDbEntity
  8
Ilustrace
 62
   250
370
    30
100
AcDbSpline
210
0.0
220
0.0
230
1.0
 70
    24
 71
     3
 72
     8
 73
     4
 74
     0
 42
0.0000000001
 43
0.0000000001
 40
0.0
 40
0.0
 40
0.0
 40
0.0
 40
1.0
 40
1.0
 40
1.0
 40
1.0
 10
70.7794
 20
-3.4293
 30
0.0
 10
70.7794
 20
-3.4293
 30
0.0
 10
70.7304
 20
-3.6155
 30
0.0
 10
70.7304
 20
-3.6155
 30
0.0
  0
SPLINE
  5
CD
330
1F
100
AcDbEntity
  8
Ilustrace
 62
   250
370
    30
100
AcDbSpline
210
0.0
220
0.0
230
1.0
 70
    24
 71
     3
 72
     8
 73
     4
 74
     0
 42
0.0000000001
 43
0.0000000001
 40
0.0
 40
0.0
 40
0.0
 40
0.0
 40
1.0
 40
1.0
 40
1.0
 40
1.0
 10
70.7794
 20
-2.0046
 30
0.0
 10
70.7794
 20
-2.0046
 30
0.0
 10
70.7171
 20
-2.1509
 30
0.0
 10
70.7171
 20
-2.1509
 30
0.0
  0
SPLINE
  5
CE
330
1F
100
AcDbEntity
  8
Ilustrace
 62
   250
370
    30
100
AcDbSpline
210
0.0
220
0.0
230
1.0
 70
    24
 71
     3
 72
     8
 73
     4
 74
     0
 42
0.0000000001
 43
0.0000000001
 40
0.0
 40
0.0
 40
0.0
 40
0.0
 40
1.0
 40
1.0
 40
1.0
 40
1.0
 10
70.7794
 20
-1.9142
 30
0.0
 10
70.7794
 20
-1.9142
 30
0.0
 10
70.7237
 20
-2.0046
 30
0.0
 10
70.7237
 20
-2.0046
 30
0.0
  0
SPLINE
  5
CF
330
1F
100
AcDbEntity
  8
Ilustrace
 62
   250
370
    30
100
AcDbSpline
210
0.0
220
0.0
230
1.0
 70
    24
 71
     3
 72
     8
 73
     4
 74
     0
 42
0.0000000001
 43
0.0000000001
 40
0.0
 40
0.0
 40
0.0
 40
0.0
 40
1.0
 40
1.0
 40
1.0
 40
1.0
 10
70.7794
 20
-3.9827
 30
0.0
 10
70.7794
 20
-3.9827
 30
0.0
 10
70.7304
 20
-4.1284
 30
0.0
 10
70.7304
 20
-4.1284
 30
0.0
  0
SPLINE
  5
D0
330
1F
100
AcDbEntity
  8
Ilustrace
 62
   250
370
    30
100
AcDbSpline
210
0.0
220
0.0
230
1.0
 70
    24
 71
     3
 72
     8
 73
     4
 74
     0
 42
0.0000000001
 43
0.0000000001
 40
0.0
 40
0.0
 40
0.0
 40
0.0
 40
1.0
 40
1.0
 40
1.0
 40
1.0
 10
70.7794
 20
-2.8505
 30
0.0
 10
70.7794
 20
-2.8505
 30
0.0
 10
70.7073
 20
-3.1368
 30
0.0
 10
70.7073
 20
-3.1368
 30
0.0
  0
SPLINE
  5
D1
330
1F
100
AcDbEntity
  8
Ilustrace
 62
   250
370
    30
100
AcDbSpline
210
0.0
220
0.0
230
1.0
 70
    24
 71
     3
 72
     8
 73
     4
 74
     0
 42
0.0000000001
 43
0.0000000001
 40
0.0
 40
0.0
 40
0.0
 40
0.0
 40
1.0
 40
1.0
 40
1.0
 40
1.0
 10
70.7794
 20
-2.5832
 30
0.0
 10
70.7794
 20
-2.5832
 30
0.0
 10
70.7091
 20
-2.8505
 30
0.0
 10
70.7091
 20
-2.8505
 30
0.0
  0
SPLINE
  5
D2
330
1F
100
AcDbEntity
  8
Ilustrace
 62
   250
370
    30
100
AcDbSpline
210
0.0
220
0.0
230
1.0
 70
    24
 71
     3
 72
     8
 73
     4
 74
     0
 42
0.0000000001
 43
0.0000000001
 40
0.0
 40
0.0
 40
0.0
 40
0.0
 40
1.0
 40
1.0
 40
1.0
 40
1.0
 10
70.7794
 20
-2.3467
 30
0.0
 10
70.7794
 20
-2.3467
 30
0.0
 10
70.7109
 20
-2.5832
 30
0.0
 10
70.7109
 20
-2.5832
 30
0.0
  0
SPLINE
  5
D3
330
1F
100
AcDbEntity
  8
Ilustrace
 62
   250
370
    30
100
AcDbSpline
210
0.0
220
0.0
230
1.0
 70
     8
 71
     3
 72
    16
 73
    12
 74
     0
 42
0.0000000001
 43
0.0000000001
 40
0.0
 40
0.0
 40
0.0
 40
0.0
 40
0.25
 40
0.25
 40
0.25
 40
0.25
 40
0.5
 40
0.5
 40
0.5
 40
0.5
 40
1.0
 40
1.0
 40
1.0
 40
1.0
 10
69.7942
 20
-2.1289
 30
0.0
 10
69.7942
 20
-2.1289
 30
0.0
 10
69.705
 20
-2.2834
 30
0.0
 10
69.705
 20
-2.2834
 30
0.0
 10
69.705
 20
-2.2834
 30
0.0
 10
69.705
 20
-2.2834
 30
0.0
 10
69.705
 20
-2.7832
 30
0.0
 10
69.705
 20
-2.7832
 30
0.0
 10
69.705
 20
-2.7832
 30
0.0
 10
69.705
 20
-2.7832
 30
0.0
 10
69.705
 20
-3.7829
 30
0.0
 10
69.705
 20
-3.7829
 30
0.0
  0
SPLINE
  5
D4
330
1F
100
AcDbEntity
  8
Ilustrace
 62
   250
370
    30
100
AcDbSpline
210
0.0
220
0.0
230
1.0
 70
     8
 71
     3
 72
     8
 73
     4
 74
     0
 42
0.0000000001
 43
0.0000000001
 40
0.0
 40
0.0
 40
0.0
 40
0.0
 40
1.0
 40
1.0
 40
1.0
 40
1.0
 10
69.705
 20
-3.7829
 30
0.0
 10
69.705
 20
-4.3421
 30
0.0
 10
69.6217
 20
-4.1383
 30
0.0
 10
69.7942
 20
-4.4373
 30
0.0
  0
SPLINE
  5
D5
330
1F
100
AcDbEntity
  8
Ilustrace
 62
   250
370
    30
100
AcDbSpline
210
0.0
220
0.0
230
1.0
 70
     8
 71
     3
 72
     8
 73
     4
 74
     0
 42
0.0000000001
 43
0.0000000001
 40
0.0
 40
0.0
 40
0.0
 40
0.0
 40
1.0
 40
1.0
 40
1.0
 40
1.0
 10
70.7065
 20
-4.4152
 30
0.0
 10
70.7328
 20
-4.3506
 30
0.0
 10
70.7565
 20
-4.2852
 30
0.0
 10
70.7794
 20
-4.2194
 30
0.0
  0
SPLINE
  5
D6
330
1F
100
AcDbEntity
  8
Ilustrace
 62
   250
370
    30
100
AcDbSpline
210
0.0
220
0.0
230
1.0
 70
     8
 71
     3
 72
     8
 73
     4
 74
     0
 42
0.0000000001
 43
0.0000000001
 40
0.0
 40
0.0
 40
0.0
 40
0.0
 40
1.0
 40
1.0
 40
1.0
 40
1.0
 10
70.7794
 20
-4.6519
 30
0.0
 10
70.6906
 20
-4.7128
 30
0.0
 10
70.597
 20
-4.6824
 30
0.0
 10
70.4838
 20
-4.6824
 30
0.0
  0
SPLINE
  5
D7
330
1F
100
AcDbEntity
  8
Ilustrace
 62
   250
370
    30
100
AcDbSpline
210
0.0
220
0.0
230
1.0
 70
     8
 71
     3
 72
     8
 73
     4
 74
     0
 42
0.0000000001
 43
0.0000000001
 40
0.0
 40
0.0
 40
0.0
 40
0.0
 40
1.0
 40
1.0
 40
1.0
 40
1.0
 10
70.7065
 20
-4.2194
 30
0.0
 10
70.7322
 20
-4.1409
 30
0.0
 10
70.7561
 20
-4.0618
 30
0.0
 10
70.7794
 20
-3.9827
 30
0.0
  0
SPLINE
  5
D8
330
1F
100
AcDbEntity
  8
Ilustrace
 62
   250
370
    30
100
AcDbSpline
210
0.0
220
0.0
230
1.0
 70
     8
 71
     3
 72
     8
 73
     4
 74
     0
 42
0.0000000001
 43
0.0000000001
 40
0.0
 40
0.0
 40
0.0
 40
0.0
 40
1.0
 40
1.0
 40
1.0
 40
1.0
 10
70.7065
 20
-3.9827
 30
0.0
 10
70.7315
 20
-3.8938
 30
0.0
 10
70.7555
 20
-3.8046
 30
0.0
 10
70.7794
 20
-3.7155
 30
0.0
  0
SPLINE
  5
D9
330
1F
100
AcDbEntity
  8
Ilustrace
 62
   250
370
    30
100
AcDbSpline
210
0.0
220
0.0
230
1.0
 70
     8
 71
     3
 72
     8
 73
     4
 74
     0
 42
0.0000000001
 43
0.0000000001
 40
0.0
 40
0.0
 40
0.0
 40
0.0
 40
1.0
 40
1.0
 40
1.0
 40
1.0
 10
70.7794
 20
-4.4152
 30
0.0
 10
70.7567
 20
-4.465
 30
0.0
 10
70.7334
 20
-4.5136
 30
0.0
 10
70.7065
 20
-4.5615
 30
0.0
  0
SPLINE
  5
DA
330
1F
100
AcDbEntity
  8
Ilustrace
 62
   250
370
    30
100
AcDbSpline
210
0.0
220
0.0
230
1.0
 70
     8
 71
     3
 72
     8
 73
     4
 74
     0
 42
0.0000000001
 43
0.0000000001
 40
0.0
 40
0.0
 40
0.0
 40
0.0
 40
1.0
 40
1.0
 40
1.0
 40
1.0
 10
70.7794
 20
-4.5615
 30
0.0
 10
70.758
 20
-4.5945
 30
0.0
 10
70.7357
 20
-4.6251
 30
0.0
 10
70.7065
 20
-4.6519
 30
0.0
  0
SPLINE
  5
DB
330
1F
100
AcDbEntity
  8
Ilustrace
 62
   250
370
    30
100
AcDbSpline
210
0.0
220
0.0
230
1.0
 70
     8
 71
     3
 72
     8
 73
     4
 74
     0
 42
0.0000000001
 43
0.0000000001
 40
0.0
 40
0.0
 40
0.0
 40
0.0
 40
1.0
 40
1.0
 40
1.0
 40
1.0
 10
70.7065
 20
-3.7155
 30
0.0
 10
70.731
 20
-3.6201
 30
0.0
 10
70.755
 20
-3.5246
 30
0.0
 10
70.7794
 20
-3.4293
 30
0.0
  0
SPLINE
  5
DC
330
1F
100
AcDbEntity
  8
Ilustrace
 62
   250
370
    30
100
AcDbSpline
210
0.0
220
0.0
230
1.0
 70
     8
 71
     3
 72
     8
 73
     4
 74
     0
 42
0.0000000001
 43
0.0000000001
 40
0.0
 40
0.0
 40
0.0
 40
0.0
 40
1.0
 40
1.0
 40
1.0
 40
1.0
 10
70.7065
 20
-2.3483
 30
0.0
 10
70.7279
 20
-2.2815
 30
0.0
 10
70.752
 20
-2.2156
 30
0.0
 10
70.7794
 20
-2.1509
 30
0.0
  0
SPLINE
  5
DD
330
1F
100
AcDbEntity
  8
Ilustrace
 62
   250
370
    30
100
AcDbSpline
210
0.0
220
0.0
230
1.0
 70
     8
 71
     3
 72
     8
 73
     4
 74
     0
 42
0.0000000001
 43
0.0000000001
 40
0.0
 40
0.0
 40
0.0
 40
0.0
 40
1.0
 40
1.0
 40
1.0
 40
1.0
 10
70.7794
 20
-2.0046
 30
0.0
 10
70.7517
 20
-2.052
 30
0.0
 10
70.7287
 20
-2.1005
 30
0.0
 10
70.7065
 20
-2.1509
 30
0.0
  0
SPLINE
  5
DE
330
1F
100
AcDbEntity
  8
Ilustrace
 62
   250
370
    30
100
AcDbSpline
210
0.0
220
0.0
230
1.0
 70
     8
 71
     3
 72
    12
 73
     8
 74
     0
 42
0.0000000001
 43
0.0000000001
 40
0.0
 40
0.0
 40
0.0
 40
0.0
 40
0.3333333333333333
 40
0.3333333333333333
 40
0.3333333333333333
 40
0.3333333333333333
 40
1.0
 40
1.0
 40
1.0
 40
1.0
 10
70.3422
 20
-4.4373
 30
0.0
 10
70.2784
 20
-4.3156
 30
0.0
 10
70.2335
 20
-4.1934
 30
0.0
 10
70.263
 20
-4.0542
 30
0.0
 10
70.263
 20
-4.0542
 30
0.0
 10
70.2724
 20
-4.0103
 30
0.0
 10
70.2882
 20
-3.9675
 30
0.0
 10
70.3071
 20
-3.9268
 30
0.0
  0
SPLINE
  5
DF
330
1F
100
AcDbEntity
  8
Ilustrace
 62
   250
370
    30
100
AcDbSpline
210
0.0
220
0.0
230
1.0
 70
     8
 71
     3
 72
    12
 73
     8
 74
     0
 42
0.0000000001
 43
0.0000000001
 40
0.0
 40
0.0
 40
0.0
 40
0.0
 40
0.3333333333333333
 40
0.3333333333333333
 40
0.3333333333333333
 40
0.3333333333333333
 40
1.0
 40
1.0
 40
1.0
 40
1.0
 10
70.3071
 20
-3.9268
 30
0.0
 10
70.3071
 20
-3.9268
 30
0.0
 10
70.3422
 20
-3.8601
 30
0.0
 10
70.3422
 20
-3.8601
 30
0.0
 10
70.3422
 20
-3.8601
 30
0.0
 10
70.3422
 20
-3.8601
 30
0.0
 10
70.2808
 20
-3.5981
 30
0.0
 10
70.2808
 20
-3.5981
 30
0.0
  0
SPLINE
  5
E0
330
1F
100
AcDbEntity
  8
Ilustrace
 62
   250
370
    30
100
AcDbSpline
210
0.0
220
0.0
230
1.0
 70
     8
 71
     3
 72
    12
 73
     8
 74
     0
 42
0.0000000001
 43
0.0000000001
 40
0.0
 40
0.0
 40
0.0
 40
0.0
 40
0.3333333333333333
 40
0.3333333333333333
 40
0.3333333333333333
 40
0.3333333333333333
 40
1.0
 40
1.0
 40
1.0
 40
1.0
 10
70.2808
 20
-3.5981
 30
0.0
 10
70.2593
 20
-3.4733
 30
0.0
 10
70.2494
 20
-3.3468
 30
0.0
 10
70.2541
 20
-3.2201
 30
0.0
 10
70.2541
 20
-3.2201
 30
0.0
 10
70.2587
 20
-3.0918
 30
0.0
 10
70.278
 20
-2.9643
 30
0.0
 10
70.3071
 20
-2.8394
 30
0.0
  0
SPLINE
  5
E1
330
1F
100
AcDbEntity
  8
Ilustrace
 62
   250
370
    30
100
AcDbSpline
210
0.0
220
0.0
230
1.0
 70
     8
 71
     3
 72
    12
 73
     8
 74
     0
 42
0.0000000001
 43
0.0000000001
 40
0.0
 40
0.0
 40
0.0
 40
0.0
 40
0.3333333333333333
 40
0.3333333333333333
 40
0.3333333333333333
 40
0.3333333333333333
 40
1.0
 40
1.0
 40
1.0
 40
1.0
 10
70.3071
 20
-2.8394
 30
0.0
 10
70.3071
 20
-2.8394
 30
0.0
 10
70.3422
 20
-2.706
 30
0.0
 10
70.3422
 20
-2.706
 30
0.0
 10
70.3422
 20
-2.706
 30
0.0
 10
70.3422
 20
-2.706
 30
0.0
 10
70.3071
 20
-2.6392
 30
0.0
 10
70.3071
 20
-2.6392
 30
0.0
  0
SPLINE
  5
E2
330
1F
100
AcDbEntity
  8
Ilustrace
 62
   250
370
    30
100
AcDbSpline
210
0.0
220
0.0
230
1.0
 70
     8
 71
     3
 72
    12
 73
     8
 74
     0
 42
0.0000000001
 43
0.0000000001
 40
0.0
 40
0.0
 40
0.0
 40
0.0
 40
0.3333333333333333
 40
0.3333333333333333
 40
0.3333333333333333
 40
0.3333333333333333
 40
1.0
 40
1.0
 40
1.0
 40
1.0
 10
70.3071
 20
-2.6392
 30
0.0
 10
70.2882
 20
-2.5985
 30
0.0
 10
70.2724
 20
-2.5557
 30
0.0
 10
70.263
 20
-2.5118
 30
0.0
 10
70.263
 20
-2.5118
 30
0.0
 10
70.2335
 20
-2.3726
 30
0.0
 10
70.2784
 20
-2.2503
 30
0.0
 10
70.3422
 20
-2.1289
 30
0.0
  0
SPLINE
  5
E3
330
1F
100
AcDbEntity
  8
Ilustrace
 62
   250
370
    30
100
AcDbSpline
210
0.0
220
0.0
230
1.0
 70
     8
 71
     3
 72
     8
 73
     4
 74
     0
 42
0.0000000001
 43
0.0000000001
 40
0.0
 40
0.0
 40
0.0
 40
0.0
 40
1.0
 40
1.0
 40
1.0
 40
1.0
 10
70.7794
 20
-1.8835
 30
0.0
 10
70.7502
 20
-1.8875
 30
0.0
 10
70.7308
 20
-1.897
 30
0.0
 10
70.7065
 20
-1.9142
 30
0.0
  0
SPLINE
  5
E4
330
1F
100
AcDbEntity
  8
Ilustrace
 62
   250
370
    30
100
AcDbSpline
210
0.0
220
0.0
230
1.0
 70
     8
 71
     3
 72
     8
 73
     4
 74
     0
 42
0.0000000001
 43
0.0000000001
 40
0.0
 40
0.0
 40
0.0
 40
0.0
 40
1.0
 40
1.0
 40
1.0
 40
1.0
 10
70.7794
 20
-1.9142
 30
0.0
 10
70.7497
 20
-1.9401
 30
0.0
 10
70.7275
 20
-1.9711
 30
0.0
 10
70.7065
 20
-2.0046
 30
0.0
  0
SPLINE
  5
E5
330
1F
100
AcDbEntity
  8
Ilustrace
 62
   250
370
    30
100
AcDbSpline
210
0.0
220
0.0
230
1.0
 70
     8
 71
     3
 72
    12
 73
     8
 74
     0
 42
0.0000000001
 43
0.0000000001
 40
0.0
 40
0.0
 40
0.0
 40
0.0
 40
0.3333333333333333
 40
0.3333333333333333
 40
0.3333333333333333
 40
0.3333333333333333
 40
1.0
 40
1.0
 40
1.0
 40
1.0
 10
69.7942
 20
-4.4373
 30
0.0
 10
69.7255
 20
-4.3074
 30
0.0
 10
69.6857
 20
-4.1823
 30
0.0
 10
69.7196
 20
-4.0353
 30
0.0
 10
69.7196
 20
-4.0353
 30
0.0
 10
69.7285
 20
-3.9965
 30
0.0
 10
69.7453
 20
-3.9558
 30
0.0
 10
69.7624
 20
-3.9202
 30
0.0
  0
SPLINE
  5
E6
330
1F
100
AcDbEntity
  8
Ilustrace
 62
   250
370
    30
100
AcDbSpline
210
0.0
220
0.0
230
1.0
 70
     8
 71
     3
 72
    12
 73
     8
 74
     0
 42
0.0000000001
 43
0.0000000001
 40
0.0
 40
0.0
 40
0.0
 40
0.0
 40
0.3333333333333333
 40
0.3333333333333333
 40
0.3333333333333333
 40
0.3333333333333333
 40
1.0
 40
1.0
 40
1.0
 40
1.0
 10
69.7624
 20
-3.9202
 30
0.0
 10
69.7624
 20
-3.9202
 30
0.0
 10
69.7942
 20
-3.8601
 30
0.0
 10
69.7942
 20
-3.8601
 30
0.0
 10
69.7942
 20
-3.8601
 30
0.0
 10
69.7942
 20
-3.8601
 30
0.0
 10
69.7376
 20
-3.6237
 30
0.0
 10
69.7376
 20
-3.6237
 30
0.0
  0
SPLINE
  5
E7
330
1F
100
AcDbEntity
  8
Ilustrace
 62
   250
370
    30
100
AcDbSpline
210
0.0
220
0.0
230
1.0
 70
     8
 71
     3
 72
    12
 73
     8
 74
     0
 42
0.0000000001
 43
0.0000000001
 40
0.0
 40
0.0
 40
0.0
 40
0.0
 40
0.3333333333333333
 40
0.3333333333333333
 40
0.3333333333333333
 40
0.3333333333333333
 40
1.0
 40
1.0
 40
1.0
 40
1.0
 10
69.7376
 20
-3.6237
 30
0.0
 10
69.7166
 20
-3.5113
 30
0.0
 10
69.705
 20
-3.3973
 30
0.0
 10
69.705
 20
-3.283
 30
0.0
 10
69.705
 20
-3.283
 30
0.0
 10
69.705
 20
-3.1688
 30
0.0
 10
69.7166
 20
-3.0548
 30
0.0
 10
69.7376
 20
-2.9423
 30
0.0
  0
SPLINE
  5
E8
330
1F
100
AcDbEntity
  8
Ilustrace
 62
   250
370
    30
100
AcDbSpline
210
0.0
220
0.0
230
1.0
 70
     8
 71
     3
 72
    12
 73
     8
 74
     0
 42
0.0000000001
 43
0.0000000001
 40
0.0
 40
0.0
 40
0.0
 40
0.0
 40
0.3333333333333333
 40
0.3333333333333333
 40
0.3333333333333333
 40
0.3333333333333333
 40
1.0
 40
1.0
 40
1.0
 40
1.0
 10
69.7376
 20
-2.9423
 30
0.0
 10
69.7376
 20
-2.9423
 30
0.0
 10
69.7942
 20
-2.706
 30
0.0
 10
69.7942
 20
-2.706
 30
0.0
 10
69.7942
 20
-2.706
 30
0.0
 10
69.7942
 20
-2.706
 30
0.0
 10
69.7624
 20
-2.6457
 30
0.0
 10
69.7624
 20
-2.6457
 30
0.0
  0
SPLINE
  5
E9
330
1F
100
AcDbEntity
  8
Ilustrace
 62
   250
370
    30
100
AcDbSpline
210
0.0
220
0.0
230
1.0
 70
     8
 71
     3
 72
    12
 73
     8
 74
     0
 42
0.0000000001
 43
0.0000000001
 40
0.0
 40
0.0
 40
0.0
 40
0.0
 40
0.3333333333333333
 40
0.3333333333333333
 40
0.3333333333333333
 40
0.3333333333333333
 40
1.0
 40
1.0
 40
1.0
 40
1.0
 10
69.7624
 20
-2.6457
 30
0.0
 10
69.7453
 20
-2.6102
 30
0.0
 10
69.7285
 20
-2.5697
 30
0.0
 10
69.7196
 20
-2.5307
 30
0.0
 10
69.7196
 20
-2.5307
 30
0.0
 10
69.6857
 20
-2.3838
 30
0.0
 10
69.7255
 20
-2.2586
 30
0.0
 10
69.7942
 20
-2.1289
 30
0.0
  0
SPLINE
  5
EA
330
1F
100
AcDbEntity
  8
Ilustrace
 62
   250
370
    30
100
AcDbSpline
210
0.0
220
0.0
230
1.0
 70
     8
 71
     3
 72
     8
 73
     4
 74
     0
 42
0.0000000001
 43
0.0000000001
 40
0.0
 40
0.0
 40
0.0
 40
0.0
 40
1.0
 40
1.0
 40
1.0
 40
1.0
 10
70.7794
 20
-3.1368
 30
0.0
 10
70.769
 20
-3.1774
 30
0.0
 10
70.7588
 20
-3.2181
 30
0.0
 10
70.7487
 20
-3.2588
 30
0.0
  0
SPLINE
  5
EB
330
1F
100
AcDbEntity
  8
Ilustrace
 62
   250
370
    30
100
AcDbSpline
210
0.0
220
0.0
230
1.0
 70
     8
 71
     3
 72
     8
 73
     4
 74
     0
 42
0.0000000001
 43
0.0000000001
 40
0.0
 40
0.0
 40
0.0
 40
0.0
 40
1.0
 40
1.0
 40
1.0
 40
1.0
 10
70.7794
 20
-2.8505
 30
0.0
 10
70.754
 20
-2.9457
 30
0.0
 10
70.7302
 20
-3.0412
 30
0.0
 10
70.7065
 20
-3.1368
 30
0.0
  0
SPLINE
  5
EC
330
1F
100
AcDbEntity
  8
Ilustrace
 62
   250
370
    30
100
AcDbSpline
210
0.0
220
0.0
230
1.0
 70
     8
 71
     3
 72
     8
 73
     4
 74
     0
 42
0.0000000001
 43
0.0000000001
 40
0.0
 40
0.0
 40
0.0
 40
0.0
 40
1.0
 40
1.0
 40
1.0
 40
1.0
 10
70.7065
 20
-2.8513
 30
0.0
 10
70.7298
 20
-2.7617
 30
0.0
 10
70.7538
 20
-2.6723
 30
0.0
 10
70.7794
 20
-2.5832
 30
0.0
  0
SPLINE
  5
ED
330
1F
100
AcDbEntity
  8
Ilustrace
 62
   250
370
    30
100
AcDbSpline
210
0.0
220
0.0
230
1.0
 70
     8
 71
     3
 72
     8
 73
     4
 74
     0
 42
0.0000000001
 43
0.0000000001
 40
0.0
 40
0.0
 40
0.0
 40
0.0
 40
1.0
 40
1.0
 40
1.0
 40
1.0
 10
70.7065
 20
-2.5846
 30
0.0
 10
70.7292
 20
-2.5046
 30
0.0
 10
70.7532
 20
-2.4253
 30
0.0
 10
70.7794
 20
-2.3467
 30
0.0
  0
SPLINE
  5
EE
330
1F
100
AcDbEntity
  8
Ilustrace
 62
   250
370
    30
100
AcDbSpline
210
0.0
220
0.0
230
1.0
 70
     8
 71
     3
 72
     8
 73
     4
 74
     0
 42
0.0000000001
 43
0.0000000001
 40
0.0
 40
0.0
 40
0.0
 40
0.0
 40
1.0
 40
1.0
 40
1.0
 40
1.0
 10
70.7065
 20
-3.9827
 30
0.0
 10
70.4213
 20
-3.9827
 30
0.0
 10
70.5399
 20
-4.0313
 30
0.0
 10
70.3422
 20
-3.8601
 30
0.0
  0
SPLINE
  5
EF
330
1F
100
AcDbEntity
  8
Ilustrace
 62
   250
370
    30
100
AcDbSpline
210
0.0
220
0.0
230
1.0
 70
    24
 71
     3
 72
     8
 73
     4
 74
     0
 42
0.0000000001
 43
0.0000000001
 40
0.0
 40
0.0
 40
0.0
 40
0.0
 40
1.0
 40
1.0
 40
1.0
 40
1.0
 10
76.1522
 20
5.0884
 30
0.0
 10
76.1522
 20
5.0884
 30
0.0
 10
75.7774
 20
5.0884
 30
0.0
 10
75.7774
 20
5.0884
 30
0.0
  0
SPLINE
  5
F0
330
1F
100
AcDbEntity
  8
Ilustrace
 62
   250
370
    30
100
AcDbSpline
210
0.0
220
0.0
230
1.0
 70
    24
 71
     3
 72
     8
 73
     4
 74
     0
 42
0.0000000001
 43
0.0000000001
 40
0.0
 40
0.0
 40
0.0
 40
0.0
 40
1.0
 40
1.0
 40
1.0
 40
1.0
 10
70.7794
 20
-6.4067
 30
0.0
 10
70.7794
 20
-6.4067
 30
0.0
 10
71.1543
 20
-6.4067
 30
0.0
 10
71.1543
 20
-6.4067
 30
0.0
  0
SPLINE
  5
F1
330
1F
100
AcDbEntity
  8
Ilustrace
 62
   250
370
    30
100
AcDbSpline
210
0.0
220
0.0
230
1.0
 70
    24
 71
     3
 72
     8
 73
     4
 74
     0
 42
0.0000000001
 43
0.0000000001
 40
0.0
 40
0.0
 40
0.0
 40
0.0
 40
1.0
 40
1.0
 40
1.0
 40
1.0
 10
75.7774
 20
5.0884
 30
0.0
 10
75.7774
 20
5.0884
 30
0.0
 10
75.7774
 20
7.5875
 30
0.0
 10
75.7774
 20
7.5875
 30
0.0
  0
SPLINE
  5
F2
330
1F
100
AcDbEntity
  8
Ilustrace
 62
   250
370
    30
100
AcDbSpline
210
0.0
220
0.0
230
1.0
 70
     8
 71
     3
 72
    20
 73
    16
 74
     0
 42
0.0000000001
 43
0.0000000001
 40
0.0
 40
0.0
 40
0.0
 40
0.0
 40
0.2
 40
0.2
 40
0.2
 40
0.2
 40
0.4
 40
0.4
 40
0.4
 40
0.4
 40
0.6
 40
0.6
 40
0.6
 40
0.6
 40
1.0
 40
1.0
 40
1.0
 40
1.0
 10
76.1522
 20
5.0884
 30
0.0
 10
76.1522
 20
5.0884
 30
0.0
 10
76.1522
 20
5.5883
 30
0.0
 10
76.1522
 20
5.5883
 30
0.0
 10
76.1522
 20
5.5883
 30
0.0
 10
76.1522
 20
5.5883
 30
0.0
 10
76.1522
 20
7.0876
 30
0.0
 10
76.1522
 20
7.0876
 30
0.0
 10
76.1522
 20
7.0876
 30
0.0
 10
76.1522
 20
7.0876
 30
0.0
 10
76.1522
 20
7.5875
 30
0.0
 10
76.1522
 20
7.5875
 30
0.0
 10
76.1522
 20
7.5875
 30
0.0
 10
76.1522
 20
7.5875
 30
0.0
 10
76.1479
 20
7.6447
 30
0.0
 10
76.1479
 20
7.6447
 30
0.0
  0
SPLINE
  5
F3
330
1F
100
AcDbEntity
  8
Ilustrace
 62
   250
370
    30
100
AcDbSpline
210
0.0
220
0.0
230
1.0
 70
     8
 71
     3
 72
    12
 73
     8
 74
     0
 42
0.0000000001
 43
0.0000000001
 40
0.0
 40
0.0
 40
0.0
 40
0.0
 40
0.3333333333333333
 40
0.3333333333333333
 40
0.3333333333333333
 40
0.3333333333333333
 40
1.0
 40
1.0
 40
1.0
 40
1.0
 10
76.1479
 20
7.6447
 30
0.0
 10
76.1182
 20
7.8357
 30
0.0
 10
75.9515
 20
7.962
 30
0.0
 10
75.7631
 20
7.962
 30
0.0
 10
75.7631
 20
7.962
 30
0.0
 10
75.5646
 20
7.9467
 30
0.0
 10
75.403
 20
7.792
 30
0.0
 10
75.4026
 20
7.5875
 30
0.0
  0
SPLINE
  5
F4
330
1F
100
AcDbEntity
  8
Ilustrace
 62
   250
370
    30
100
AcDbSpline
210
0.0
220
0.0
230
1.0
 70
    24
 71
     3
 72
    12
 73
     8
 74
     0
 42
0.0000000001
 43
0.0000000001
 40
0.0
 40
0.0
 40
0.0
 40
0.0
 40
0.3333333333333333
 40
0.3333333333333333
 40
0.3333333333333333
 40
0.3333333333333333
 40
1.0
 40
1.0
 40
1.0
 40
1.0
 10
75.4026
 20
7.5875
 30
0.0
 10
75.4026
 20
7.5875
 30
0.0
 10
75.4026
 20
7.0876
 30
0.0
 10
75.4026
 20
7.0876
 30
0.0
 10
75.4026
 20
7.0876
 30
0.0
 10
75.4026
 20
7.0876
 30
0.0
 10
75.4026
 20
4.089
 30
0.0
 10
75.4026
 20
4.089
 30
0.0
  0
SPLINE
  5
F5
330
1F
100
AcDbEntity
  8
Ilustrace
 62
   250
370
    30
100
AcDbSpline
210
0.0
220
0.0
230
1.0
 70
     8
 71
     3
 72
    12
 73
     8
 74
     0
 42
0.0000000001
 43
0.0000000001
 40
0.0
 40
0.0
 40
0.0
 40
0.0
 40
0.3333333333333333
 40
0.3333333333333333
 40
0.3333333333333333
 40
0.3333333333333333
 40
1.0
 40
1.0
 40
1.0
 40
1.0
 10
75.4026
 20
4.089
 30
0.0
 10
75.4026
 20
3.823
 30
0.0
 10
75.4994
 20
3.3727
 30
0.0
 10
75.1656
 20
3.2406
 30
0.0
 10
75.1656
 20
3.2406
 30
0.0
 10
75.1212
 20
3.2229
 30
0.0
 10
75.0754
 20
3.2157
 30
0.0
 10
75.0278
 20
3.2142
 30
0.0
  0
SPLINE
  5
F6
330
1F
100
AcDbEntity
  8
Ilustrace
 62
   250
370
    30
100
AcDbSpline
210
0.0
220
0.0
230
1.0
 70
    24
 71
     3
 72
     8
 73
     4
 74
     0
 42
0.0000000001
 43
0.0000000001
 40
0.0
 40
0.0
 40
0.0
 40
0.0
 40
1.0
 40
1.0
 40
1.0
 40
1.0
 10
75.0278
 20
3.2142
 30
0.0
 10
75.0278
 20
3.2142
 30
0.0
 10
71.5291
 20
3.2142
 30
0.0
 10
71.5291
 20
3.2142
 30
0.0
  0
SPLINE
  5
F7
330
1F
100
AcDbEntity
  8
Ilustrace
 62
   250
370
    30
100
AcDbSpline
210
0.0
220
0.0
230
1.0
 70
     8
 71
     3
 72
    12
 73
     8
 74
     0
 42
0.0000000001
 43
0.0000000001
 40
0.0
 40
0.0
 40
0.0
 40
0.0
 40
0.3333333333333333
 40
0.3333333333333333
 40
0.3333333333333333
 40
0.3333333333333333
 40
1.0
 40
1.0
 40
1.0
 40
1.0
 10
71.5291
 20
3.2142
 30
0.0
 10
71.1729
 20
3.203
 30
0.0
 10
70.861
 20
2.9624
 30
0.0
 10
70.7927
 20
2.6051
 30
0.0
 10
70.7927
 20
2.6051
 30
0.0
 10
70.7548
 20
2.4066
 30
0.0
 10
70.7794
 20
2.1248
 30
0.0
 10
70.7794
 20
1.9647
 30
0.0
  0
SPLINE
  5
F8
330
1F
100
AcDbEntity
  8
Ilustrace
 62
   250
370
    30
100
AcDbSpline
210
0.0
220
0.0
230
1.0
 70
    24
 71
     3
 72
    12
 73
     8
 74
     0
 42
0.0000000001
 43
0.0000000001
 40
0.0
 40
0.0
 40
0.0
 40
0.0
 40
0.3333333333333333
 40
0.3333333333333333
 40
0.3333333333333333
 40
0.3333333333333333
 40
1.0
 40
1.0
 40
1.0
 40
1.0
 10
70.7794
 20
1.9647
 30
0.0
 10
70.7794
 20
1.9647
 30
0.0
 10
70.7794
 20
-5.9069
 30
0.0
 10
70.7794
 20
-5.9069
 30
0.0
 10
70.7794
 20
-5.9069
 30
0.0
 10
70.7794
 20
-5.9069
 30
0.0
 10
70.7794
 20
-6.4067
 30
0.0
 10
70.7794
 20
-6.4067
 30
0.0
  0
SPLINE
  5
F9
330
1F
100
AcDbEntity
  8
Ilustrace
 62
   250
370
    30
100
AcDbSpline
210
0.0
220
0.0
230
1.0
 70
    24
 71
     3
 72
    12
 73
     8
 74
     0
 42
0.0000000001
 43
0.0000000001
 40
0.0
 40
0.0
 40
0.0
 40
0.0
 40
0.3333333333333333
 40
0.3333333333333333
 40
0.3333333333333333
 40
0.3333333333333333
 40
1.0
 40
1.0
 40
1.0
 40
1.0
 10
71.1543
 20
-6.4067
 30
0.0
 10
71.1543
 20
-6.4067
 30
0.0
 10
71.1543
 20
-5.9069
 30
0.0
 10
71.1543
 20
-5.9069
 30
0.0
 10
71.1543
 20
-5.9069
 30
0.0
 10
71.1543
 20
-5.9069
 30
0.0
 10
71.1543
 20
1.9647
 30
0.0
 10
71.1543
 20
1.9647
 30
0.0
  0
SPLINE
  5
FA
330
1F
100
AcDbEntity
  8
Ilustrace
 62
   250
370
    30
100
AcDbSpline
210
0.0
220
0.0
230
1.0
 70
     8
 71
     3
 72
    12
 73
     8
 74
     0
 42
0.0000000001
 43
0.0000000001
 40
0.0
 40
0.0
 40
0.0
 40
0.0
 40
0.3333333333333333
 40
0.3333333333333333
 40
0.3333333333333333
 40
0.3333333333333333
 40
1.0
 40
1.0
 40
1.0
 40
1.0
 10
71.1543
 20
1.9647
 30
0.0
 10
71.1543
 20
2.0785
 30
0.0
 10
71.1047
 20
2.4428
 30
0.0
 10
71.1901
 20
2.6241
 30
0.0
 10
71.1901
 20
2.6241
 30
0.0
 10
71.3361
 20
2.9346
 30
0.0
 10
71.7695
 20
2.8394
 30
0.0
 10
72.0289
 20
2.8394
 30
0.0
  0
SPLINE
  5
FB
330
1F
100
AcDbEntity
  8
Ilustrace
 62
   250
370
    30
100
AcDbSpline
210
0.0
220
0.0
230
1.0
 70
     8
 71
     3
 72
    16
 73
    12
 74
     0
 42
0.0000000001
 43
0.0000000001
 40
0.0
 40
0.0
 40
0.0
 40
0.0
 40
0.25
 40
0.25
 40
0.25
 40
0.25
 40
0.5
 40
0.5
 40
0.5
 40
0.5
 40
1.0
 40
1.0
 40
1.0
 40
1.0
 10
72.0289
 20
2.8394
 30
0.0
 10
72.0289
 20
2.8394
 30
0.0
 10
74.528
 20
2.8394
 30
0.0
 10
74.528
 20
2.8394
 30
0.0
 10
74.528
 20
2.8394
 30
0.0
 10
74.528
 20
2.8394
 30
0.0
 10
75.0278
 20
2.8394
 30
0.0
 10
75.0278
 20
2.8394
 30
0.0
 10
75.0278
 20
2.8394
 30
0.0
 10
75.0278
 20
2.8394
 30
0.0
 10
75.0747
 20
2.8409
 30
0.0
 10
75.0747
 20
2.8409
 30
0.0
  0
SPLINE
  5
FC
330
1F
100
AcDbEntity
  8
Ilustrace
 62
   250
370
    30
100
AcDbSpline
210
0.0
220
0.0
230
1.0
 70
     8
 71
     3
 72
    12
 73
     8
 74
     0
 42
0.0000000001
 43
0.0000000001
 40
0.0
 40
0.0
 40
0.0
 40
0.0
 40
0.3333333333333333
 40
0.3333333333333333
 40
0.3333333333333333
 40
0.3333333333333333
 40
1.0
 40
1.0
 40
1.0
 40
1.0
 10
75.0747
 20
2.8409
 30
0.0
 10
75.4124
 20
2.8622
 30
0.0
 10
75.7007
 20
3.1164
 30
0.0
 10
75.7641
 20
3.4486
 30
0.0
 10
75.7641
 20
3.4486
 30
0.0
 10
75.802
 20
3.6471
 30
0.0
 10
75.7774
 20
3.929
 30
0.0
 10
75.7774
 20
4.089
 30
0.0
  0
SPLINE
  5
FD
330
1F
100
AcDbEntity
  8
Ilustrace
 62
   250
370
    30
100
AcDbSpline
210
0.0
220
0.0
230
1.0
 70
    24
 71
     3
 72
     8
 73
     4
 74
     0
 42
0.0000000001
 43
0.0000000001
 40
0.0
 40
0.0
 40
0.0
 40
0.0
 40
1.0
 40
1.0
 40
1.0
 40
1.0
 10
75.7774
 20
4.089
 30
0.0
 10
75.7774
 20
4.089
 30
0.0
 10
75.7774
 20
5.0884
 30
0.0
 10
75.7774
 20
5.0884
 30
0.0
  0
SPLINE
  5
FE
330
1F
100
AcDbEntity
  8
Ilustrace
 62
   250
370
    30
100
AcDbSpline
210
0.0
220
0.0
230
1.0
 70
    24
 71
     3
 72
     8
 73
     4
 74
     0
 42
0.0000000001
 43
0.0000000001
 40
0.0
 40
0.0
 40
0.0
 40
0.0
 40
1.0
 40
1.0
 40
1.0
 40
1.0
 10
49.2884
 20
5.0884
 30
0.0
 10
49.2884
 20
5.0884
 30
0.0
 10
48.9135
 20
5.0884
 30
0.0
 10
48.9135
 20
5.0884
 30
0.0
  0
SPLINE
  5
FF
330
1F
100
AcDbEntity
  8
Ilustrace
 62
   250
370
    30
100
AcDbSpline
210
0.0
220
0.0
230
1.0
 70
    24
 71
     3
 72
     8
 73
     4
 74
     0
 42
0.0000000001
 43
0.0000000001
 40
0.0
 40
0.0
 40
0.0
 40
0.0
 40
1.0
 40
1.0
 40
1.0
 40
1.0
 10
53.9115
 20
-6.4067
 30
0.0
 10
53.9115
 20
-6.4067
 30
0.0
 10
54.2863
 20
-6.4067
 30
0.0
 10
54.2863
 20
-6.4067
 30
0.0
  0
SPLINE
  5
100
330
1F
100
AcDbEntity
  8
Ilustrace
 62
   250
370
    30
100
AcDbSpline
210
0.0
220
0.0
230
1.0
 70
    24
 71
     3
 72
     8
 73
     4
 74
     0
 42
0.0000000001
 43
0.0000000001
 40
0.0
 40
0.0
 40
0.0
 40
0.0
 40
1.0
 40
1.0
 40
1.0
 40
1.0
 10
49.2884
 20
5.0884
 30
0.0
 10
49.2884
 20
5.0884
 30
0.0
 10
49.2884
 20
7.5875
 30
0.0
 10
49.2884
 20
7.5875
 30
0.0
  0
SPLINE
  5
101
330
1F
100
AcDbEntity
  8
Ilustrace
 62
   250
370
    30
100
AcDbSpline
210
0.0
220
0.0
230
1.0
 70
    24
 71
     3
 72
    12
 73
     8
 74
     0
 42
0.0000000001
 43
0.0000000001
 40
0.0
 40
0.0
 40
0.0
 40
0.0
 40
0.3333333333333333
 40
0.3333333333333333
 40
0.3333333333333333
 40
0.3333333333333333
 40
1.0
 40
1.0
 40
1.0
 40
1.0
 10
53.9115
 20
-6.4067
 30
0.0
 10
53.9115
 20
-6.4067
 30
0.0
 10
53.9115
 20
-5.9069
 30
0.0
 10
53.9115
 20
-5.9069
 30
0.0
 10
53.9115
 20
-5.9069
 30
0.0
 10
53.9115
 20
-5.9069
 30
0.0
 10
53.9115
 20
1.9647
 30
0.0
 10
53.9115
 20
1.9647
 30
0.0
  0
SPLINE
  5
102
330
1F
100
AcDbEntity
  8
Ilustrace
 62
   250
370
    30
100
AcDbSpline
210
0.0
220
0.0
230
1.0
 70
     8
 71
     3
 72
    12
 73
     8
 74
     0
 42
0.0000000001
 43
0.0000000001
 40
0.0
 40
0.0
 40
0.0
 40
0.0
 40
0.3333333333333333
 40
0.3333333333333333
 40
0.3333333333333333
 40
0.3333333333333333
 40
1.0
 40
1.0
 40
1.0
 40
1.0
 10
53.9115
 20
1.9647
 30
0.0
 10
53.9115
 20
2.0785
 30
0.0
 10
53.9613
 20
2.4428
 30
0.0
 10
53.8759
 20
2.6241
 30
0.0
 10
53.8759
 20
2.6241
 30
0.0
 10
53.7297
 20
2.9346
 30
0.0
 10
53.2962
 20
2.8394
 30
0.0
 10
53.0369
 20
2.8394
 30
0.0
  0
SPLINE
  5
103
330
1F
100
AcDbEntity
  8
Ilustrace
 62
   250
370
    30
100
AcDbSpline
210
0.0
220
0.0
230
1.0
 70
     8
 71
     3
 72
    16
 73
    12
 74
     0
 42
0.0000000001
 43
0.0000000001
 40
0.0
 40
0.0
 40
0.0
 40
0.0
 40
0.25
 40
0.25
 40
0.25
 40
0.25
 40
0.5
 40
0.5
 40
0.5
 40
0.5
 40
1.0
 40
1.0
 40
1.0
 40
1.0
 10
53.0369
 20
2.8394
 30
0.0
 10
53.0369
 20
2.8394
 30
0.0
 10
50.5379
 20
2.8394
 30
0.0
 10
50.5379
 20
2.8394
 30
0.0
 10
50.5379
 20
2.8394
 30
0.0
 10
50.5379
 20
2.8394
 30
0.0
 10
50.0381
 20
2.8394
 30
0.0
 10
50.0381
 20
2.8394
 30
0.0
 10
50.0381
 20
2.8394
 30
0.0
 10
50.0381
 20
2.8394
 30
0.0
 10
49.9911
 20
2.8409
 30
0.0
 10
49.9911
 20
2.8409
 30
0.0
  0
SPLINE
  5
104
330
1F
100
AcDbEntity
  8
Ilustrace
 62
   250
370
    30
100
AcDbSpline
210
0.0
220
0.0
230
1.0
 70
     8
 71
     3
 72
    12
 73
     8
 74
     0
 42
0.0000000001
 43
0.0000000001
 40
0.0
 40
0.0
 40
0.0
 40
0.0
 40
0.3333333333333333
 40
0.3333333333333333
 40
0.3333333333333333
 40
0.3333333333333333
 40
1.0
 40
1.0
 40
1.0
 40
1.0
 10
49.9911
 20
2.8409
 30
0.0
 10
49.6534
 20
2.8622
 30
0.0
 10
49.3652
 20
3.1164
 30
0.0
 10
49.3018
 20
3.4486
 30
0.0
 10
49.3018
 20
3.4486
 30
0.0
 10
49.2638
 20
3.6471
 30
0.0
 10
49.2884
 20
3.929
 30
0.0
 10
49.2884
 20
4.089
 30
0.0
  0
SPLINE
  5
105
330
1F
100
AcDbEntity
  8
Ilustrace
 62
   250
370
    30
100
AcDbSpline
210
0.0
220
0.0
230
1.0
 70
    24
 71
     3
 72
     8
 73
     4
 74
     0
 42
0.0000000001
 43
0.0000000001
 40
0.0
 40
0.0
 40
0.0
 40
0.0
 40
1.0
 40
1.0
 40
1.0
 40
1.0
 10
49.2884
 20
4.089
 30
0.0
 10
49.2884
 20
4.089
 30
0.0
 10
49.2884
 20
5.0884
 30
0.0
 10
49.2884
 20
5.0884
 30
0.0
  0
SPLINE
  5
106
330
1F
100
AcDbEntity
  8
Ilustrace
 62
   250
370
    30
100
AcDbSpline
210
0.0
220
0.0
230
1.0
 70
     8
 71
     3
 72
    20
 73
    16
 74
     0
 42
0.0000000001
 43
0.0000000001
 40
0.0
 40
0.0
 40
0.0
 40
0.0
 40
0.2
 40
0.2
 40
0.2
 40
0.2
 40
0.4
 40
0.4
 40
0.4
 40
0.4
 40
0.6
 40
0.6
 40
0.6
 40
0.6
 40
1.0
 40
1.0
 40
1.0
 40
1.0
 10
54.2863
 20
-6.4067
 30
0.0
 10
54.2863
 20
-6.4067
 30
0.0
 10
54.2863
 20
-5.9069
 30
0.0
 10
54.2863
 20
-5.9069
 30
0.0
 10
54.2863
 20
-5.9069
 30
0.0
 10
54.2863
 20
-5.9069
 30
0.0
 10
54.2863
 20
1.9647
 30
0.0
 10
54.2863
 20
1.9647
 30
0.0
 10
54.2863
 20
1.9647
 30
0.0
 10
54.2863
 20
1.9647
 30
0.0
 10
54.2863
 20
2.4646
 30
0.0
 10
54.2863
 20
2.4646
 30
0.0
 10
54.2863
 20
2.4646
 30
0.0
 10
54.2863
 20
2.4646
 30
0.0
 10
54.285
 20
2.5117
 30
0.0
 10
54.285
 20
2.5117
 30
0.0
  0
SPLINE
  5
107
330
1F
100
AcDbEntity
  8
Ilustrace
 62
   250
370
    30
100
AcDbSpline
210
0.0
220
0.0
230
1.0
 70
     8
 71
     3
 72
    12
 73
     8
 74
     0
 42
0.0000000001
 43
0.0000000001
 40
0.0
 40
0.0
 40
0.0
 40
0.0
 40
0.3333333333333333
 40
0.3333333333333333
 40
0.3333333333333333
 40
0.3333333333333333
 40
1.0
 40
1.0
 40
1.0
 40
1.0
 10
54.285
 20
2.5117
 30
0.0
 10
54.2636
 20
2.8492
 30
0.0
 10
54.0093
 20
3.1377
 30
0.0
 10
53.6771
 20
3.2011
 30
0.0
 10
53.6771
 20
3.2011
 30
0.0
 10
53.4786
 20
3.2388
 30
0.0
 10
53.1969
 20
3.2142
 30
0.0
 10
53.0369
 20
3.2142
 30
0.0
  0
SPLINE
  5
108
330
1F
100
AcDbEntity
  8
Ilustrace
 62
   250
370
    30
100
AcDbSpline
210
0.0
220
0.0
230
1.0
 70
    24
 71
     3
 72
     8
 73
     4
 74
     0
 42
0.0000000001
 43
0.0000000001
 40
0.0
 40
0.0
 40
0.0
 40
0.0
 40
1.0
 40
1.0
 40
1.0
 40
1.0
 10
53.0369
 20
3.2142
 30
0.0
 10
53.0369
 20
3.2142
 30
0.0
 10
50.5379
 20
3.2142
 30
0.0
 10
50.5379
 20
3.2142
 30
0.0
  0
SPLINE
  5
109
330
1F
100
AcDbEntity
  8
Ilustrace
 62
   250
370
    30
100
AcDbSpline
210
0.0
220
0.0
230
1.0
 70
     8
 71
     3
 72
    12
 73
     8
 74
     0
 42
0.0000000001
 43
0.0000000001
 40
0.0
 40
0.0
 40
0.0
 40
0.0
 40
0.3333333333333333
 40
0.3333333333333333
 40
0.3333333333333333
 40
0.3333333333333333
 40
1.0
 40
1.0
 40
1.0
 40
1.0
 10
50.5379
 20
3.2142
 30
0.0
 10
50.2945
 20
3.2142
 30
0.0
 10
49.8893
 20
3.1239
 30
0.0
 10
49.7216
 20
3.3882
 30
0.0
 10
49.7216
 20
3.3882
 30
0.0
 10
49.6028
 20
3.5755
 30
0.0
 10
49.6632
 20
3.9364
 30
0.0
 10
49.6632
 20
4.089
 30
0.0
  0
SPLINE
  5
10A
330
1F
100
AcDbEntity
  8
Ilustrace
 62
   250
370
    30
100
AcDbSpline
210
0.0
220
0.0
230
1.0
 70
    24
 71
     3
 72
     8
 73
     4
 74
     0
 42
0.0000000001
 43
0.0000000001
 40
0.0
 40
0.0
 40
0.0
 40
0.0
 40
1.0
 40
1.0
 40
1.0
 40
1.0
 10
49.6632
 20
4.089
 30
0.0
 10
49.6632
 20
4.089
 30
0.0
 10
49.6632
 20
7.0876
 30
0.0
 10
49.6632
 20
7.0876
 30
0.0
  0
SPLINE
  5
10B
330
1F
100
AcDbEntity
  8
Ilustrace
 62
   250
370
    30
100
AcDbSpline
210
0.0
220
0.0
230
1.0
 70
     8
 71
     3
 72
    16
 73
    12
 74
     0
 42
0.0000000001
 43
0.0000000001
 40
0.0
 40
0.0
 40
0.0
 40
0.0
 40
0.25
 40
0.25
 40
0.25
 40
0.25
 40
0.5
 40
0.5
 40
0.5
 40
0.5
 40
1.0
 40
1.0
 40
1.0
 40
1.0
 10
49.6632
 20
7.0876
 30
0.0
 10
49.6632
 20
7.3565
 30
0.0
 10
49.7607
 20
7.8162
 30
0.0
 10
49.4152
 20
7.9401
 30
0.0
 10
49.4152
 20
7.9401
 30
0.0
 10
49.3692
 20
7.9567
 30
0.0
 10
49.3227
 20
7.962
 30
0.0
 10
49.2742
 20
7.962
 30
0.0
 10
49.2742
 20
7.962
 30
0.0
 10
49.0966
 20
7.9484
 30
0.0
 10
48.9458
 20
7.825
 30
0.0
 10
48.9179
 20
7.6447
 30
0.0
  0
SPLINE
  5
10C
330
1F
100
AcDbEntity
  8
Ilustrace
 62
   250
370
    30
100
AcDbSpline
210
0.0
220
0.0
230
1.0
 70
     8
 71
     3
 72
    20
 73
    16
 74
     0
 42
0.0000000001
 43
0.0000000001
 40
0.0
 40
0.0
 40
0.0
 40
0.0
 40
0.2
 40
0.2
 40
0.2
 40
0.2
 40
0.4
 40
0.4
 40
0.4
 40
0.4
 40
0.6
 40
0.6
 40
0.6
 40
0.6
 40
1.0
 40
1.0
 40
1.0
 40
1.0
 10
48.9179
 20
7.6447
 30
0.0
 10
48.9179
 20
7.6447
 30
0.0
 10
48.9135
 20
7.5875
 30
0.0
 10
48.9135
 20
7.5875
 30
0.0
 10
48.9135
 20
7.5875
 30
0.0
 10
48.9135
 20
7.5875
 30
0.0
 10
48.9135
 20
7.0876
 30
0.0
 10
48.9135
 20
7.0876
 30
0.0
 10
48.9135
 20
7.0876
 30
0.0
 10
48.9135
 20
7.0876
 30
0.0
 10
48.9135
 20
5.5883
 30
0.0
 10
48.9135
 20
5.5883
 30
0.0
 10
48.9135
 20
5.5883
 30
0.0
 10
48.9135
 20
5.5883
 30
0.0
 10
48.9135
 20
5.0884
 30
0.0
 10
48.9135
 20
5.0884
 30
0.0
  0
SPLINE
  5
10D
330
1F
100
AcDbEntity
  8
Ilustrace
 62
   250
370
    30
100
AcDbSpline
210
0.0
220
0.0
230
1.0
 70
    24
 71
     3
 72
     8
 73
     4
 74
     0
 42
0.0000000001
 43
0.0000000001
 40
0.0
 40
0.0
 40
0.0
 40
0.0
 40
1.0
 40
1.0
 40
1.0
 40
1.0
 10
51.3814
 20
1.8899
 30
0.0
 10
51.3814
 20
1.8899
 30
0.0
 10
52.6931
 20
1.8899
 30
0.0
 10
52.6931
 20
1.8899
 30
0.0
  0
SPLINE
  5
10E
330
1F
100
AcDbEntity
  8
Ilustrace
 62
   250
370
    30
100
AcDbSpline
210
0.0
220
0.0
230
1.0
 70
    24
 71
     3
 72
     8
 73
     4
 74
     0
 42
0.0000000001
 43
0.0000000001
 40
0.0
 40
0.0
 40
0.0
 40
0.0
 40
1.0
 40
1.0
 40
1.0
 40
1.0
 10
52.5683
 20
2.4646
 30
0.0
 10
52.5683
 20
2.4646
 30
0.0
 10
51.5062
 20
2.4646
 30
0.0
 10
51.5062
 20
2.4646
 30
0.0
  0
SPLINE
  5
10F
330
1F
100
AcDbEntity
  8
Ilustrace
 62
   250
370
    30
100
AcDbSpline
210
0.0
220
0.0
230
1.0
 70
     8
 71
     3
 72
    12
 73
     8
 74
     0
 42
0.0000000001
 43
0.0000000001
 40
0.0
 40
0.0
 40
0.0
 40
0.0
 40
0.3333333333333333
 40
0.3333333333333333
 40
0.3333333333333333
 40
0.3333333333333333
 40
1.0
 40
1.0
 40
1.0
 40
1.0
 10
52.5109
 20
1.8899
 30
0.0
 10
52.4449
 20
1.6811
 30
0.0
 10
52.249
 20
1.5578
 30
0.0
 10
52.0373
 20
1.5485
 30
0.0
 10
52.0373
 20
1.5485
 30
0.0
 10
51.8257
 20
1.5578
 30
0.0
 10
51.6298
 20
1.6811
 30
0.0
 10
51.5638
 20
1.8899
 30
0.0
  0
SPLINE
  5
110
330
1F
100
AcDbEntity
  8
Ilustrace
 62
   250
370
    30
100
AcDbSpline
210
0.0
220
0.0
230
1.0
 70
     8
 71
     3
 72
    16
 73
    12
 74
     0
 42
0.0000000001
 43
0.0000000001
 40
0.0
 40
0.0
 40
0.0
 40
0.0
 40
0.25
 40
0.25
 40
0.25
 40
0.25
 40
0.5
 40
0.5
 40
0.5
 40
0.5
 40
1.0
 40
1.0
 40
1.0
 40
1.0
 10
52.9432
 20
3.589
 30
0.0
 10
52.8979
 20
3.6469
 30
0.0
 10
52.8525
 20
3.7003
 30
0.0
 10
52.7956
 20
3.7471
 30
0.0
 10
52.7956
 20
3.7471
 30
0.0
 10
52.5093
 20
3.9838
 30
0.0
 10
52.1642
 20
3.9389
 30
0.0
 10
51.8124
 20
3.9389
 30
0.0
 10
51.8124
 20
3.9389
 30
0.0
 10
51.5324
 20
3.9268
 30
0.0
 10
51.3043
 20
3.8097
 30
0.0
 10
51.1315
 20
3.589
 30
0.0
  0
SPLINE
  5
111
330
1F
100
AcDbEntity
  8
Ilustrace
 62
   250
370
    30
100
AcDbSpline
210
0.0
220
0.0
230
1.0
 70
     8
 71
     3
 72
    12
 73
     8
 74
     0
 42
0.0000000001
 43
0.0000000001
 40
0.0
 40
0.0
 40
0.0
 40
0.0
 40
0.3333333333333333
 40
0.3333333333333333
 40
0.3333333333333333
 40
0.3333333333333333
 40
1.0
 40
1.0
 40
1.0
 40
1.0
 10
51.5062
 20
2.8394
 30
0.0
 10
51.5062
 20
2.8394
 30
0.0
 10
51.5062
 20
2.4646
 30
0.0
 10
51.5062
 20
2.4646
 30
0.0
 10
51.5062
 20
2.4646
 30
0.0
 10
51.5062
 20
2.4646
 30
0.0
 10
51.474
 20
2.4197
 30
0.0
 10
51.474
 20
2.4197
 30
0.0
  0
SPLINE
  5
112
330
1F
100
AcDbEntity
  8
Ilustrace
 62
   250
370
    30
100
AcDbSpline
210
0.0
220
0.0
230
1.0
 70
     8
 71
     3
 72
    12
 73
     8
 74
     0
 42
0.0000000001
 43
0.0000000001
 40
0.0
 40
0.0
 40
0.0
 40
0.0
 40
0.3333333333333333
 40
0.3333333333333333
 40
0.3333333333333333
 40
0.3333333333333333
 40
1.0
 40
1.0
 40
1.0
 40
1.0
 10
51.474
 20
2.4197
 30
0.0
 10
51.4436
 20
2.3735
 30
0.0
 10
51.4189
 20
2.3235
 30
0.0
 10
51.4006
 20
2.2713
 30
0.0
 10
51.4006
 20
2.2713
 30
0.0
 10
51.3566
 20
2.1459
 30
0.0
 10
51.3559
 20
2.0188
 30
0.0
 10
51.3814
 20
1.8899
 30
0.0
  0
SPLINE
  5
113
330
1F
100
AcDbEntity
  8
Ilustrace
 62
   250
370
    30
100
AcDbSpline
210
0.0
220
0.0
230
1.0
 70
     8
 71
     3
 72
    12
 73
     8
 74
     0
 42
0.0000000001
 43
0.0000000001
 40
0.0
 40
0.0
 40
0.0
 40
0.0
 40
0.3333333333333333
 40
0.3333333333333333
 40
0.3333333333333333
 40
0.3333333333333333
 40
1.0
 40
1.0
 40
1.0
 40
1.0
 10
52.6931
 20
1.8899
 30
0.0
 10
52.7189
 20
2.0188
 30
0.0
 10
52.718
 20
2.1459
 30
0.0
 10
52.6742
 20
2.2713
 30
0.0
 10
52.6742
 20
2.2713
 30
0.0
 10
52.6558
 20
2.3235
 30
0.0
 10
52.6311
 20
2.3735
 30
0.0
 10
52.6007
 20
2.4197
 30
0.0
  0
SPLINE
  5
114
330
1F
100
AcDbEntity
  8
Ilustrace
 62
   250
370
    30
100
AcDbSpline
210
0.0
220
0.0
230
1.0
 70
     8
 71
     3
 72
    12
 73
     8
 74
     0
 42
0.0000000001
 43
0.0000000001
 40
0.0
 40
0.0
 40
0.0
 40
0.0
 40
0.3333333333333333
 40
0.3333333333333333
 40
0.3333333333333333
 40
0.3333333333333333
 40
1.0
 40
1.0
 40
1.0
 40
1.0
 10
52.6007
 20
2.4197
 30
0.0
 10
52.6007
 20
2.4197
 30
0.0
 10
52.5683
 20
2.4646
 30
0.0
 10
52.5683
 20
2.4646
 30
0.0
 10
52.5683
 20
2.4646
 30
0.0
 10
52.5683
 20
2.4646
 30
0.0
 10
52.5683
 20
2.8394
 30
0.0
 10
52.5683
 20
2.8394
 30
0.0
  0
SPLINE
  5
115
330
1F
100
AcDbEntity
  8
Ilustrace
 62
   250
370
    30
100
AcDbSpline
210
0.0
220
0.0
230
1.0
 70
    24
 71
     3
 72
     8
 73
     4
 74
     0
 42
0.0000000001
 43
0.0000000001
 40
0.0
 40
0.0
 40
0.0
 40
0.0
 40
1.0
 40
1.0
 40
1.0
 40
1.0
 10
72.3726
 20
1.8899
 30
0.0
 10
72.3726
 20
1.8899
 30
0.0
 10
73.6844
 20
1.8899
 30
0.0
 10
73.6844
 20
1.8899
 30
0.0
  0
SPLINE
  5
116
330
1F
100
AcDbEntity
  8
Ilustrace
 62
   250
370
    30
100
AcDbSpline
210
0.0
220
0.0
230
1.0
 70
    24
 71
     3
 72
     8
 73
     4
 74
     0
 42
0.0000000001
 43
0.0000000001
 40
0.0
 40
0.0
 40
0.0
 40
0.0
 40
1.0
 40
1.0
 40
1.0
 40
1.0
 10
73.5596
 20
2.4646
 30
0.0
 10
73.5596
 20
2.4646
 30
0.0
 10
72.4975
 20
2.4646
 30
0.0
 10
72.4975
 20
2.4646
 30
0.0
  0
SPLINE
  5
117
330
1F
100
AcDbEntity
  8
Ilustrace
 62
   250
370
    30
100
AcDbSpline
210
0.0
220
0.0
230
1.0
 70
     8
 71
     3
 72
    12
 73
     8
 74
     0
 42
0.0000000001
 43
0.0000000001
 40
0.0
 40
0.0
 40
0.0
 40
0.0
 40
0.3333333333333333
 40
0.3333333333333333
 40
0.3333333333333333
 40
0.3333333333333333
 40
1.0
 40
1.0
 40
1.0
 40
1.0
 10
73.5021
 20
1.8899
 30
0.0
 10
73.436
 20
1.6811
 30
0.0
 10
73.2402
 20
1.5578
 30
0.0
 10
73.0285
 20
1.5485
 30
0.0
 10
73.0285
 20
1.5485
 30
0.0
 10
72.8169
 20
1.5578
 30
0.0
 10
72.6211
 20
1.6811
 30
0.0
 10
72.555
 20
1.8899
 30
0.0
  0
SPLINE
  5
118
330
1F
100
AcDbEntity
  8
Ilustrace
 62
   250
370
    30
100
AcDbSpline
210
0.0
220
0.0
230
1.0
 70
     8
 71
     3
 72
    16
 73
    12
 74
     0
 42
0.0000000001
 43
0.0000000001
 40
0.0
 40
0.0
 40
0.0
 40
0.0
 40
0.25
 40
0.25
 40
0.25
 40
0.25
 40
0.5
 40
0.5
 40
0.5
 40
0.5
 40
1.0
 40
1.0
 40
1.0
 40
1.0
 10
73.9344
 20
3.589
 30
0.0
 10
73.8893
 20
3.6469
 30
0.0
 10
73.8437
 20
3.7003
 30
0.0
 10
73.7869
 20
3.7471
 30
0.0
 10
73.7869
 20
3.7471
 30
0.0
 10
73.5004
 20
3.9838
 30
0.0
 10
73.1555
 20
3.9389
 30
0.0
 10
72.8036
 20
3.9389
 30
0.0
 10
72.8036
 20
3.9389
 30
0.0
 10
72.5235
 20
3.9268
 30
0.0
 10
72.2957
 20
3.8097
 30
0.0
 10
72.1227
 20
3.589
 30
0.0
  0
SPLINE
  5
119
330
1F
100
AcDbEntity
  8
Ilustrace
 62
   250
370
    30
100
AcDbSpline
210
0.0
220
0.0
230
1.0
 70
     8
 71
     3
 72
    12
 73
     8
 74
     0
 42
0.0000000001
 43
0.0000000001
 40
0.0
 40
0.0
 40
0.0
 40
0.0
 40
0.3333333333333333
 40
0.3333333333333333
 40
0.3333333333333333
 40
0.3333333333333333
 40
1.0
 40
1.0
 40
1.0
 40
1.0
 10
72.4975
 20
2.8394
 30
0.0
 10
72.4975
 20
2.8394
 30
0.0
 10
72.4975
 20
2.4646
 30
0.0
 10
72.4975
 20
2.4646
 30
0.0
 10
72.4975
 20
2.4646
 30
0.0
 10
72.4975
 20
2.4646
 30
0.0
 10
72.4652
 20
2.4197
 30
0.0
 10
72.4652
 20
2.4197
 30
0.0
  0
SPLINE
  5
11A
330
1F
100
AcDbEntity
  8
Ilustrace
 62
   250
370
    30
100
AcDbSpline
210
0.0
220
0.0
230
1.0
 70
     8
 71
     3
 72
    12
 73
     8
 74
     0
 42
0.0000000001
 43
0.0000000001
 40
0.0
 40
0.0
 40
0.0
 40
0.0
 40
0.3333333333333333
 40
0.3333333333333333
 40
0.3333333333333333
 40
0.3333333333333333
 40
1.0
 40
1.0
 40
1.0
 40
1.0
 10
72.4652
 20
2.4197
 30
0.0
 10
72.4347
 20
2.3735
 30
0.0
 10
72.4101
 20
2.3235
 30
0.0
 10
72.3917
 20
2.2713
 30
0.0
 10
72.3917
 20
2.2713
 30
0.0
 10
72.3478
 20
2.1459
 30
0.0
 10
72.3471
 20
2.0188
 30
0.0
 10
72.3726
 20
1.8899
 30
0.0
  0
SPLINE
  5
11B
330
1F
100
AcDbEntity
  8
Ilustrace
 62
   250
370
    30
100
AcDbSpline
210
0.0
220
0.0
230
1.0
 70
     8
 71
     3
 72
    12
 73
     8
 74
     0
 42
0.0000000001
 43
0.0000000001
 40
0.0
 40
0.0
 40
0.0
 40
0.0
 40
0.3333333333333333
 40
0.3333333333333333
 40
0.3333333333333333
 40
0.3333333333333333
 40
1.0
 40
1.0
 40
1.0
 40
1.0
 10
73.6844
 20
1.8899
 30
0.0
 10
73.71
 20
2.0188
 30
0.0
 10
73.7092
 20
2.1459
 30
0.0
 10
73.6653
 20
2.2713
 30
0.0
 10
73.6653
 20
2.2713
 30
0.0
 10
73.6471
 20
2.3235
 30
0.0
 10
73.6223
 20
2.3735
 30
0.0
 10
73.5919
 20
2.4197
 30
0.0
  0
SPLINE
  5
11C
330
1F
100
AcDbEntity
  8
Ilustrace
 62
   250
370
    30
100
AcDbSpline
210
0.0
220
0.0
230
1.0
 70
     8
 71
     3
 72
    12
 73
     8
 74
     0
 42
0.0000000001
 43
0.0000000001
 40
0.0
 40
0.0
 40
0.0
 40
0.0
 40
0.3333333333333333
 40
0.3333333333333333
 40
0.3333333333333333
 40
0.3333333333333333
 40
1.0
 40
1.0
 40
1.0
 40
1.0
 10
73.5919
 20
2.4197
 30
0.0
 10
73.5919
 20
2.4197
 30
0.0
 10
73.5596
 20
2.4646
 30
0.0
 10
73.5596
 20
2.4646
 30
0.0
 10
73.5596
 20
2.4646
 30
0.0
 10
73.5596
 20
2.4646
 30
0.0
 10
73.5596
 20
2.8394
 30
0.0
 10
73.5596
 20
2.8394
 30
0.0
  0
SPLINE
  5
11D
330
1F
100
AcDbEntity
  8
Ilustrace
 62
   250
370
    30
100
AcDbSpline
210
0.0
220
0.0
230
1.0
 70
    24
 71
     3
 72
     8
 73
     4
 74
     0
 42
0.0000000001
 43
0.0000000001
 40
0.0
 40
0.0
 40
0.0
 40
0.0
 40
1.0
 40
1.0
 40
1.0
 40
1.0
 10
50.5379
 20
3.589
 30
0.0
 10
50.5379
 20
3.589
 30
0.0
 10
74.528
 20
3.589
 30
0.0
 10
74.528
 20
3.589
 30
0.0
  0
SPLINE
  5
11E
330
1F
100
AcDbEntity
  8
Ilustrace
 62
   250
370
    30
100
AcDbSpline
210
0.0
220
0.0
230
1.0
 70
    24
 71
     3
 72
     8
 73
     4
 74
     0
 42
0.0000000001
 43
0.0000000001
 40
0.0
 40
0.0
 40
0.0
 40
0.0
 40
1.0
 40
1.0
 40
1.0
 40
1.0
 10
74.528
 20
3.2142
 30
0.0
 10
74.528
 20
3.2142
 30
0.0
 10
74.528
 20
3.589
 30
0.0
 10
74.528
 20
3.589
 30
0.0
  0
SPLINE
  5
11F
330
1F
100
AcDbEntity
  8
Ilustrace
 62
   250
370
    30
100
AcDbSpline
210
0.0
220
0.0
230
1.0
 70
    24
 71
     3
 72
     8
 73
     4
 74
     0
 42
0.0000000001
 43
0.0000000001
 40
0.0
 40
0.0
 40
0.0
 40
0.0
 40
1.0
 40
1.0
 40
1.0
 40
1.0
 10
70.5296
 20
3.2142
 30
0.0
 10
70.5296
 20
3.2142
 30
0.0
 10
71.5291
 20
3.2142
 30
0.0
 10
71.5291
 20
3.2142
 30
0.0
  0
SPLINE
  5
120
330
1F
100
AcDbEntity
  8
Ilustrace
 62
   250
370
    30
100
AcDbSpline
210
0.0
220
0.0
230
1.0
 70
    24
 71
     3
 72
     8
 73
     4
 74
     0
 42
0.0000000001
 43
0.0000000001
 40
0.0
 40
0.0
 40
0.0
 40
0.0
 40
1.0
 40
1.0
 40
1.0
 40
1.0
 10
54.5362
 20
3.2142
 30
0.0
 10
54.5362
 20
3.2142
 30
0.0
 10
53.5367
 20
3.2142
 30
0.0
 10
53.5367
 20
3.2142
 30
0.0
  0
SPLINE
  5
121
330
1F
100
AcDbEntity
  8
Ilustrace
 62
   250
370
    30
100
AcDbSpline
210
0.0
220
0.0
230
1.0
 70
    24
 71
     3
 72
     8
 73
     4
 74
     0
 42
0.0000000001
 43
0.0000000001
 40
0.0
 40
0.0
 40
0.0
 40
0.0
 40
1.0
 40
1.0
 40
1.0
 40
1.0
 10
50.5379
 20
3.2142
 30
0.0
 10
50.5379
 20
3.2142
 30
0.0
 10
50.5379
 20
3.589
 30
0.0
 10
50.5379
 20
3.589
 30
0.0
  0
SPLINE
  5
122
330
1F
100
AcDbEntity
  8
Ilustrace
 62
   250
370
    30
100
AcDbSpline
210
0.0
220
0.0
230
1.0
 70
    24
 71
     3
 72
     8
 73
     4
 74
     0
 42
0.0000000001
 43
0.0000000001
 40
0.0
 40
0.0
 40
0.0
 40
0.0
 40
1.0
 40
1.0
 40
1.0
 40
1.0
 10
70.5296
 20
2.8394
 30
0.0
 10
70.5296
 20
2.8394
 30
0.0
 10
54.5362
 20
2.8394
 30
0.0
 10
54.5362
 20
2.8394
 30
0.0
  0
SPLINE
  5
123
330
1F
100
AcDbEntity
  8
Ilustrace
 62
   250
370
    30
100
AcDbSpline
210
0.0
220
0.0
230
1.0
 70
    24
 71
     3
 72
    12
 73
     8
 74
     0
 42
0.0000000001
 43
0.0000000001
 40
0.0
 40
0.0
 40
0.0
 40
0.0
 40
0.3333333333333333
 40
0.3333333333333333
 40
0.3333333333333333
 40
0.3333333333333333
 40
1.0
 40
1.0
 40
1.0
 40
1.0
 10
70.5296
 20
3.589
 30
0.0
 10
70.5296
 20
3.589
 30
0.0
 10
70.5296
 20
3.0893
 30
0.0
 10
70.5296
 20
3.0893
 30
0.0
 10
70.5296
 20
3.0893
 30
0.0
 10
70.5296
 20
3.0893
 30
0.0
 10
70.5296
 20
1.8399
 30
0.0
 10
70.5296
 20
1.8399
 30
0.0
  0
SPLINE
  5
124
330
1F
100
AcDbEntity
  8
Ilustrace
 62
   250
370
    30
100
AcDbSpline
210
0.0
220
0.0
230
1.0
 70
     8
 71
     3
 72
    16
 73
    12
 74
     0
 42
0.0000000001
 43
0.0000000001
 40
0.0
 40
0.0
 40
0.0
 40
0.0
 40
0.25
 40
0.25
 40
0.25
 40
0.25
 40
0.5
 40
0.5
 40
0.5
 40
0.5
 40
1.0
 40
1.0
 40
1.0
 40
1.0
 10
70.5296
 20
1.8399
 30
0.0
 10
70.5296
 20
1.4438
 30
0.0
 10
70.5906
 20
1.0276
 30
0.0
 10
70.2473
 20
0.754
 30
0.0
 10
70.2473
 20
0.754
 30
0.0
 10
70.1816
 20
0.7014
 30
0.0
 10
70.107
 20
0.6602
 30
0.0
 10
70.0275
 20
0.6324
 30
0.0
 10
70.0275
 20
0.6324
 30
0.0
 10
69.9457
 20
0.6038
 30
0.0
 10
69.8658
 20
0.5951
 30
0.0
 10
69.7798
 20
0.5904
 30
0.0
  0
SPLINE
  5
125
330
1F
100
AcDbEntity
  8
Ilustrace
 62
   250
370
    30
100
AcDbSpline
210
0.0
220
0.0
230
1.0
 70
    24
 71
     3
 72
    12
 73
     8
 74
     0
 42
0.0000000001
 43
0.0000000001
 40
0.0
 40
0.0
 40
0.0
 40
0.0
 40
0.3333333333333333
 40
0.3333333333333333
 40
0.3333333333333333
 40
0.3333333333333333
 40
1.0
 40
1.0
 40
1.0
 40
1.0
 10
69.7798
 20
0.5904
 30
0.0
 10
69.7798
 20
0.5904
 30
0.0
 10
69.2801
 20
0.5904
 30
0.0
 10
69.2801
 20
0.5904
 30
0.0
 10
69.2801
 20
0.5904
 30
0.0
 10
69.2801
 20
0.5904
 30
0.0
 10
55.7858
 20
0.5904
 30
0.0
 10
55.7858
 20
0.5904
 30
0.0
  0
SPLINE
  5
126
330
1F
100
AcDbEntity
  8
Ilustrace
 62
   250
370
    30
100
AcDbSpline
210
0.0
220
0.0
230
1.0
 70
     8
 71
     3
 72
    16
 73
    12
 74
     0
 42
0.0000000001
 43
0.0000000001
 40
0.0
 40
0.0
 40
0.0
 40
0.0
 40
0.25
 40
0.25
 40
0.25
 40
0.25
 40
0.5
 40
0.5
 40
0.5
 40
0.5
 40
1.0
 40
1.0
 40
1.0
 40
1.0
 10
55.7858
 20
0.5904
 30
0.0
 10
55.3897
 20
0.5904
 30
0.0
 10
54.9737
 20
0.5293
 30
0.0
 10
54.6998
 20
0.8726
 30
0.0
 10
54.6998
 20
0.8726
 30
0.0
 10
54.6648
 20
0.9165
 30
0.0
 10
54.6349
 20
0.9642
 30
0.0
 10
54.6105
 20
1.0148
 30
0.0
 10
54.6105
 20
1.0148
 30
0.0
 10
54.574
 20
1.0906
 30
0.0
 10
54.5503
 20
1.1726
 30
0.0
 10
54.5409
 20
1.256
 30
0.0
  0
SPLINE
  5
127
330
1F
100
AcDbEntity
  8
Ilustrace
 62
   250
370
    30
100
AcDbSpline
210
0.0
220
0.0
230
1.0
 70
     8
 71
     3
 72
    20
 73
    16
 74
     0
 42
0.0000000001
 43
0.0000000001
 40
0.0
 40
0.0
 40
0.0
 40
0.0
 40
0.2
 40
0.2
 40
0.2
 40
0.2
 40
0.4
 40
0.4
 40
0.4
 40
0.4
 40
0.6
 40
0.6
 40
0.6
 40
0.6
 40
1.0
 40
1.0
 40
1.0
 40
1.0
 10
54.5409
 20
1.256
 30
0.0
 10
54.5409
 20
1.256
 30
0.0
 10
54.5362
 20
1.3401
 30
0.0
 10
54.5362
 20
1.3401
 30
0.0
 10
54.5362
 20
1.3401
 30
0.0
 10
54.5362
 20
1.3401
 30
0.0
 10
54.5362
 20
1.8399
 30
0.0
 10
54.5362
 20
1.8399
 30
0.0
 10
54.5362
 20
1.8399
 30
0.0
 10
54.5362
 20
1.8399
 30
0.0
 10
54.5362
 20
3.0893
 30
0.0
 10
54.5362
 20
3.0893
 30
0.0
 10
54.5362
 20
3.0893
 30
0.0
 10
54.5362
 20
3.0893
 30
0.0
 10
54.5362
 20
3.589
 30
0.0
 10
54.5362
 20
3.589
 30
0.0
  0
SPLINE
  5
128
330
1F
100
AcDbEntity
  8
Ilustrace
 62
   250
370
    30
100
AcDbSpline
210
0.0
220
0.0
230
1.0
 70
    24
 71
     3
 72
     8
 73
     4
 74
     0
 42
0.0000000001
 43
0.0000000001
 40
0.0
 40
0.0
 40
0.0
 40
0.0
 40
1.0
 40
1.0
 40
1.0
 40
1.0
 10
71.5291
 20
-1.2838
 30
0.0
 10
71.5291
 20
-1.2838
 30
0.0
 10
71.1543
 20
-1.2838
 30
0.0
 10
71.1543
 20
-1.2838
 30
0.0
  0
SPLINE
  5
129
330
1F
100
AcDbEntity
  8
Ilustrace
 62
   250
370
    30
100
AcDbSpline
210
0.0
220
0.0
230
1.0
 70
    24
 71
     3
 72
     8
 73
     4
 74
     0
 42
0.0000000001
 43
0.0000000001
 40
0.0
 40
0.0
 40
0.0
 40
0.0
 40
1.0
 40
1.0
 40
1.0
 40
1.0
 10
70.7794
 20
-10.0302
 30
0.0
 10
70.7794
 20
-10.0302
 30
0.0
 10
54.2863
 20
-10.0302
 30
0.0
 10
54.2863
 20
-10.0302
 30
0.0
  0
SPLINE
  5
12A
330
1F
100
AcDbEntity
  8
Ilustrace
 62
   250
370
    30
100
AcDbSpline
210
0.0
220
0.0
230
1.0
 70
    24
 71
     3
 72
     8
 73
     4
 74
     0
 42
0.0000000001
 43
0.0000000001
 40
0.0
 40
0.0
 40
0.0
 40
0.0
 40
1.0
 40
1.0
 40
1.0
 40
1.0
 10
53.5367
 20
-1.2838
 30
0.0
 10
53.5367
 20
-1.2838
 30
0.0
 10
53.9115
 20
-1.2838
 30
0.0
 10
53.9115
 20
-1.2838
 30
0.0
  0
SPLINE
  5
12B
330
1F
100
AcDbEntity
  8
Ilustrace
 62
   250
370
    30
100
AcDbSpline
210
0.0
220
0.0
230
1.0
 70
    24
 71
     3
 72
    12
 73
     8
 74
     0
 42
0.0000000001
 43
0.0000000001
 40
0.0
 40
0.0
 40
0.0
 40
0.0
 40
0.3333333333333333
 40
0.3333333333333333
 40
0.3333333333333333
 40
0.3333333333333333
 40
1.0
 40
1.0
 40
1.0
 40
1.0
 10
56.0091
 20
-10.0302
 30
0.0
 10
56.0091
 20
-10.0302
 30
0.0
 10
55.5094
 20
-10.0302
 30
0.0
 10
55.5094
 20
-10.0302
 30
0.0
 10
55.5094
 20
-10.0302
 30
0.0
 10
55.5094
 20
-10.0302
 30
0.0
 10
54.7862
 20
-10.0302
 30
0.0
 10
54.7862
 20
-10.0302
 30
0.0
  0
SPLINE
  5
12C
330
1F
100
AcDbEntity
  8
Ilustrace
 62
   250
370
    30
100
AcDbSpline
210
0.0
220
0.0
230
1.0
 70
     8
 71
     3
 72
    12
 73
     8
 74
     0
 42
0.0000000001
 43
0.0000000001
 40
0.0
 40
0.0
 40
0.0
 40
0.0
 40
0.3333333333333333
 40
0.3333333333333333
 40
0.3333333333333333
 40
0.3333333333333333
 40
1.0
 40
1.0
 40
1.0
 40
1.0
 10
54.7862
 20
-10.0302
 30
0.0
 10
54.6262
 20
-10.0302
 30
0.0
 10
54.3445
 20
-10.0548
 30
0.0
 10
54.146
 20
-10.0168
 30
0.0
 10
54.146
 20
-10.0168
 30
0.0
 10
53.8136
 20
-9.9535
 30
0.0
 10
53.5594
 20
-9.6651
 30
0.0
 10
53.5381
 20
-9.3276
 30
0.0
  0
SPLINE
  5
12D
330
1F
100
AcDbEntity
  8
Ilustrace
 62
   250
370
    30
100
AcDbSpline
210
0.0
220
0.0
230
1.0
 70
     8
 71
     3
 72
    20
 73
    16
 74
     0
 42
0.0000000001
 43
0.0000000001
 40
0.0
 40
0.0
 40
0.0
 40
0.0
 40
0.2
 40
0.2
 40
0.2
 40
0.2
 40
0.4
 40
0.4
 40
0.4
 40
0.4
 40
0.6
 40
0.6
 40
0.6
 40
0.6
 40
1.0
 40
1.0
 40
1.0
 40
1.0
 10
53.5381
 20
-9.3276
 30
0.0
 10
53.5381
 20
-9.3276
 30
0.0
 10
53.5367
 20
-9.2806
 30
0.0
 10
53.5367
 20
-9.2806
 30
0.0
 10
53.5367
 20
-9.2806
 30
0.0
 10
53.5367
 20
-9.2806
 30
0.0
 10
53.5367
 20
-8.7807
 30
0.0
 10
53.5367
 20
-8.7807
 30
0.0
 10
53.5367
 20
-8.7807
 30
0.0
 10
53.5367
 20
-8.7807
 30
0.0
 10
53.5367
 20
-1.7837
 30
0.0
 10
53.5367
 20
-1.7837
 30
0.0
 10
53.5367
 20
-1.7837
 30
0.0
 10
53.5367
 20
-1.7837
 30
0.0
 10
53.5367
 20
-1.2838
 30
0.0
 10
53.5367
 20
-1.2838
 30
0.0
  0
SPLINE
  5
12E
330
1F
100
AcDbEntity
  8
Ilustrace
 62
   250
370
    30
100
AcDbSpline
210
0.0
220
0.0
230
1.0
 70
    24
 71
     3
 72
    12
 73
     8
 74
     0
 42
0.0000000001
 43
0.0000000001
 40
0.0
 40
0.0
 40
0.0
 40
0.0
 40
0.3333333333333333
 40
0.3333333333333333
 40
0.3333333333333333
 40
0.3333333333333333
 40
1.0
 40
1.0
 40
1.0
 40
1.0
 10
53.9115
 20
-1.2838
 30
0.0
 10
53.9115
 20
-1.2838
 30
0.0
 10
53.9115
 20
-1.7837
 30
0.0
 10
53.9115
 20
-1.7837
 30
0.0
 10
53.9115
 20
-1.7837
 30
0.0
 10
53.9115
 20
-1.7837
 30
0.0
 10
53.9115
 20
-8.7807
 30
0.0
 10
53.9115
 20
-8.7807
 30
0.0
  0
SPLINE
  5
12F
330
1F
100
AcDbEntity
  8
Ilustrace
 62
   250
370
    30
100
AcDbSpline
210
0.0
220
0.0
230
1.0
 70
     8
 71
     3
 72
    12
 73
     8
 74
     0
 42
0.0000000001
 43
0.0000000001
 40
0.0
 40
0.0
 40
0.0
 40
0.0
 40
0.3333333333333333
 40
0.3333333333333333
 40
0.3333333333333333
 40
0.3333333333333333
 40
1.0
 40
1.0
 40
1.0
 40
1.0
 10
53.9115
 20
-8.7807
 30
0.0
 10
53.9115
 20
-8.942
 30
0.0
 10
53.8486
 20
-9.3038
 30
0.0
 10
53.9766
 20
-9.4917
 30
0.0
 10
53.9766
 20
-9.4917
 30
0.0
 10
54.1487
 20
-9.7439
 30
0.0
 10
54.5477
 20
-9.6553
 30
0.0
 10
54.7862
 20
-9.6553
 30
0.0
  0
SPLINE
  5
130
330
1F
100
AcDbEntity
  8
Ilustrace
 62
   250
370
    30
100
AcDbSpline
210
0.0
220
0.0
230
1.0
 70
    24
 71
     3
 72
     8
 73
     4
 74
     0
 42
0.0000000001
 43
0.0000000001
 40
0.0
 40
0.0
 40
0.0
 40
0.0
 40
1.0
 40
1.0
 40
1.0
 40
1.0
 10
54.7862
 20
-9.6553
 30
0.0
 10
54.7862
 20
-9.6553
 30
0.0
 10
70.2797
 20
-9.6553
 30
0.0
 10
70.2797
 20
-9.6553
 30
0.0
  0
SPLINE
  5
131
330
1F
100
AcDbEntity
  8
Ilustrace
 62
   250
370
    30
100
AcDbSpline
210
0.0
220
0.0
230
1.0
 70
     8
 71
     3
 72
    12
 73
     8
 74
     0
 42
0.0000000001
 43
0.0000000001
 40
0.0
 40
0.0
 40
0.0
 40
0.0
 40
0.3333333333333333
 40
0.3333333333333333
 40
0.3333333333333333
 40
0.3333333333333333
 40
1.0
 40
1.0
 40
1.0
 40
1.0
 10
70.2797
 20
-9.6553
 30
0.0
 10
70.5459
 20
-9.6553
 30
0.0
 10
70.997
 20
-9.7521
 30
0.0
 10
71.1285
 20
-9.4175
 30
0.0
 10
71.1285
 20
-9.4175
 30
0.0
 10
71.1455
 20
-9.3739
 30
0.0
 10
71.1543
 20
-9.3273
 30
0.0
 10
71.1543
 20
-9.2806
 30
0.0
  0
SPLINE
  5
132
330
1F
100
AcDbEntity
  8
Ilustrace
 62
   250
370
    30
100
AcDbSpline
210
0.0
220
0.0
230
1.0
 70
    24
 71
     3
 72
    16
 73
    12
 74
     0
 42
0.0000000001
 43
0.0000000001
 40
0.0
 40
0.0
 40
0.0
 40
0.0
 40
0.25
 40
0.25
 40
0.25
 40
0.25
 40
0.5
 40
0.5
 40
0.5
 40
0.5
 40
1.0
 40
1.0
 40
1.0
 40
1.0
 10
71.1543
 20
-9.2806
 30
0.0
 10
71.1543
 20
-9.2806
 30
0.0
 10
71.1543
 20
-8.7807
 30
0.0
 10
71.1543
 20
-8.7807
 30
0.0
 10
71.1543
 20
-8.7807
 30
0.0
 10
71.1543
 20
-8.7807
 30
0.0
 10
71.1543
 20
-1.7837
 30
0.0
 10
71.1543
 20
-1.7837
 30
0.0
 10
71.1543
 20
-1.7837
 30
0.0
 10
71.1543
 20
-1.7837
 30
0.0
 10
71.1543
 20
-1.2838
 30
0.0
 10
71.1543
 20
-1.2838
 30
0.0
  0
SPLINE
  5
133
330
1F
100
AcDbEntity
  8
Ilustrace
 62
   250
370
    30
100
AcDbSpline
210
0.0
220
0.0
230
1.0
 70
    24
 71
     3
 72
    12
 73
     8
 74
     0
 42
0.0000000001
 43
0.0000000001
 40
0.0
 40
0.0
 40
0.0
 40
0.0
 40
0.3333333333333333
 40
0.3333333333333333
 40
0.3333333333333333
 40
0.3333333333333333
 40
1.0
 40
1.0
 40
1.0
 40
1.0
 10
71.5291
 20
-1.2838
 30
0.0
 10
71.5291
 20
-1.2838
 30
0.0
 10
71.5291
 20
-1.7837
 30
0.0
 10
71.5291
 20
-1.7837
 30
0.0
 10
71.5291
 20
-1.7837
 30
0.0
 10
71.5291
 20
-1.7837
 30
0.0
 10
71.5291
 20
-8.7807
 30
0.0
 10
71.5291
 20
-8.7807
 30
0.0
  0
SPLINE
  5
134
330
1F
100
AcDbEntity
  8
Ilustrace
 62
   250
370
    30
100
AcDbSpline
210
0.0
220
0.0
230
1.0
 70
     8
 71
     3
 72
    12
 73
     8
 74
     0
 42
0.0000000001
 43
0.0000000001
 40
0.0
 40
0.0
 40
0.0
 40
0.0
 40
0.3333333333333333
 40
0.3333333333333333
 40
0.3333333333333333
 40
0.3333333333333333
 40
1.0
 40
1.0
 40
1.0
 40
1.0
 10
71.5291
 20
-8.7807
 30
0.0
 10
71.5291
 20
-8.9404
 30
0.0
 10
71.5537
 20
-9.2225
 30
0.0
 10
71.5158
 20
-9.421
 30
0.0
 10
71.5158
 20
-9.421
 30
0.0
 10
71.4477
 20
-9.7783
 30
0.0
 10
71.1359
 20
-10.019
 30
0.0
 10
70.7794
 20
-10.0302
 30
0.0
  0
SPLINE
  5
135
330
1F
100
AcDbEntity
  8
Ilustrace
 62
   250
370
    30
100
AcDbSpline
210
0.0
220
0.0
230
1.0
 70
    24
 71
     3
 72
     8
 73
     4
 74
     0
 42
0.0000000001
 43
0.0000000001
 40
0.0
 40
0.0
 40
0.0
 40
0.0
 40
1.0
 40
1.0
 40
1.0
 40
1.0
 10
70.7794
 20
-10.0302
 30
0.0
 10
70.7794
 20
-10.0302
 30
0.0
 10
69.0567
 20
-10.0302
 30
0.0
 10
69.0567
 20
-10.0302
 30
0.0
  0
SPLINE
  5
136
330
1F
100
AcDbEntity
  8
Ilustrace
 62
   250
370
    15
100
AcDbSpline
210
0.0
220
0.0
230
1.0
 70
    24
 71
     3
 72
     8
 73
     4
 74
     0
 42
0.0000000001
 43
0.0000000001
 40
0.0
 40
0.0
 40
0.0
 40
0.0
 40
1.0
 40
1.0
 40
1.0
 40
1.0
 10
76.1452
 20
8.2266
 30
0.0
 10
76.1452
 20
8.2266
 30
0.0
 10
76.1452
 20
12.1178
 30
0.0
 10
76.1452
 20
12.1178
 30
0.0
  0
SPLINE
  5
137
330
1F
100
AcDbEntity
  8
Ilustrace
 62
   250
370
    15
100
AcDbSpline
210
0.0
220
0.0
230
1.0
 70
    24
 71
     3
 72
     8
 73
     4
 74
     0
 42
0.0000000001
 43
0.0000000001
 40
0.0
 40
0.0
 40
0.0
 40
0.0
 40
1.0
 40
1.0
 40
1.0
 40
1.0
 10
48.9181
 20
8.2517
 30
0.0
 10
48.9181
 20
8.2517
 30
0.0
 10
48.9181
 20
12.1288
 30
0.0
 10
48.9181
 20
12.1288
 30
0.0
  0
SPLINE
  5
138
330
1F
100
AcDbEntity
  8
Ilustrace
 62
   250
370
    15
100
AcDbSpline
210
0.0
220
0.0
230
1.0
 70
    24
 71
     3
 72
     8
 73
     4
 74
     0
 42
0.0000000001
 43
0.0000000001
 40
0.0
 40
0.0
 40
0.0
 40
0.0
 40
1.0
 40
1.0
 40
1.0
 40
1.0
 10
83.7006
 20
-10.1599
 30
0.0
 10
83.7006
 20
-10.1599
 30
0.0
 10
71.318
 20
-10.1599
 30
0.0
 10
71.318
 20
-10.1599
 30
0.0
  0
TEXT
  5
15C
330
1F
100
AcDbEntity
  8
Ilustrace
 62
   250
100
AcDbText
 10
60.15790000000001
 20
12.0786
 30
0.0
 40
1.557792
  1
109
 41
1.434739898767371
 51
-0.0000015352345087
  7
0
100
AcDbText
  0
SPLINE
  5
15D
330
1F
100
AcDbEntity
  8
Ilustrace
 62
   250
370
    15
100
AcDbSpline
210
0.0
220
0.0
230
1.0
 70
    24
 71
     3
 72
     8
 73
     4
 74
     0
 42
0.0000000001
 43
0.0000000001
 40
0.0
 40
0.0
 40
0.0
 40
0.0
 40
1.0
 40
1.0
 40
1.0
 40
1.0
 10
75.3003
 20
11.6662
 30
0.0
 10
75.3003
 20
11.6662
 30
0.0
 10
50.1201
 20
11.6662
 30
0.0
 10
50.1201
 20
11.6662
 30
0.0
  0
SPLINE
  5
15E
330
1F
100
AcDbEntity
  8
Ilustrace
 62
   250
370
    15
100
AcDbSpline
210
0.0
220
0.0
230
1.0
 70
    24
 71
     3
 72
     8
 73
     4
 74
     0
 42
0.0000000001
 43
0.0000000001
 40
0.0
 40
0.0
 40
0.0
 40
0.0
 40
1.0
 40
1.0
 40
1.0
 40
1.0
 10
83.3494
 20
7.2946
 30
0.0
 10
83.3494
 20
7.2946
 30
0.0
 10
83.3494
 20
-9.4703
 30
0.0
 10
83.3494
 20
-9.4703
 30
0.0
  0
SPLINE
  5
15F
330
1F
100
AcDbEntity
  8
Ilustrace
 62
   250
370
     9
100
AcDbSpline
210
0.0
220
0.0
230
1.0
 70
    11
 71
     3
 72
    32
 73
    28
 74
     0
 42
0.0000000001
 43
0.0000000001
 40
0.0
 40
0.0
 40
0.0
 40
0.0
 40
0.125
 40
0.125
 40
0.125
 40
0.125
 40
0.25
 40
0.25
 40
0.25
 40
0.25
 40
0.375
 40
0.375
 40
0.375
 40
0.375
 40
0.5
 40
0.5
 40
0.5
 40
0.5
 40
0.625
 40
0.625
 40
0.625
 40
0.625
 40
0.75
 40
0.75
 40
0.75
 40
0.75
 40
1.0
 40
1.0
 40
1.0
 40
1.0
 10
74.7101
 20
11.2304
 30
0.0
 10
74.7101
 20
11.2304
 30
0.0
 10
74.7101
 20
11.2304
 30
0.0
 10
74.7101
 20
11.2304
 30
0.0
 10
74.7101
 20
11.2304
 30
0.0
 10
74.7101
 20
11.2304
 30
0.0
 10
74.7101
 20
11.2304
 30
0.0
 10
74.7101
 20
11.2304
 30
0.0
 10
74.7101
 20
11.2304
 30
0.0
 10
74.7101
 20
11.2304
 30
0.0
 10
75.9829
 20
11.6738
 30
0.0
 10
75.9829
 20
11.6738
 30
0.0
 10
75.9829
 20
11.6738
 30
0.0
 10
75.9829
 20
11.6738
 30
0.0
 10
74.7101
 20
12.1172
 30
0.0
 10
74.7101
 20
12.1172
 30
0.0
 10
74.7101
 20
12.1172
 30
0.0
 10
74.7101
 20
12.1172
 30
0.0
 10
74.7101
 20
12.1172
 30
0.0
 10
74.7101
 20
12.1172
 30
0.0
 10
74.7101
 20
12.1172
 30
0.0
 10
74.7101
 20
12.1172
 30
0.0
 10
74.7101
 20
12.1172
 30
0.0
 10
74.7101
 20
12.1172
 30
0.0
 10
74.7101
 20
12.1172
 30
0.0
 10
74.7101
 20
12.1172
 30
0.0
 10
74.7101
 20
11.2304
 30
0.0
 10
74.7101
 20
11.2304
 30
0.0
  0
SPLINE
  5
160
330
1F
100
AcDbEntity
  8
Ilustrace
 62
   250
370
     9
100
AcDbSpline
210
0.0
220
0.0
230
1.0
 70
    11
 71
     3
 72
    32
 73
    28
 74
     0
 42
0.0000000001
 43
0.0000000001
 40
0.0
 40
0.0
 40
0.0
 40
0.0
 40
0.125
 40
0.125
 40
0.125
 40
0.125
 40
0.25
 40
0.25
 40
0.25
 40
0.25
 40
0.375
 40
0.375
 40
0.375
 40
0.375
 40
0.5
 40
0.5
 40
0.5
 40
0.5
 40
0.625
 40
0.625
 40
0.625
 40
0.625
 40
0.75
 40
0.75
 40
0.75
 40
0.75
 40
1.0
 40
1.0
 40
1.0
 40
1.0
 10
83.7994
 20
6.6179
 30
0.0
 10
83.7994
 20
6.6179
 30
0.0
 10
83.7994
 20
6.6179
 30
0.0
 10
83.7994
 20
6.6179
 30
0.0
 10
83.7994
 20
6.6179
 30
0.0
 10
83.7994
 20
6.6179
 30
0.0
 10
83.7994
 20
6.6179
 30
0.0
 10
83.7994
 20
6.6179
 30
0.0
 10
83.7994
 20
6.6179
 30
0.0
 10
83.7994
 20
6.6179
 30
0.0
 10
83.356
 20
7.8907
 30
0.0
 10
83.356
 20
7.8907
 30
0.0
 10
83.356
 20
7.8907
 30
0.0
 10
83.356
 20
7.8907
 30
0.0
 10
82.9126
 20
6.6179
 30
0.0
 10
82.9126
 20
6.6179
 30
0.0
 10
82.9126
 20
6.6179
 30
0.0
 10
82.9126
 20
6.6179
 30
0.0
 10
82.9126
 20
6.6179
 30
0.0
 10
82.9126
 20
6.6179
 30
0.0
 10
82.9126
 20
6.6179
 30
0.0
 10
82.9126
 20
6.6179
 30
0.0
 10
82.9126
 20
6.6179
 30
0.0
 10
82.9126
 20
6.6179
 30
0.0
 10
82.9126
 20
6.6179
 30
0.0
 10
82.9126
 20
6.6179
 30
0.0
 10
83.7994
 20
6.6179
 30
0.0
 10
83.7994
 20
6.6179
 30
0.0
  0
SPLINE
  5
161
330
1F
100
AcDbEntity
  8
Ilustrace
 62
   250
370
     9
100
AcDbSpline
210
0.0
220
0.0
230
1.0
 70
    11
 71
     3
 72
    32
 73
    28
 74
     0
 42
0.0000000001
 43
0.0000000001
 40
0.0
 40
0.0
 40
0.0
 40
0.0
 40
0.125
 40
0.125
 40
0.125
 40
0.125
 40
0.25
 40
0.25
 40
0.25
 40
0.25
 40
0.375
 40
0.375
 40
0.375
 40
0.375
 40
0.5
 40
0.5
 40
0.5
 40
0.5
 40
0.625
 40
0.625
 40
0.625
 40
0.625
 40
0.75
 40
0.75
 40
0.75
 40
0.75
 40
1.0
 40
1.0
 40
1.0
 40
1.0
 10
50.2287
 20
11.2297
 30
0.0
 10
50.2287
 20
11.2297
 30
0.0
 10
50.2287
 20
11.2297
 30
0.0
 10
50.2287
 20
11.2297
 30
0.0
 10
50.2287
 20
11.2297
 30
0.0
 10
50.2287
 20
11.2297
 30
0.0
 10
50.2287
 20
11.2297
 30
0.0
 10
50.2287
 20
11.2297
 30
0.0
 10
50.2287
 20
11.2297
 30
0.0
 10
50.2287
 20
11.2297
 30
0.0
 10
48.9559
 20
11.6731
 30
0.0
 10
48.9559
 20
11.6731
 30
0.0
 10
48.9559
 20
11.6731
 30
0.0
 10
48.9559
 20
11.6731
 30
0.0
 10
50.2287
 20
12.1165
 30
0.0
 10
50.2287
 20
12.1165
 30
0.0
 10
50.2287
 20
12.1165
 30
0.0
 10
50.2287
 20
12.1165
 30
0.0
 10
50.2287
 20
12.1165
 30
0.0
 10
50.2287
 20
12.1165
 30
0.0
 10
50.2287
 20
12.1165
 30
0.0
 10
50.2287
 20
12.1165
 30
0.0
 10
50.2287
 20
12.1165
 30
0.0
 10
50.2287
 20
12.1165
 30
0.0
 10
50.2287
 20
12.1165
 30
0.0
 10
50.2287
 20
12.1165
 30
0.0
 10
50.2287
 20
11.2297
 30
0.0
 10
50.2287
 20
11.2297
 30
0.0
  0
SPLINE
  5
162
330
1F
100
AcDbEntity
  8
Ilustrace
 62
   250
370
     9
100
AcDbSpline
210
0.0
220
0.0
230
1.0
 70
    11
 71
     3
 72
    32
 73
    28
 74
     0
 42
0.0000000001
 43
0.0000000001
 40
0.0
 40
0.0
 40
0.0
 40
0.0
 40
0.125
 40
0.125
 40
0.125
 40
0.125
 40
0.25
 40
0.25
 40
0.25
 40
0.25
 40
0.375
 40
0.375
 40
0.375
 40
0.375
 40
0.5
 40
0.5
 40
0.5
 40
0.5
 40
0.625
 40
0.625
 40
0.625
 40
0.625
 40
0.75
 40
0.75
 40
0.75
 40
0.75
 40
1.0
 40
1.0
 40
1.0
 40
1.0
 10
83.7986
 20
-8.7955
 30
0.0
 10
83.7986
 20
-8.7955
 30
0.0
 10
83.7986
 20
-8.7955
 30
0.0
 10
83.7986
 20
-8.7955
 30
0.0
 10
83.7986
 20
-8.7955
 30
0.0
 10
83.7986
 20
-8.7955
 30
0.0
 10
83.7986
 20
-8.7955
 30
0.0
 10
83.7986
 20
-8.7955
 30
0.0
 10
83.7986
 20
-8.7955
 30
0.0
 10
83.7986
 20
-8.7955
 30
0.0
 10
83.3552
 20
-10.0683
 30
0.0
 10
83.3552
 20
-10.0683
 30
0.0
 10
83.3552
 20
-10.0683
 30
0.0
 10
83.3552
 20
-10.0683
 30
0.0
 10
82.9118
 20
-8.7955
 30
0.0
 10
82.9118
 20
-8.7955
 30
0.0
 10
82.9118
 20
-8.7955
 30
0.0
 10
82.9118
 20
-8.7955
 30
0.0
 10
82.9118
 20
-8.7955
 30
0.0
 10
82.9118
 20
-8.7955
 30
0.0
 10
82.9118
 20
-8.7955
 30
0.0
 10
82.9118
 20
-8.7955
 30
0.0
 10
82.9118
 20
-8.7955
 30
0.0
 10
82.9118
 20
-8.7955
 30
0.0
 10
82.9118
 20
-8.7955
 30
0.0
 10
82.9118
 20
-8.7955
 30
0.0
 10
83.7986
 20
-8.7955
 30
0.0
 10
83.7986
 20
-8.7955
 30
0.0
  0
TEXT
  5
164
330
1F
100
AcDbEntity
  8
Ilustrace
 62
   250
100
AcDbText
 10
79.02830000000009
 20
3.855799999999919
 30
0.0
 40
1.557792
  1
19
 50
90.00000000000574
 51
-0.0000015352333383
  7
1
100
AcDbText
  0
SPLINE
  5
165
330
1F
100
AcDbEntity
  8
Ilustrace
 62
   250
370
    15
100
AcDbSpline
210
0.0
220
0.0
230
1.0
 70
    24
 71
     3
 72
     8
 73
     4
 74
     0
 42
0.0000000001
 43
0.0000000001
 40
0.0
 40
0.0
 40
0.0
 40
0.0
 40
1.0
 40
1.0
 40
1.0
 40
1.0
 10
79.3025
 20
9.5325
 30
0.0
 10
79.3025
 20
9.5325
 30
0.0
 10
79.3025
 20
1.3304
 30
0.0
 10
79.3025
 20
1.3304
 30
0.0
  0
SPLINE
  5
166
330
1F
100
AcDbEntity
  8
Ilustrace
 62
   250
370
     9
100
AcDbSpline
210
0.0
220
0.0
230
1.0
 70
    11
 71
     3
 72
    32
 73
    28
 74
     0
 42
0.0000000001
 43
0.0000000001
 40
0.0
 40
0.0
 40
0.0
 40
0.0
 40
0.125
 40
0.125
 40
0.125
 40
0.125
 40
0.25
 40
0.25
 40
0.25
 40
0.25
 40
0.375
 40
0.375
 40
0.375
 40
0.375
 40
0.5
 40
0.5
 40
0.5
 40
0.5
 40
0.625
 40
0.625
 40
0.625
 40
0.625
 40
0.75
 40
0.75
 40
0.75
 40
0.75
 40
1.0
 40
1.0
 40
1.0
 40
1.0
 10
79.7278
 20
2.0187
 30
0.0
 10
79.7278
 20
2.0187
 30
0.0
 10
79.7278
 20
2.0187
 30
0.0
 10
79.7278
 20
2.0187
 30
0.0
 10
79.7278
 20
2.0187
 30
0.0
 10
79.7278
 20
2.0187
 30
0.0
 10
79.7278
 20
2.0187
 30
0.0
 10
79.7278
 20
2.0187
 30
0.0
 10
79.7278
 20
2.0187
 30
0.0
 10
79.7278
 20
2.0187
 30
0.0
 10
79.2844
 20
3.2915
 30
0.0
 10
79.2844
 20
3.2915
 30
0.0
 10
79.2844
 20
3.2915
 30
0.0
 10
79.2844
 20
3.2915
 30
0.0
 10
78.841
 20
2.0187
 30
0.0
 10
78.841
 20
2.0187
 30
0.0
 10
78.841
 20
2.0187
 30
0.0
 10
78.841
 20
2.0187
 30
0.0
 10
78.841
 20
2.0187
 30
0.0
 10
78.841
 20
2.0187
 30
0.0
 10
78.841
 20
2.0187
 30
0.0
 10
78.841
 20
2.0187
 30
0.0
 10
78.841
 20
2.0187
 30
0.0
 10
78.841
 20
2.0187
 30
0.0
 10
78.841
 20
2.0187
 30
0.0
 10
78.841
 20
2.0187
 30
0.0
 10
79.7278
 20
2.0187
 30
0.0
 10
79.7278
 20
2.0187
 30
0.0
  0
SPLINE
  5
167
330
1F
100
AcDbEntity
  8
Ilustrace
 62
   250
370
     9
100
AcDbSpline
210
0.0
220
0.0
230
1.0
 70
    11
 71
     3
 72
    32
 73
    28
 74
     0
 42
0.0000000001
 43
0.0000000001
 40
0.0
 40
0.0
 40
0.0
 40
0.0
 40
0.125
 40
0.125
 40
0.125
 40
0.125
 40
0.25
 40
0.25
 40
0.25
 40
0.25
 40
0.375
 40
0.375
 40
0.375
 40
0.375
 40
0.5
 40
0.5
 40
0.5
 40
0.5
 40
0.625
 40
0.625
 40
0.625
 40
0.625
 40
0.75
 40
0.75
 40
0.75
 40
0.75
 40
1.0
 40
1.0
 40
1.0
 40
1.0
 10
79.7449
 20
9.0954
 30
0.0
 10
79.7449
 20
9.0954
 30
0.0
 10
79.7449
 20
9.0954
 30
0.0
 10
79.7449
 20
9.0954
 30
0.0
 10
79.7449
 20
9.0954
 30
0.0
 10
79.7449
 20
9.0954
 30
0.0
 10
79.7449
 20
9.0954
 30
0.0
 10
79.7449
 20
9.0954
 30
0.0
 10
79.7449
 20
9.0954
 30
0.0
 10
79.7449
 20
9.0954
 30
0.0
 10
79.3015
 20
7.8226
 30
0.0
 10
79.3015
 20
7.8226
 30
0.0
 10
79.3015
 20
7.8226
 30
0.0
 10
79.3015
 20
7.8226
 30
0.0
 10
78.8581
 20
9.0954
 30
0.0
 10
78.8581
 20
9.0954
 30
0.0
 10
78.8581
 20
9.0954
 30
0.0
 10
78.8581
 20
9.0954
 30
0.0
 10
78.8581
 20
9.0954
 30
0.0
 10
78.8581
 20
9.0954
 30
0.0
 10
78.8581
 20
9.0954
 30
0.0
 10
78.8581
 20
9.0954
 30
0.0
 10
78.8581
 20
9.0954
 30
0.0
 10
78.8581
 20
9.0954
 30
0.0
 10
78.8581
 20
9.0954
 30
0.0
 10
78.8581
 20
9.0954
 30
0.0
 10
79.7449
 20
9.0954
 30
0.0
 10
79.7449
 20
9.0954
 30
0.0
  0
SPLINE
  5
168
330
1F
100
AcDbEntity
  8
Ilustrace
 62
   250
370
    15
100
AcDbSpline
210
0.0
220
0.0
230
1.0
 70
    24
 71
     3
 72
     8
 73
     4
 74
     0
 42
0.0000000001
 43
0.0000000001
 40
0.0
 40
0.0
 40
0.0
 40
0.0
 40
1.0
 40
1.0
 40
1.0
 40
1.0
 10
74.5478
 20
3.3432
 30
0.0
 10
74.5478
 20
3.3432
 30
0.0
 10
79.7072
 20
3.3432
 30
0.0
 10
79.7072
 20
3.3432
 30
0.0
  0
SPLINE
  5
169
330
1F
100
AcDbEntity
  8
Ilustrace
 62
   250
370
    15
100
AcDbSpline
210
0.0
220
0.0
230
1.0
 70
    24
 71
     3
 72
     8
 73
     4
 74
     0
 42
0.0000000001
 43
0.0000000001
 40
0.0
 40
0.0
 40
0.0
 40
0.0
 40
1.0
 40
1.0
 40
1.0
 40
1.0
 10
76.2236
 20
8.0009
 30
0.0
 10
76.2236
 20
8.0009
 30
0.0
 10
83.7833
 20
8.0009
 30
0.0
 10
83.7833
 20
8.0009
 30
0.0
  0
TEXT
  5
16A
330
1F
100
AcDbEntity
  8
Ilustrace
 62
   250
100
AcDbText
 10
83.0243999999999
 20
-6.080500000000024
 30
0.0
 40
1.91844
  1
60–80
 50
89.9999999999981
 51
-0.000001535234865
  7
0
100
AcDbText
  0
SPLINE
  5
16B
330
1F
100
AcDbEntity
  8
Ilustrace
  6
New Line1
 62
   250
370
    15
100
AcDbSpline
210
0.0
220
0.0
230
1.0
 70
    24
 71
     3
 72
     8
 73
     4
 74
     0
 42
0.0000000001
 43
0.0000000001
 40
0.0
 40
0.0
 40
0.0
 40
0.0
 40
1.0
 40
1.0
 40
1.0
 40
1.0
 10
73.0529
 20
-3.316
 30
0.0
 10
73.0529
 20
-3.316
 30
0.0
 10
51.7741
 20
-3.316
 30
0.0
 10
51.7741
 20
-3.316
 30
0.0
  0
SPLINE
  5
16D
330
1F
100
AcDbEntity
  8
Ilustrace
 62
   250
370
    15
100
AcDbSpline
210
0.0
220
0.0
230
1.0
 70
    24
 71
     3
 72
     8
 73
     4
 74
     0
 42
0.0000000001
 43
0.0000000001
 40
0.0
 40
0.0
 40
0.0
 40
0.0
 40
1.0
 40
1.0
 40
1.0
 40
1.0
 10
44.2142
 20
8.3086
 30
0.0
 10
44.2142
 20
8.3086
 30
0.0
 10
44.2142
 20
12.1763
 30
0.0
 10
44.2142
 20
12.1763
 30
0.0
  0
SPLINE
  5
16E
330
1F
100
AcDbEntity
  8
Ilustrace
 62
   250
370
    15
100
AcDbSpline
210
0.0
220
0.0
230
1.0
 70
    24
 71
     3
 72
     8
 73
     4
 74
     0
 42
0.0000000001
 43
0.0000000001
 40
0.0
 40
0.0
 40
0.0
 40
0.0
 40
1.0
 40
1.0
 40
1.0
 40
1.0
 10
-83.6255
 20
8.3351
 30
0.0
 10
-83.6255
 20
8.3351
 30
0.0
 10
-83.6255
 20
12.0683
 30
0.0
 10
-83.6255
 20
12.0683
 30
0.0
  0
TEXT
  5
16F
330
1F
100
AcDbEntity
  8
Ilustrace
 62
   250
100
AcDbText
 10
-26.756
 20
12.2882
 30
0.0
 40
1.557792
  1
1000
 41
1.434739898767371
 51
-0.0000015352345087
  7
0
100
AcDbText
  0
SPLINE
  5
170
330
1F
100
AcDbEntity
  8
Ilustrace
 62
   250
370
    15
100
AcDbSpline
210
0.0
220
0.0
230
1.0
 70
    24
 71
     3
 72
     8
 73
     4
 74
     0
 42
0.0000000001
 43
0.0000000001
 40
0.0
 40
0.0
 40
0.0
 40
0.0
 40
1.0
 40
1.0
 40
1.0
 40
1.0
 10
43.4676
 20
11.7543
 30
0.0
 10
43.4676
 20
11.7543
 30
0.0
 10
-83.0037
 20
11.7543
 30
0.0
 10
-83.0037
 20
11.7543
 30
0.0
  0
SPLINE
  5
171
330
1F
100
AcDbEntity
  8
Ilustrace
 62
   250
370
     9
100
AcDbSpline
210
0.0
220
0.0
230
1.0
 70
    11
 71
     3
 72
    32
 73
    28
 74
     0
 42
0.0000000001
 43
0.0000000001
 40
0.0
 40
0.0
 40
0.0
 40
0.0
 40
0.125
 40
0.125
 40
0.125
 40
0.125
 40
0.25
 40
0.25
 40
0.25
 40
0.25
 40
0.375
 40
0.375
 40
0.375
 40
0.375
 40
0.5
 40
0.5
 40
0.5
 40
0.5
 40
0.625
 40
0.625
 40
0.625
 40
0.625
 40
0.75
 40
0.75
 40
0.75
 40
0.75
 40
1.0
 40
1.0
 40
1.0
 40
1.0
 10
42.8769
 20
11.2956
 30
0.0
 10
42.8769
 20
11.2956
 30
0.0
 10
42.8769
 20
11.2956
 30
0.0
 10
42.8769
 20
11.2956
 30
0.0
 10
42.8769
 20
11.2956
 30
0.0
 10
42.8769
 20
11.2956
 30
0.0
 10
42.8769
 20
11.2956
 30
0.0
 10
42.8769
 20
11.2956
 30
0.0
 10
42.8769
 20
11.2956
 30
0.0
 10
42.8769
 20
11.2956
 30
0.0
 10
44.1497
 20
11.739
 30
0.0
 10
44.1497
 20
11.739
 30
0.0
 10
44.1497
 20
11.739
 30
0.0
 10
44.1497
 20
11.739
 30
0.0
 10
42.8769
 20
12.1824
 30
0.0
 10
42.8769
 20
12.1824
 30
0.0
 10
42.8769
 20
12.1824
 30
0.0
 10
42.8769
 20
12.1824
 30
0.0
 10
42.8769
 20
12.1824
 30
0.0
 10
42.8769
 20
12.1824
 30
0.0
 10
42.8769
 20
12.1824
 30
0.0
 10
42.8769
 20
12.1824
 30
0.0
 10
42.8769
 20
12.1824
 30
0.0
 10
42.8769
 20
12.1824
 30
0.0
 10
42.8769
 20
12.1824
 30
0.0
 10
42.8769
 20
12.1824
 30
0.0
 10
42.8769
 20
11.2956
 30
0.0
 10
42.8769
 20
11.2956
 30
0.0
  0
SPLINE
  5
172
330
1F
100
AcDbEntity
  8
Ilustrace
 62
   250
370
     9
100
AcDbSpline
210
0.0
220
0.0
230
1.0
 70
    11
 71
     3
 72
    32
 73
    28
 74
     0
 42
0.0000000001
 43
0.0000000001
 40
0.0
 40
0.0
 40
0.0
 40
0.0
 40
0.125
 40
0.125
 40
0.125
 40
0.125
 40
0.25
 40
0.25
 40
0.25
 40
0.25
 40
0.375
 40
0.375
 40
0.375
 40
0.375
 40
0.5
 40
0.5
 40
0.5
 40
0.5
 40
0.625
 40
0.625
 40
0.625
 40
0.625
 40
0.75
 40
0.75
 40
0.75
 40
0.75
 40
1.0
 40
1.0
 40
1.0
 40
1.0
 10
-82.3157
 20
11.2723
 30
0.0
 10
-82.3157
 20
11.2723
 30
0.0
 10
-82.3157
 20
11.2723
 30
0.0
 10
-82.3157
 20
11.2723
 30
0.0
 10
-82.3157
 20
11.2723
 30
0.0
 10
-82.3157
 20
11.2723
 30
0.0
 10
-82.3157
 20
11.2723
 30
0.0
 10
-82.3157
 20
11.2723
 30
0.0
 10
-82.3157
 20
11.2723
 30
0.0
 10
-82.3157
 20
11.2723
 30
0.0
 10
-83.5885
 20
11.7157
 30
0.0
 10
-83.5885
 20
11.7157
 30
0.0
 10
-83.5885
 20
11.7157
 30
0.0
 10
-83.5885
 20
11.7157
 30
0.0
 10
-82.3157
 20
12.1591
 30
0.0
 10
-82.3157
 20
12.1591
 30
0.0
 10
-82.3157
 20
12.1591
 30
0.0
 10
-82.3157
 20
12.1591
 30
0.0
 10
-82.3157
 20
12.1591
 30
0.0
 10
-82.3157
 20
12.1591
 30
0.0
 10
-82.3157
 20
12.1591
 30
0.0
 10
-82.3157
 20
12.1591
 30
0.0
 10
-82.3157
 20
12.1591
 30
0.0
 10
-82.3157
 20
12.1591
 30
0.0
 10
-82.3157
 20
12.1591
 30
0.0
 10
-82.3157
 20
12.1591
 30
0.0
 10
-82.3157
 20
11.2723
 30
0.0
 10
-82.3157
 20
11.2723
 30
0.0
  0
SPLINE
  5
173
330
1F
100
AcDbEntity
  8
Ilustrace
 62
   250
370
    15
100
AcDbSpline
210
0.0
220
0.0
230
1.0
 70
    24
 71
     3
 72
     8
 73
     4
 74
     0
 42
0.0000000001
 43
0.0000000001
 40
0.0
 40
0.0
 40
0.0
 40
0.0
 40
1.0
 40
1.0
 40
1.0
 40
1.0
 10
55.6481
 20
-3.7007
 30
0.0
 10
55.6481
 20
-3.7007
 30
0.0
 10
55.739
 20
-2.8739
 30
0.0
 10
55.739
 20
-2.8739
 30
0.0
  0
SPLINE
  5
174
330
1F
100
AcDbEntity
  8
Ilustrace
 62
   250
370
    15
100
AcDbSpline
210
0.0
220
0.0
230
1.0
 70
    24
 71
     3
 72
     8
 73
     4
 74
     0
 42
0.0000000001
 43
0.0000000001
 40
0.0
 40
0.0
 40
0.0
 40
0.0
 40
1.0
 40
1.0
 40
1.0
 40
1.0
 10
67.819
 20
-3.7007
 30
0.0
 10
67.819
 20
-3.7007
 30
0.0
 10
67.9099
 20
-2.8739
 30
0.0
 10
67.9099
 20
-2.8739
 30
0.0
  0
SPLINE
  5
175
330
1F
100
AcDbEntity
  8
Ilustrace
 62
   250
370
    15
100
AcDbSpline
210
0.0
220
0.0
230
1.0
 70
    24
 71
     3
 72
     8
 73
     4
 74
     0
 42
0.0000000001
 43
0.0000000001
 40
0.0
 40
0.0
 40
0.0
 40
0.0
 40
1.0
 40
1.0
 40
1.0
 40
1.0
 10
56.2103
 20
-3.6925
 30
0.0
 10
56.2103
 20
-3.6925
 30
0.0
 10
56.3012
 20
-2.8657
 30
0.0
 10
56.3012
 20
-2.8657
 30
0.0
  0
SPLINE
  5
176
330
1F
100
AcDbEntity
  8
Ilustrace
 62
   250
370
    15
100
AcDbSpline
210
0.0
220
0.0
230
1.0
 70
    24
 71
     3
 72
     8
 73
     4
 74
     0
 42
0.0000000001
 43
0.0000000001
 40
0.0
 40
0.0
 40
0.0
 40
0.0
 40
1.0
 40
1.0
 40
1.0
 40
1.0
 10
68.3812
 20
-3.6925
 30
0.0
 10
68.3812
 20
-3.6925
 30
0.0
 10
68.4721
 20
-2.8657
 30
0.0
 10
68.4721
 20
-2.8657
 30
0.0
  0
SPLINE
  5
177
330
1F
100
AcDbEntity
  8
Ilustrace
 62
   250
370
    15
100
AcDbSpline
210
0.0
220
0.0
230
1.0
 70
    24
 71
     3
 72
     8
 73
     4
 74
     0
 42
0.0000000001
 43
0.0000000001
 40
0.0
 40
0.0
 40
0.0
 40
0.0
 40
1.0
 40
1.0
 40
1.0
 40
1.0
 10
56.8056
 20
-3.6884
 30
0.0
 10
56.8056
 20
-3.6884
 30
0.0
 10
56.8965
 20
-2.8616
 30
0.0
 10
56.8965
 20
-2.8616
 30
0.0
  0
SPLINE
  5
178
330
1F
100
AcDbEntity
  8
Ilustrace
 62
   250
370
    15
100
AcDbSpline
210
0.0
220
0.0
230
1.0
 70
    24
 71
     3
 72
     8
 73
     4
 74
     0
 42
0.0000000001
 43
0.0000000001
 40
0.0
 40
0.0
 40
0.0
 40
0.0
 40
1.0
 40
1.0
 40
1.0
 40
1.0
 10
68.9765
 20
-3.6884
 30
0.0
 10
68.9765
 20
-3.6884
 30
0.0
 10
69.0674
 20
-2.8616
 30
0.0
 10
69.0674
 20
-2.8616
 30
0.0
  0
SPLINE
  5
179
330
1F
100
AcDbEntity
  8
Ilustrace
 62
   250
370
    15
100
AcDbSpline
210
0.0
220
0.0
230
1.0
 70
    24
 71
     3
 72
     8
 73
     4
 74
     0
 42
0.0000000001
 43
0.0000000001
 40
0.0
 40
0.0
 40
0.0
 40
0.0
 40
1.0
 40
1.0
 40
1.0
 40
1.0
 10
55.9499
 20
-3.7089
 30
0.0
 10
55.9499
 20
-3.7089
 30
0.0
 10
56.0408
 20
-2.8821
 30
0.0
 10
56.0408
 20
-2.8821
 30
0.0
  0
SPLINE
  5
17A
330
1F
100
AcDbEntity
  8
Ilustrace
 62
   250
370
    15
100
AcDbSpline
210
0.0
220
0.0
230
1.0
 70
    24
 71
     3
 72
     8
 73
     4
 74
     0
 42
0.0000000001
 43
0.0000000001
 40
0.0
 40
0.0
 40
0.0
 40
0.0
 40
1.0
 40
1.0
 40
1.0
 40
1.0
 10
68.1208
 20
-3.7089
 30
0.0
 10
68.1208
 20
-3.7089
 30
0.0
 10
68.2117
 20
-2.8821
 30
0.0
 10
68.2117
 20
-2.8821
 30
0.0
  0
SPLINE
  5
17B
330
1F
100
AcDbEntity
  8
Ilustrace
 62
   250
370
    15
100
AcDbSpline
210
0.0
220
0.0
230
1.0
 70
    24
 71
     3
 72
     8
 73
     4
 74
     0
 42
0.0000000001
 43
0.0000000001
 40
0.0
 40
0.0
 40
0.0
 40
0.0
 40
1.0
 40
1.0
 40
1.0
 40
1.0
 10
56.5121
 20
-3.7007
 30
0.0
 10
56.5121
 20
-3.7007
 30
0.0
 10
56.603
 20
-2.8739
 30
0.0
 10
56.603
 20
-2.8739
 30
0.0
  0
SPLINE
  5
17C
330
1F
100
AcDbEntity
  8
Ilustrace
 62
   250
370
    15
100
AcDbSpline
210
0.0
220
0.0
230
1.0
 70
    24
 71
     3
 72
     8
 73
     4
 74
     0
 42
0.0000000001
 43
0.0000000001
 40
0.0
 40
0.0
 40
0.0
 40
0.0
 40
1.0
 40
1.0
 40
1.0
 40
1.0
 10
68.683
 20
-3.7007
 30
0.0
 10
68.683
 20
-3.7007
 30
0.0
 10
68.7739
 20
-2.8739
 30
0.0
 10
68.7739
 20
-2.8739
 30
0.0
  0
SPLINE
  5
17D
330
1F
100
AcDbEntity
  8
Ilustrace
 62
   250
370
    15
100
AcDbSpline
210
0.0
220
0.0
230
1.0
 70
    24
 71
     3
 72
     8
 73
     4
 74
     0
 42
0.0000000001
 43
0.0000000001
 40
0.0
 40
0.0
 40
0.0
 40
0.0
 40
1.0
 40
1.0
 40
1.0
 40
1.0
 10
57.1074
 20
-3.6966
 30
0.0
 10
57.1074
 20
-3.6966
 30
0.0
 10
57.1983
 20
-2.8698
 30
0.0
 10
57.1983
 20
-2.8698
 30
0.0
  0
SPLINE
  5
17E
330
1F
100
AcDbEntity
  8
Ilustrace
 62
   250
370
    15
100
AcDbSpline
210
0.0
220
0.0
230
1.0
 70
    24
 71
     3
 72
     8
 73
     4
 74
     0
 42
0.0000000001
 43
0.0000000001
 40
0.0
 40
0.0
 40
0.0
 40
0.0
 40
1.0
 40
1.0
 40
1.0
 40
1.0
 10
69.2783
 20
-3.6966
 30
0.0
 10
69.2783
 20
-3.6966
 30
0.0
 10
69.3692
 20
-2.8698
 30
0.0
 10
69.3692
 20
-2.8698
 30
0.0
  0
SPLINE
  5
17F
330
1F
100
AcDbEntity
  8
Ilustrace
 62
   250
370
    15
100
AcDbSpline
210
0.0
220
0.0
230
1.0
 70
    24
 71
     3
 72
     8
 73
     4
 74
     0
 42
0.0000000001
 43
0.0000000001
 40
0.0
 40
0.0
 40
0.0
 40
0.0
 40
1.0
 40
1.0
 40
1.0
 40
1.0
 10
71.5976
 20
-14.853
 30
0.0
 10
71.5976
 20
-14.853
 30
0.0
 10
71.5976
 20
-9.9464
 30
0.0
 10
71.5976
 20
-9.9464
 30
0.0
  0
SPLINE
  5
180
330
1F
100
AcDbEntity
  8
Ilustrace
 62
   250
370
    15
100
AcDbSpline
210
0.0
220
0.0
230
1.0
 70
    24
 71
     3
 72
     8
 73
     4
 74
     0
 42
0.0000000001
 43
0.0000000001
 40
0.0
 40
0.0
 40
0.0
 40
0.0
 40
1.0
 40
1.0
 40
1.0
 40
1.0
 10
53.4491
 20
-14.7126
 30
0.0
 10
53.4491
 20
-14.7126
 30
0.0
 10
53.4491
 20
-9.8363
 30
0.0
 10
53.4491
 20
-9.8363
 30
0.0
  0
TEXT
  5
181
330
1F
100
AcDbEntity
  8
Ilustrace
 62
   250
100
AcDbText
 10
59.84370000000001
 20
-13.5411
 30
0.0
 40
1.557792
  1
(72)
 41
1.434739898767371
 51
-0.0000015352345087
  7
0
100
AcDbText
  0
SPLINE
  5
182
330
1F
100
AcDbEntity
  8
Ilustrace
 62
   250
370
    15
100
AcDbSpline
210
0.0
220
0.0
230
1.0
 70
    24
 71
     3
 72
     8
 73
     4
 74
     0
 42
0.0000000001
 43
0.0000000001
 40
0.0
 40
0.0
 40
0.0
 40
0.0
 40
1.0
 40
1.0
 40
1.0
 40
1.0
 10
70.8798
 20
-14.3338
 30
0.0
 10
70.8798
 20
-14.3338
 30
0.0
 10
53.8475
 20
-14.3338
 30
0.0
 10
53.8475
 20
-14.3338
 30
0.0
  0
SPLINE
  5
183
330
1F
100
AcDbEntity
  8
Ilustrace
 62
   250
370
     9
100
AcDbSpline
210
0.0
220
0.0
230
1.0
 70
    11
 71
     3
 72
    32
 73
    28
 74
     0
 42
0.0000000001
 43
0.0000000001
 40
0.0
 40
0.0
 40
0.0
 40
0.0
 40
0.125
 40
0.125
 40
0.125
 40
0.125
 40
0.25
 40
0.25
 40
0.25
 40
0.25
 40
0.375
 40
0.375
 40
0.375
 40
0.375
 40
0.5
 40
0.5
 40
0.5
 40
0.5
 40
0.625
 40
0.625
 40
0.625
 40
0.625
 40
0.75
 40
0.75
 40
0.75
 40
0.75
 40
1.0
 40
1.0
 40
1.0
 40
1.0
 10
70.2286
 20
-14.7696
 30
0.0
 10
70.2286
 20
-14.7696
 30
0.0
 10
70.2286
 20
-14.7696
 30
0.0
 10
70.2286
 20
-14.7696
 30
0.0
 10
70.2286
 20
-14.7696
 30
0.0
 10
70.2286
 20
-14.7696
 30
0.0
 10
70.2286
 20
-14.7696
 30
0.0
 10
70.2286
 20
-14.7696
 30
0.0
 10
70.2286
 20
-14.7696
 30
0.0
 10
70.2286
 20
-14.7696
 30
0.0
 10
71.5014
 20
-14.3262
 30
0.0
 10
71.5014
 20
-14.3262
 30
0.0
 10
71.5014
 20
-14.3262
 30
0.0
 10
71.5014
 20
-14.3262
 30
0.0
 10
70.2286
 20
-13.8828
 30
0.0
 10
70.2286
 20
-13.8828
 30
0.0
 10
70.2286
 20
-13.8828
 30
0.0
 10
70.2286
 20
-13.8828
 30
0.0
 10
70.2286
 20
-13.8828
 30
0.0
 10
70.2286
 20
-13.8828
 30
0.0
 10
70.2286
 20
-13.8828
 30
0.0
 10
70.2286
 20
-13.8828
 30
0.0
 10
70.2286
 20
-13.8828
 30
0.0
 10
70.2286
 20
-13.8828
 30
0.0
 10
70.2286
 20
-13.8828
 30
0.0
 10
70.2286
 20
-13.8828
 30
0.0
 10
70.2286
 20
-14.7696
 30
0.0
 10
70.2286
 20
-14.7696
 30
0.0
  0
SPLINE
  5
184
330
1F
100
AcDbEntity
  8
Ilustrace
 62
   250
370
     9
100
AcDbSpline
210
0.0
220
0.0
230
1.0
 70
    11
 71
     3
 72
    32
 73
    28
 74
     0
 42
0.0000000001
 43
0.0000000001
 40
0.0
 40
0.0
 40
0.0
 40
0.0
 40
0.125
 40
0.125
 40
0.125
 40
0.125
 40
0.25
 40
0.25
 40
0.25
 40
0.25
 40
0.375
 40
0.375
 40
0.375
 40
0.375
 40
0.5
 40
0.5
 40
0.5
 40
0.5
 40
0.625
 40
0.625
 40
0.625
 40
0.625
 40
0.75
 40
0.75
 40
0.75
 40
0.75
 40
1.0
 40
1.0
 40
1.0
 40
1.0
 10
54.7349
 20
-14.762
 30
0.0
 10
54.7349
 20
-14.762
 30
0.0
 10
54.7349
 20
-14.762
 30
0.0
 10
54.7349
 20
-14.762
 30
0.0
 10
54.7349
 20
-14.762
 30
0.0
 10
54.7349
 20
-14.762
 30
0.0
 10
54.7349
 20
-14.762
 30
0.0
 10
54.7349
 20
-14.762
 30
0.0
 10
54.7349
 20
-14.762
 30
0.0
 10
54.7349
 20
-14.762
 30
0.0
 10
53.4621
 20
-14.3186
 30
0.0
 10
53.4621
 20
-14.3186
 30
0.0
 10
53.4621
 20
-14.3186
 30
0.0
 10
53.4621
 20
-14.3186
 30
0.0
 10
54.7349
 20
-13.8752
 30
0.0
 10
54.7349
 20
-13.8752
 30
0.0
 10
54.7349
 20
-13.8752
 30
0.0
 10
54.7349
 20
-13.8752
 30
0.0
 10
54.7349
 20
-13.8752
 30
0.0
 10
54.7349
 20
-13.8752
 30
0.0
 10
54.7349
 20
-13.8752
 30
0.0
 10
54.7349
 20
-13.8752
 30
0.0
 10
54.7349
 20
-13.8752
 30
0.0
 10
54.7349
 20
-13.8752
 30
0.0
 10
54.7349
 20
-13.8752
 30
0.0
 10
54.7349
 20
-13.8752
 30
0.0
 10
54.7349
 20
-14.762
 30
0.0
 10
54.7349
 20
-14.762
 30
0.0
  0
SPLINE
  5
185
330
1F
100
AcDbEntity
  8
Ilustrace
 62
   250
370
    30
100
AcDbSpline
210
0.0
220
0.0
230
1.0
 70
    11
 71
     3
 72
    36
 73
    32
 74
     0
 42
0.0000000001
 43
0.0000000001
 40
0.0
 40
0.0
 40
0.0
 40
0.0
 40
0.1111111111111111
 40
0.1111111111111111
 40
0.1111111111111111
 40
0.1111111111111111
 40
0.2222222222222222
 40
0.2222222222222222
 40
0.2222222222222222
 40
0.2222222222222222
 40
0.3333333333333333
 40
0.3333333333333333
 40
0.3333333333333333
 40
0.3333333333333333
 40
0.4444444444444444
 40
0.4444444444444444
 40
0.4444444444444444
 40
0.4444444444444444
 40
0.5555555555555556
 40
0.5555555555555556
 40
0.5555555555555556
 40
0.5555555555555556
 40
0.6666666666666666
 40
0.6666666666666666
 40
0.6666666666666666
 40
0.6666666666666666
 40
0.7777777777777778
 40
0.7777777777777778
 40
0.7777777777777778
 40
0.7777777777777778
 40
1.0
 40
1.0
 40
1.0
 40
1.0
 10
-18.4799
 20
-4.8823
 30
0.0
 10
-18.294
 20
-4.9454
 30
0.0
 10
-18.2488
 20
-4.9709
 30
0.0
 10
-18.0528
 20
-4.9968
 30
0.0
 10
-18.0528
 20
-4.9968
 30
0.0
 10
-17.6853
 20
-5.0451
 30
0.0
 10
-17.306
 20
-4.9696
 30
0.0
 10
-16.9848
 20
-4.7843
 30
0.0
 10
-16.9848
 20
-4.7843
 30
0.0
 10
-16.1119
 20
-4.2802
 30
0.0
 10
-15.8744
 20
-3.0861
 30
0.0
 10
-16.4879
 20
-2.2863
 30
0.0
 10
-16.4879
 20
-2.2863
 30
0.0
 10
-16.6231
 20
-2.1103
 30
0.0
 10
-16.7926
 20
-1.9615
 30
0.0
 10
-16.9848
 20
-1.8506
 30
0.0
 10
-16.9848
 20
-1.8506
 30
0.0
 10
-17.2521
 20
-1.6963
 30
0.0
 10
-17.5284
 20
-1.6436
 30
0.0
 10
-17.8318
 20
-1.6236
 30
0.0
 10
-17.8318
 20
-1.6236
 30
0.0
 10
-18.1351
 20
-1.6436
 30
0.0
 10
-18.4114
 20
-1.6963
 30
0.0
 10
-18.6786
 20
-1.8506
 30
0.0
 10
-18.6786
 20
-1.8506
 30
0.0
 10
-19.4776
 20
-2.3119
 30
0.0
 10
-19.7597
 20
-3.3653
 30
0.0
 10
-19.2985
 20
-4.1644
 30
0.0
 10
-19.2985
 20
-4.1644
 30
0.0
 10
-19.1048
 20
-4.5
 30
0.0
 10
-18.8211
 20
-4.7139
 30
0.0
 10
-18.4799
 20
-4.8823
 30
0.0
  0
SPLINE
  5
186
330
1F
100
AcDbEntity
  8
Ilustrace
 62
   250
370
    30
100
AcDbSpline
210
0.0
220
0.0
230
1.0
 70
    24
 71
     3
 72
    16
 73
    12
 74
     0
 42
0.0000000001
 43
0.0000000001
 40
0.0
 40
0.0
 40
0.0
 40
0.0
 40
0.25
 40
0.25
 40
0.25
 40
0.25
 40
0.5
 40
0.5
 40
0.5
 40
0.5
 40
1.0
 40
1.0
 40
1.0
 40
1.0
 10
-17.1575
 20
-1.3174
 30
0.0
 10
-17.1575
 20
-1.3174
 30
0.0
 10
-17.1575
 20
-0.8175
 30
0.0
 10
-17.1575
 20
-0.8175
 30
0.0
 10
-17.1575
 20
-0.8175
 30
0.0
 10
-17.1575
 20
-0.8175
 30
0.0
 10
-17.1575
 20
-0.4333
 30
0.0
 10
-17.1575
 20
-0.4333
 30
0.0
 10
-17.1575
 20
-0.4333
 30
0.0
 10
-17.1575
 20
-0.4333
 30
0.0
 10
-17.1575
 20
0.0667
 30
0.0
 10
-17.1575
 20
0.0667
 30
0.0
  0
SPLINE
  5
187
330
1F
100
AcDbEntity
  8
Ilustrace
 62
   250
370
    30
100
AcDbSpline
210
0.0
220
0.0
230
1.0
 70
     8
 71
     3
 72
    16
 73
    12
 74
     0
 42
0.0000000001
 43
0.0000000001
 40
0.0
 40
0.0
 40
0.0
 40
0.0
 40
0.25
 40
0.25
 40
0.25
 40
0.25
 40
0.5
 40
0.5
 40
0.5
 40
0.5
 40
1.0
 40
1.0
 40
1.0
 40
1.0
 10
-17.1575
 20
0.0667
 30
0.0
 10
-17.171
 20
0.2843
 30
0.0
 10
-17.3798
 20
0.4895
 30
0.0
 10
-17.5686
 20
0.5678
 30
0.0
 10
-17.5686
 20
0.5678
 30
0.0
 10
-17.7258
 20
0.6328
 30
0.0
 10
-17.7669
 20
0.6069
 30
0.0
 10
-17.9659
 20
0.6069
 30
0.0
 10
-17.9659
 20
0.6069
 30
0.0
 10
-18.2061
 20
0.534
 30
0.0
 10
-18.4884
 20
0.3521
 30
0.0
 10
-18.5061
 20
0.0667
 30
0.0
  0
SPLINE
  5
188
330
1F
100
AcDbEntity
  8
Ilustrace
 62
   250
370
    30
100
AcDbSpline
210
0.0
220
0.0
230
1.0
 70
    24
 71
     3
 72
    16
 73
    12
 74
     0
 42
0.0000000001
 43
0.0000000001
 40
0.0
 40
0.0
 40
0.0
 40
0.0
 40
0.25
 40
0.25
 40
0.25
 40
0.25
 40
0.5
 40
0.5
 40
0.5
 40
0.5
 40
1.0
 40
1.0
 40
1.0
 40
1.0
 10
-18.5061
 20
0.0667
 30
0.0
 10
-18.5061
 20
0.0667
 30
0.0
 10
-18.5061
 20
-0.4333
 30
0.0
 10
-18.5061
 20
-0.4333
 30
0.0
 10
-18.5061
 20
-0.4333
 30
0.0
 10
-18.5061
 20
-0.4333
 30
0.0
 10
-18.5061
 20
-0.8175
 30
0.0
 10
-18.5061
 20
-0.8175
 30
0.0
 10
-18.5061
 20
-0.8175
 30
0.0
 10
-18.5061
 20
-0.8175
 30
0.0
 10
-18.5061
 20
-1.3174
 30
0.0
 10
-18.5061
 20
-1.3174
 30
0.0
  0
SPLINE
  5
189
330
1F
100
AcDbEntity
  8
Ilustrace
 62
   250
370
    30
100
AcDbSpline
210
0.0
220
0.0
230
1.0
 70
     8
 71
     3
 72
     8
 73
     4
 74
     0
 42
0.0000000001
 43
0.0000000001
 40
0.0
 40
0.0
 40
0.0
 40
0.0
 40
1.0
 40
1.0
 40
1.0
 40
1.0
 10
-17.2125
 20
-4.9236
 30
0.0
 10
-17.2302
 20
-5.2092
 30
0.0
 10
-17.5123
 20
-5.3908
 30
0.0
 10
-17.7527
 20
-5.4638
 30
0.0
  0
SPLINE
  5
18A
330
1F
100
AcDbEntity
  8
Ilustrace
 62
   250
370
    30
100
AcDbSpline
210
0.0
220
0.0
230
1.0
 70
    24
 71
     3
 72
     8
 73
     4
 74
     0
 42
0.0000000001
 43
0.0000000001
 40
0.0
 40
0.0
 40
0.0
 40
0.0
 40
1.0
 40
1.0
 40
1.0
 40
1.0
 10
-17.7527
 20
-5.4638
 30
0.0
 10
-17.7527
 20
-5.4638
 30
0.0
 10
-18.0209
 20
-5.4638
 30
0.0
 10
-18.0209
 20
-5.4638
 30
0.0
  0
SPLINE
  5
18B
330
1F
100
AcDbEntity
  8
Ilustrace
 62
   250
370
    30
100
AcDbSpline
210
0.0
220
0.0
230
1.0
 70
     8
 71
     3
 72
     8
 73
     4
 74
     0
 42
0.0000000001
 43
0.0000000001
 40
0.0
 40
0.0
 40
0.0
 40
0.0
 40
1.0
 40
1.0
 40
1.0
 40
1.0
 10
-18.0209
 20
-5.4638
 30
0.0
 10
-18.2404
 20
-5.4421
 30
0.0
 10
-18.4414
 20
-5.2471
 30
0.0
 10
-18.5219
 20
-5.0525
 30
0.0
  0
SPLINE
  5
18C
330
1F
100
AcDbEntity
  8
Ilustrace
 62
   250
370
    15
100
AcDbSpline
210
0.0
220
0.0
230
1.0
 70
     8
 71
     3
 72
    40
 73
    36
 74
     0
 42
0.0000000001
 43
0.0000000001
 40
0.0
 40
0.0
 40
0.0
 40
0.0
 40
0.1
 40
0.1
 40
0.1
 40
0.1
 40
0.2
 40
0.2
 40
0.2
 40
0.2
 40
0.3
 40
0.3
 40
0.3
 40
0.3
 40
0.4
 40
0.4
 40
0.4
 40
0.4
 40
0.5
 40
0.5
 40
0.5
 40
0.5
 40
0.6
 40
0.6
 40
0.6
 40
0.6
 40
0.7
 40
0.7
 40
0.7
 40
0.7
 40
0.8
 40
0.8
 40
0.8
 40
0.8
 40
1.0
 40
1.0
 40
1.0
 40
1.0
 10
-43.0298
 20
7.9076
 30
0.0
 10
-43.0298
 20
7.9076
 30
0.0
 10
-43.0215
 20
7.5666
 30
0.0
 10
-43.0215
 20
7.5666
 30
0.0
 10
-43.0215
 20
7.5666
 30
0.0
 10
-43.0035
 20
6.8276
 30
0.0
 10
-43.2574
 20
6.3248
 30
0.0
 10
-43.2574
 20
5.6323
 30
0.0
 10
-43.2574
 20
5.6323
 30
0.0
 10
-43.2574
 20
5.6323
 30
0.0
 10
-43.2574
 20
5.2326
 30
0.0
 10
-43.2574
 20
5.2326
 30
0.0
 10
-43.2574
 20
5.2326
 30
0.0
 10
-43.2575
 20
3.4912
 30
0.0
 10
-43.2804
 20
1.0173
 30
0.0
 10
-43.4577
 20
-0.6469
 30
0.0
 10
-43.4577
 20
-0.6469
 30
0.0
 10
-43.4577
 20
-0.6469
 30
0.0
 10
-43.4758
 20
-0.8171
 30
0.0
 10
-43.4758
 20
-0.8171
 30
0.0
 10
-43.4758
 20
-0.8171
 30
0.0
 10
-43.6037
 20
-2.017
 30
0.0
 10
-43.5559
 20
-2.6812
 30
0.0
 10
-43.6762
 20
-3.8792
 30
0.0
 10
-43.6762
 20
-3.8792
 30
0.0
 10
-43.7418
 20
-4.5328
 30
0.0
 10
-43.7542
 20
-5.2262
 30
0.0
 10
-43.9075
 20
-5.8605
 30
0.0
 10
-43.9075
 20
-5.8605
 30
0.0
 10
-44.0527
 20
-6.4615
 30
0.0
 10
-44.2566
 20
-8.3128
 30
0.0
 10
-44.479
 20
-8.6848
 30
0.0
 10
-44.479
 20
-8.6848
 30
0.0
 10
-44.5187
 20
-8.7514
 30
0.0
 10
-44.7562
 20
-9.9414
 30
0.0
 10
-44.7562
 20
-10.0949
 30
0.0
  0
SPLINE
  5
18D
330
1F
100
AcDbEntity
  8
Ilustrace
 62
   250
370
    30
100
AcDbSpline
210
0.0
220
0.0
230
1.0
 70
    11
 71
     3
 72
    36
 73
    32
 74
     0
 42
0.0000000001
 43
0.0000000001
 40
0.0
 40
0.0
 40
0.0
 40
0.0
 40
0.1111111111111111
 40
0.1111111111111111
 40
0.1111111111111111
 40
0.1111111111111111
 40
0.2222222222222222
 40
0.2222222222222222
 40
0.2222222222222222
 40
0.2222222222222222
 40
0.3333333333333333
 40
0.3333333333333333
 40
0.3333333333333333
 40
0.3333333333333333
 40
0.4444444444444444
 40
0.4444444444444444
 40
0.4444444444444444
 40
0.4444444444444444
 40
0.5555555555555556
 40
0.5555555555555556
 40
0.5555555555555556
 40
0.5555555555555556
 40
0.6666666666666666
 40
0.6666666666666666
 40
0.6666666666666666
 40
0.6666666666666666
 40
0.7777777777777778
 40
0.7777777777777778
 40
0.7777777777777778
 40
0.7777777777777778
 40
1.0
 40
1.0
 40
1.0
 40
1.0
 10
37.5513
 20
-4.8822
 30
0.0
 10
37.7373
 20
-4.9453
 30
0.0
 10
37.7824
 20
-4.9708
 30
0.0
 10
37.9785
 20
-4.9967
 30
0.0
 10
37.9785
 20
-4.9967
 30
0.0
 10
38.3461
 20
-5.045
 30
0.0
 10
38.7252
 20
-4.9695
 30
0.0
 10
39.0463
 20
-4.7842
 30
0.0
 10
39.0463
 20
-4.7842
 30
0.0
 10
39.9194
 20
-4.2801
 30
0.0
 10
40.1568
 20
-3.086
 30
0.0
 10
39.5431
 20
-2.2862
 30
0.0
 10
39.5431
 20
-2.2862
 30
0.0
 10
39.4081
 20
-2.1102
 30
0.0
 10
39.2385
 20
-1.9614
 30
0.0
 10
39.0463
 20
-1.8505
 30
0.0
 10
39.0463
 20
-1.8505
 30
0.0
 10
38.7791
 20
-1.6962
 30
0.0
 10
38.5029
 20
-1.6435
 30
0.0
 10
38.1995
 20
-1.6235
 30
0.0
 10
38.1995
 20
-1.6235
 30
0.0
 10
37.8961
 20
-1.6435
 30
0.0
 10
37.6199
 20
-1.6962
 30
0.0
 10
37.3527
 20
-1.8505
 30
0.0
 10
37.3527
 20
-1.8505
 30
0.0
 10
36.5537
 20
-2.3118
 30
0.0
 10
36.2714
 20
-3.3652
 30
0.0
 10
36.7327
 20
-4.1643
 30
0.0
 10
36.7327
 20
-4.1643
 30
0.0
 10
36.9265
 20
-4.4999
 30
0.0
 10
37.2101
 20
-4.7138
 30
0.0
 10
37.5513
 20
-4.8822
 30
0.0
  0
SPLINE
  5
18E
330
1F
100
AcDbEntity
  8
Ilustrace
 62
   250
370
    30
100
AcDbSpline
210
0.0
220
0.0
230
1.0
 70
    24
 71
     3
 72
     8
 73
     4
 74
     0
 42
0.0000000001
 43
0.0000000001
 40
0.0
 40
0.0
 40
0.0
 40
0.0
 40
1.0
 40
1.0
 40
1.0
 40
1.0
 10
44.1995
 20
2.8076
 30
0.0
 10
44.1995
 20
2.8076
 30
0.0
 10
-43.2662
 20
2.8076
 30
0.0
 10
-43.2662
 20
2.8076
 30
0.0
  0
SPLINE
  5
18F
330
1F
100
AcDbEntity
  8
Ilustrace
 62
   250
370
    30
100
AcDbSpline
210
0.0
220
0.0
230
1.0
 70
    24
 71
     3
 72
     8
 73
     4
 74
     0
 42
0.0000000001
 43
0.0000000001
 40
0.0
 40
0.0
 40
0.0
 40
0.0
 40
1.0
 40
1.0
 40
1.0
 40
1.0
 10
44.1995
 20
-1.3173
 30
0.0
 10
44.1995
 20
-1.3173
 30
0.0
 10
44.1995
 20
7.9327
 30
0.0
 10
44.1995
 20
7.9327
 30
0.0
  0
SPLINE
  5
190
330
1F
100
AcDbEntity
  8
Ilustrace
 62
   250
370
    30
100
AcDbSpline
210
0.0
220
0.0
230
1.0
 70
    24
 71
     3
 72
     8
 73
     4
 74
     0
 42
0.0000000001
 43
0.0000000001
 40
0.0
 40
0.0
 40
0.0
 40
0.0
 40
1.0
 40
1.0
 40
1.0
 40
1.0
 10
-43.0429
 20
7.9327
 30
0.0
 10
-43.0429
 20
7.9327
 30
0.0
 10
44.1995
 20
7.9327
 30
0.0
 10
44.1995
 20
7.9327
 30
0.0
  0
SPLINE
  5
191
330
1F
100
AcDbEntity
  8
Ilustrace
 62
   250
370
    30
100
AcDbSpline
210
0.0
220
0.0
230
1.0
 70
    24
 71
     3
 72
     8
 73
     4
 74
     0
 42
0.0000000001
 43
0.0000000001
 40
0.0
 40
0.0
 40
0.0
 40
0.0
 40
1.0
 40
1.0
 40
1.0
 40
1.0
 10
-43.1573
 20
5.0576
 30
0.0
 10
-43.1573
 20
5.0576
 30
0.0
 10
44.1995
 20
5.0576
 30
0.0
 10
44.1995
 20
5.0576
 30
0.0
  0
SPLINE
  5
192
330
1F
100
AcDbEntity
  8
Ilustrace
 62
   250
370
    30
100
AcDbSpline
210
0.0
220
0.0
230
1.0
 70
    24
 71
     3
 72
    16
 73
    12
 74
     0
 42
0.0000000001
 43
0.0000000001
 40
0.0
 40
0.0
 40
0.0
 40
0.0
 40
0.25
 40
0.25
 40
0.25
 40
0.25
 40
0.5
 40
0.5
 40
0.5
 40
0.5
 40
1.0
 40
1.0
 40
1.0
 40
1.0
 10
38.8738
 20
-1.3173
 30
0.0
 10
38.8738
 20
-1.3173
 30
0.0
 10
38.8738
 20
-0.8174
 30
0.0
 10
38.8738
 20
-0.8174
 30
0.0
 10
38.8738
 20
-0.8174
 30
0.0
 10
38.8738
 20
-0.8174
 30
0.0
 10
38.8738
 20
-0.4332
 30
0.0
 10
38.8738
 20
-0.4332
 30
0.0
 10
38.8738
 20
-0.4332
 30
0.0
 10
38.8738
 20
-0.4332
 30
0.0
 10
38.8738
 20
0.0668
 30
0.0
 10
38.8738
 20
0.0668
 30
0.0
  0
SPLINE
  5
193
330
1F
100
AcDbEntity
  8
Ilustrace
 62
   250
370
    30
100
AcDbSpline
210
0.0
220
0.0
230
1.0
 70
     8
 71
     3
 72
    16
 73
    12
 74
     0
 42
0.0000000001
 43
0.0000000001
 40
0.0
 40
0.0
 40
0.0
 40
0.0
 40
0.25
 40
0.25
 40
0.25
 40
0.25
 40
0.5
 40
0.5
 40
0.5
 40
0.5
 40
1.0
 40
1.0
 40
1.0
 40
1.0
 10
38.8738
 20
0.0668
 30
0.0
 10
38.8603
 20
0.2844
 30
0.0
 10
38.6515
 20
0.4896
 30
0.0
 10
38.4626
 20
0.5679
 30
0.0
 10
38.4626
 20
0.5679
 30
0.0
 10
38.3055
 20
0.6329
 30
0.0
 10
38.2642
 20
0.607
 30
0.0
 10
38.0654
 20
0.607
 30
0.0
 10
38.0654
 20
0.607
 30
0.0
 10
37.8251
 20
0.5341
 30
0.0
 10
37.5429
 20
0.3522
 30
0.0
 10
37.5252
 20
0.0668
 30
0.0
  0
SPLINE
  5
194
330
1F
100
AcDbEntity
  8
Ilustrace
 62
   250
370
    30
100
AcDbSpline
210
0.0
220
0.0
230
1.0
 70
    24
 71
     3
 72
    16
 73
    12
 74
     0
 42
0.0000000001
 43
0.0000000001
 40
0.0
 40
0.0
 40
0.0
 40
0.0
 40
0.25
 40
0.25
 40
0.25
 40
0.25
 40
0.5
 40
0.5
 40
0.5
 40
0.5
 40
1.0
 40
1.0
 40
1.0
 40
1.0
 10
37.5252
 20
0.0668
 30
0.0
 10
37.5252
 20
0.0668
 30
0.0
 10
37.5252
 20
-0.4332
 30
0.0
 10
37.5252
 20
-0.4332
 30
0.0
 10
37.5252
 20
-0.4332
 30
0.0
 10
37.5252
 20
-0.4332
 30
0.0
 10
37.5252
 20
-0.8174
 30
0.0
 10
37.5252
 20
-0.8174
 30
0.0
 10
37.5252
 20
-0.8174
 30
0.0
 10
37.5252
 20
-0.8174
 30
0.0
 10
37.5252
 20
-1.3173
 30
0.0
 10
37.5252
 20
-1.3173
 30
0.0
  0
SPLINE
  5
195
330
1F
100
AcDbEntity
  8
Ilustrace
 62
   250
370
    30
100
AcDbSpline
210
0.0
220
0.0
230
1.0
 70
    24
 71
     3
 72
     8
 73
     4
 74
     0
 42
0.0000000001
 43
0.0000000001
 40
0.0
 40
0.0
 40
0.0
 40
0.0
 40
1.0
 40
1.0
 40
1.0
 40
1.0
 10
18.5435
 20
1.8577
 30
0.0
 10
18.5435
 20
1.8577
 30
0.0
 10
19.8557
 20
1.8577
 30
0.0
 10
19.8557
 20
1.8577
 30
0.0
  0
SPLINE
  5
196
330
1F
100
AcDbEntity
  8
Ilustrace
 62
   250
370
    30
100
AcDbSpline
210
0.0
220
0.0
230
1.0
 70
    24
 71
     3
 72
     8
 73
     4
 74
     0
 42
0.0000000001
 43
0.0000000001
 40
0.0
 40
0.0
 40
0.0
 40
0.0
 40
1.0
 40
1.0
 40
1.0
 40
1.0
 10
19.7308
 20
2.4326
 30
0.0
 10
19.7308
 20
2.4326
 30
0.0
 10
18.6684
 20
2.4326
 30
0.0
 10
18.6684
 20
2.4326
 30
0.0
  0
SPLINE
  5
197
330
1F
100
AcDbEntity
  8
Ilustrace
 62
   250
370
    30
100
AcDbSpline
210
0.0
220
0.0
230
1.0
 70
     8
 71
     3
 72
    12
 73
     8
 74
     0
 42
0.0000000001
 43
0.0000000001
 40
0.0
 40
0.0
 40
0.0
 40
0.0
 40
0.3333333333333333
 40
0.3333333333333333
 40
0.3333333333333333
 40
0.3333333333333333
 40
1.0
 40
1.0
 40
1.0
 40
1.0
 10
19.6734
 20
1.8577
 30
0.0
 10
19.6072
 20
1.6489
 30
0.0
 10
19.4113
 20
1.5255
 30
0.0
 10
19.1995
 20
1.5163
 30
0.0
 10
19.1995
 20
1.5163
 30
0.0
 10
18.9878
 20
1.5255
 30
0.0
 10
18.7921
 20
1.6489
 30
0.0
 10
18.7259
 20
1.8577
 30
0.0
  0
SPLINE
  5
198
330
1F
100
AcDbEntity
  8
Ilustrace
 62
   250
370
    30
100
AcDbSpline
210
0.0
220
0.0
230
1.0
 70
     8
 71
     3
 72
    12
 73
     8
 74
     0
 42
0.0000000001
 43
0.0000000001
 40
0.0
 40
0.0
 40
0.0
 40
0.0
 40
0.3333333333333333
 40
0.3333333333333333
 40
0.3333333333333333
 40
0.3333333333333333
 40
1.0
 40
1.0
 40
1.0
 40
1.0
 10
19.8557
 20
1.8577
 30
0.0
 10
19.8814
 20
1.9866
 30
0.0
 10
19.8806
 20
2.1138
 30
0.0
 10
19.8366
 20
2.2393
 30
0.0
 10
19.8366
 20
2.2393
 30
0.0
 10
19.8184
 20
2.2916
 30
0.0
 10
19.7936
 20
2.3414
 30
0.0
 10
19.7631
 20
2.3877
 30
0.0
  0
SPLINE
  5
199
330
1F
100
AcDbEntity
  8
Ilustrace
 62
   250
370
    30
100
AcDbSpline
210
0.0
220
0.0
230
1.0
 70
     8
 71
     3
 72
    12
 73
     8
 74
     0
 42
0.0000000001
 43
0.0000000001
 40
0.0
 40
0.0
 40
0.0
 40
0.0
 40
0.3333333333333333
 40
0.3333333333333333
 40
0.3333333333333333
 40
0.3333333333333333
 40
1.0
 40
1.0
 40
1.0
 40
1.0
 10
19.7631
 20
2.3877
 30
0.0
 10
19.7631
 20
2.3877
 30
0.0
 10
19.7308
 20
2.4326
 30
0.0
 10
19.7308
 20
2.4326
 30
0.0
 10
19.7308
 20
2.4326
 30
0.0
 10
19.7308
 20
2.4326
 30
0.0
 10
19.7308
 20
2.8076
 30
0.0
 10
19.7308
 20
2.8076
 30
0.0
  0
SPLINE
  5
19A
330
1F
100
AcDbEntity
  8
Ilustrace
 62
   250
370
    30
100
AcDbSpline
210
0.0
220
0.0
230
1.0
 70
     8
 71
     3
 72
    12
 73
     8
 74
     0
 42
0.0000000001
 43
0.0000000001
 40
0.0
 40
0.0
 40
0.0
 40
0.0
 40
0.3333333333333333
 40
0.3333333333333333
 40
0.3333333333333333
 40
0.3333333333333333
 40
1.0
 40
1.0
 40
1.0
 40
1.0
 10
18.5435
 20
1.8577
 30
0.0
 10
18.5179
 20
1.9866
 30
0.0
 10
18.5186
 20
2.1138
 30
0.0
 10
18.5625
 20
2.2393
 30
0.0
 10
18.5625
 20
2.2393
 30
0.0
 10
18.5808
 20
2.2916
 30
0.0
 10
18.6055
 20
2.3414
 30
0.0
 10
18.636
 20
2.3877
 30
0.0
  0
SPLINE
  5
19B
330
1F
100
AcDbEntity
  8
Ilustrace
 62
   250
370
    30
100
AcDbSpline
210
0.0
220
0.0
230
1.0
 70
     8
 71
     3
 72
    12
 73
     8
 74
     0
 42
0.0000000001
 43
0.0000000001
 40
0.0
 40
0.0
 40
0.0
 40
0.0
 40
0.3333333333333333
 40
0.3333333333333333
 40
0.3333333333333333
 40
0.3333333333333333
 40
1.0
 40
1.0
 40
1.0
 40
1.0
 10
18.636
 20
2.3877
 30
0.0
 10
18.636
 20
2.3877
 30
0.0
 10
18.6684
 20
2.4326
 30
0.0
 10
18.6684
 20
2.4326
 30
0.0
 10
18.6684
 20
2.4326
 30
0.0
 10
18.6684
 20
2.4326
 30
0.0
 10
18.6684
 20
2.8076
 30
0.0
 10
18.6684
 20
2.8076
 30
0.0
  0
SPLINE
  5
19C
330
1F
100
AcDbEntity
  8
Ilustrace
 62
   250
370
    30
100
AcDbSpline
210
0.0
220
0.0
230
1.0
 70
    24
 71
     3
 72
     8
 73
     4
 74
     0
 42
0.0000000001
 43
0.0000000001
 40
0.0
 40
0.0
 40
0.0
 40
0.0
 40
1.0
 40
1.0
 40
1.0
 40
1.0
 10
44.1995
 20
-10.0673
 30
0.0
 10
44.1995
 20
-10.0673
 30
0.0
 10
-44.7442
 20
-10.0673
 30
0.0
 10
-44.7442
 20
-10.0673
 30
0.0
  0
SPLINE
  5
19D
330
1F
100
AcDbEntity
  8
Ilustrace
 62
   250
370
    30
100
AcDbSpline
210
0.0
220
0.0
230
1.0
 70
    24
 71
     3
 72
     8
 73
     4
 74
     0
 42
0.0000000001
 43
0.0000000001
 40
0.0
 40
0.0
 40
0.0
 40
0.0
 40
1.0
 40
1.0
 40
1.0
 40
1.0
 10
44.1995
 20
-1.3173
 30
0.0
 10
44.1995
 20
-1.3173
 30
0.0
 10
-43.4579
 20
-1.3173
 30
0.0
 10
-43.4579
 20
-1.3173
 30
0.0
  0
SPLINE
  5
19E
330
1F
100
AcDbEntity
  8
Ilustrace
 62
   250
370
    30
100
AcDbSpline
210
0.0
220
0.0
230
1.0
 70
    24
 71
     3
 72
     8
 73
     4
 74
     0
 42
0.0000000001
 43
0.0000000001
 40
0.0
 40
0.0
 40
0.0
 40
0.0
 40
1.0
 40
1.0
 40
1.0
 40
1.0
 10
44.1995
 20
-10.0673
 30
0.0
 10
44.1995
 20
-10.0673
 30
0.0
 10
44.1995
 20
-1.3173
 30
0.0
 10
44.1995
 20
-1.3173
 30
0.0
  0
SPLINE
  5
19F
330
1F
100
AcDbEntity
  8
Ilustrace
 62
   250
370
    30
100
AcDbSpline
210
0.0
220
0.0
230
1.0
 70
     8
 71
     3
 72
     8
 73
     4
 74
     0
 42
0.0000000001
 43
0.0000000001
 40
0.0
 40
0.0
 40
0.0
 40
0.0
 40
1.0
 40
1.0
 40
1.0
 40
1.0
 10
38.8077
 20
-4.9622
 30
0.0
 10
38.79
 20
-5.2478
 30
0.0
 10
38.5078
 20
-5.4294
 30
0.0
 10
38.2675
 20
-5.5024
 30
0.0
  0
SPLINE
  5
1A0
330
1F
100
AcDbEntity
  8
Ilustrace
 62
   250
370
    30
100
AcDbSpline
210
0.0
220
0.0
230
1.0
 70
     8
 71
     3
 72
     8
 73
     4
 74
     0
 42
0.0000000001
 43
0.0000000001
 40
0.0
 40
0.0
 40
0.0
 40
0.0
 40
1.0
 40
1.0
 40
1.0
 40
1.0
 10
37.9993
 20
-5.5024
 30
0.0
 10
37.7797
 20
-5.4807
 30
0.0
 10
37.5788
 20
-5.2857
 30
0.0
 10
37.4983
 20
-5.0911
 30
0.0
  0
SPLINE
  5
1A1
330
1F
100
AcDbEntity
  8
Ilustrace
  6
New Line2
 62
   250
370
    15
100
AcDbSpline
210
0.0
220
0.0
230
1.0
 70
    24
 71
     3
 72
     8
 73
     4
 74
     0
 42
0.0000000001
 43
0.0000000001
 40
0.0
 40
0.0
 40
0.0
 40
0.0
 40
1.0
 40
1.0
 40
1.0
 40
1.0
 10
40.8391
 20
-3.3987
 30
0.0
 10
40.8391
 20
-3.3987
 30
0.0
 10
35.4196
 20
-3.3987
 30
0.0
 10
35.4196
 20
-3.3987
 30
0.0
  0
SPLINE
  5
1A3
330
1F
100
AcDbEntity
  8
Ilustrace
  6
New Line3
 62
   250
370
    15
100
AcDbSpline
210
0.0
220
0.0
230
1.0
 70
    24
 71
     3
 72
     8
 73
     4
 74
     0
 42
0.0000000001
 43
0.0000000001
 40
0.0
 40
0.0
 40
0.0
 40
0.0
 40
1.0
 40
1.0
 40
1.0
 40
1.0
 10
-15.1699
 20
-3.3326
 30
0.0
 10
-15.1699
 20
-3.3326
 30
0.0
 10
-20.5894
 20
-3.3326
 30
0.0
 10
-20.5894
 20
-3.3326
 30
0.0
  0
SPLINE
  5
1A5
330
1F
100
AcDbEntity
  8
Ilustrace
  6
New Line4
 62
   250
370
    15
100
AcDbSpline
210
0.0
220
0.0
230
1.0
 70
    24
 71
     3
 72
     8
 73
     4
 74
     0
 42
0.0000000001
 43
0.0000000001
 40
0.0
 40
0.0
 40
0.0
 40
0.0
 40
1.0
 40
1.0
 40
1.0
 40
1.0
 10
38.1623
 20
-0.8212
 30
0.0
 10
38.1623
 20
-0.8212
 30
0.0
 10
38.1623
 20
-6.9336
 30
0.0
 10
38.1623
 20
-6.9336
 30
0.0
  0
SPLINE
  5
1A7
330
1F
100
AcDbEntity
  8
Ilustrace
  6
New Line5
 62
   250
370
    15
100
AcDbSpline
210
0.0
220
0.0
230
1.0
 70
    24
 71
     3
 72
     8
 73
     4
 74
     0
 42
0.0000000001
 43
0.0000000001
 40
0.0
 40
0.0
 40
0.0
 40
0.0
 40
1.0
 40
1.0
 40
1.0
 40
1.0
 10
-17.8467
 20
-0.7551
 30
0.0
 10
-17.8467
 20
-0.7551
 30
0.0
 10
-17.8467
 20
-6.8675
 30
0.0
 10
-17.8467
 20
-6.8675
 30
0.0
  0
SPLINE
  5
1A9
330
1F
100
AcDbEntity
  8
Ilustrace
  6
New Line6
 62
   250
370
    15
100
AcDbSpline
210
0.0
220
0.0
230
1.0
 70
    24
 71
     3
 72
     8
 73
     4
 74
     0
 42
0.0000000001
 43
0.0000000001
 40
0.0
 40
0.0
 40
0.0
 40
0.0
 40
1.0
 40
1.0
 40
1.0
 40
1.0
 10
-75.0981
 20
-3.3988
 30
0.0
 10
-75.0981
 20
-3.3988
 30
0.0
 10
-80.5176
 20
-3.3988
 30
0.0
 10
-80.5176
 20
-3.3988
 30
0.0
  0
SPLINE
  5
1AB
330
1F
100
AcDbEntity
  8
Ilustrace
  6
New Line7
 62
   250
370
    15
100
AcDbSpline
210
0.0
220
0.0
230
1.0
 70
    24
 71
     3
 72
     8
 73
     4
 74
     0
 42
0.0000000001
 43
0.0000000001
 40
0.0
 40
0.0
 40
0.0
 40
0.0
 40
1.0
 40
1.0
 40
1.0
 40
1.0
 10
-77.7749
 20
-0.8213
 30
0.0
 10
-77.7749
 20
-0.8213
 30
0.0
 10
-77.7749
 20
-6.9337
 30
0.0
 10
-77.7749
 20
-6.9337
 30
0.0
  0
SPLINE
  5
1AD
330
1F
100
AcDbEntity
  8
Ilustrace
 62
   250
370
    30
100
AcDbSpline
210
0.0
220
0.0
230
1.0
 70
    24
 71
     3
 72
     8
 73
     4
 74
     0
 42
0.0000000001
 43
0.0000000001
 40
0.0
 40
0.0
 40
0.0
 40
0.0
 40
1.0
 40
1.0
 40
1.0
 40
1.0
 10
-78.2752
 20
-4.9405
 30
0.0
 10
-78.2752
 20
-4.9405
 30
0.0
 10
-78.3654
 20
-4.9104
 30
0.0
 10
-78.3654
 20
-4.9104
 30
0.0
  0
SPLINE
  5
1AE
330
1F
100
AcDbEntity
  8
Ilustrace
 62
   250
370
    30
100
AcDbSpline
210
0.0
220
0.0
230
1.0
 70
    24
 71
     3
 72
     8
 73
     4
 74
     0
 42
0.0000000001
 43
0.0000000001
 40
0.0
 40
0.0
 40
0.0
 40
0.0
 40
1.0
 40
1.0
 40
1.0
 40
1.0
 10
-77.2329
 20
-4.9104
 30
0.0
 10
-77.2329
 20
-4.9104
 30
0.0
 10
-77.165
 20
-4.8869
 30
0.0
 10
-77.165
 20
-4.8869
 30
0.0
  0
SPLINE
  5
1AF
330
1F
100
AcDbEntity
  8
Ilustrace
 62
   250
370
    30
100
AcDbSpline
210
0.0
220
0.0
230
1.0
 70
    24
 71
     3
 72
     8
 73
     4
 74
     0
 42
0.0000000001
 43
0.0000000001
 40
0.0
 40
0.0
 40
0.0
 40
0.0
 40
1.0
 40
1.0
 40
1.0
 40
1.0
 10
-78.0543
 20
-4.9899
 30
0.0
 10
-78.0543
 20
-4.9899
 30
0.0
 10
-78.1431
 20
-4.9727
 30
0.0
 10
-78.1431
 20
-4.9727
 30
0.0
  0
SPLINE
  5
1B0
330
1F
100
AcDbEntity
  8
Ilustrace
 62
   250
370
    30
100
AcDbSpline
210
0.0
220
0.0
230
1.0
 70
    24
 71
     3
 72
     8
 73
     4
 74
     0
 42
0.0000000001
 43
0.0000000001
 40
0.0
 40
0.0
 40
0.0
 40
0.0
 40
1.0
 40
1.0
 40
1.0
 40
1.0
 10
-77.4551
 20
-4.9727
 30
0.0
 10
-77.4551
 20
-4.9727
 30
0.0
 10
-77.3802
 20
-4.9572
 30
0.0
 10
-77.3802
 20
-4.9572
 30
0.0
  0
SPLINE
  5
1B1
330
1F
100
AcDbEntity
  8
Ilustrace
 62
   250
370
    30
100
AcDbSpline
210
0.0
220
0.0
230
1.0
 70
     8
 71
     3
 72
    12
 73
     8
 74
     0
 42
0.0000000001
 43
0.0000000001
 40
0.0
 40
0.0
 40
0.0
 40
0.0
 40
0.3333333333333333
 40
0.3333333333333333
 40
0.3333333333333333
 40
0.3333333333333333
 40
1.0
 40
1.0
 40
1.0
 40
1.0
 10
-77.8289
 20
-5.0092
 30
0.0
 10
-77.8289
 20
-5.0092
 30
0.0
 10
-77.8569
 20
-5.0101
 30
0.0
 10
-77.8569
 20
-5.0101
 30
0.0
 10
-77.8569
 20
-5.0101
 30
0.0
 10
-77.8569
 20
-5.0101
 30
0.0
 10
-77.9145
 20
-5.0042
 30
0.0
 10
-77.9145
 20
-5.0042
 30
0.0
  0
SPLINE
  5
1B2
330
1F
100
AcDbEntity
  8
Ilustrace
 62
   250
370
    30
100
AcDbSpline
210
0.0
220
0.0
230
1.0
 70
    24
 71
     3
 72
     8
 73
     4
 74
     0
 42
0.0000000001
 43
0.0000000001
 40
0.0
 40
0.0
 40
0.0
 40
0.0
 40
1.0
 40
1.0
 40
1.0
 40
1.0
 10
-77.6838
 20
-5.0042
 30
0.0
 10
-77.6838
 20
-5.0042
 30
0.0
 10
-77.6028
 20
-4.9982
 30
0.0
 10
-77.6028
 20
-4.9982
 30
0.0
  0
SPLINE
  5
1B3
330
1F
100
AcDbEntity
  8
Ilustrace
 62
   250
370
    30
100
AcDbSpline
210
0.0
220
0.0
230
1.0
 70
    11
 71
     3
 72
    36
 73
    32
 74
     0
 42
0.0000000001
 43
0.0000000001
 40
0.0
 40
0.0
 40
0.0
 40
0.0
 40
0.1111111111111111
 40
0.1111111111111111
 40
0.1111111111111111
 40
0.1111111111111111
 40
0.2222222222222222
 40
0.2222222222222222
 40
0.2222222222222222
 40
0.2222222222222222
 40
0.3333333333333333
 40
0.3333333333333333
 40
0.3333333333333333
 40
0.3333333333333333
 40
0.4444444444444444
 40
0.4444444444444444
 40
0.4444444444444444
 40
0.4444444444444444
 40
0.5555555555555556
 40
0.5555555555555556
 40
0.5555555555555556
 40
0.5555555555555556
 40
0.6666666666666666
 40
0.6666666666666666
 40
0.6666666666666666
 40
0.6666666666666666
 40
0.7777777777777778
 40
0.7777777777777778
 40
0.7777777777777778
 40
0.7777777777777778
 40
1.0
 40
1.0
 40
1.0
 40
1.0
 10
-78.4473
 20
-4.8822
 30
0.0
 10
-78.2614
 20
-4.9453
 30
0.0
 10
-78.2162
 20
-4.9708
 30
0.0
 10
-78.0203
 20
-4.9967
 30
0.0
 10
-78.0203
 20
-4.9967
 30
0.0
 10
-77.6526
 20
-5.045
 30
0.0
 10
-77.2734
 20
-4.9695
 30
0.0
 10
-76.9522
 20
-4.7842
 30
0.0
 10
-76.9522
 20
-4.7842
 30
0.0
 10
-76.0792
 20
-4.2801
 30
0.0
 10
-75.8418
 20
-3.086
 30
0.0
 10
-76.4554
 20
-2.2862
 30
0.0
 10
-76.4554
 20
-2.2862
 30
0.0
 10
-76.5905
 20
-2.1102
 30
0.0
 10
-76.7602
 20
-1.9614
 30
0.0
 10
-76.9522
 20
-1.8505
 30
0.0
 10
-76.9522
 20
-1.8505
 30
0.0
 10
-77.2195
 20
-1.6962
 30
0.0
 10
-77.4959
 20
-1.6435
 30
0.0
 10
-77.7992
 20
-1.6235
 30
0.0
 10
-77.7992
 20
-1.6235
 30
0.0
 10
-78.1026
 20
-1.6435
 30
0.0
 10
-78.3788
 20
-1.6962
 30
0.0
 10
-78.6461
 20
-1.8505
 30
0.0
 10
-78.6461
 20
-1.8505
 30
0.0
 10
-79.4449
 20
-2.3118
 30
0.0
 10
-79.7273
 20
-3.3652
 30
0.0
 10
-79.266
 20
-4.1643
 30
0.0
 10
-79.266
 20
-4.1643
 30
0.0
 10
-79.0722
 20
-4.4999
 30
0.0
 10
-78.7886
 20
-4.7138
 30
0.0
 10
-78.4473
 20
-4.8822
 30
0.0
  0
SPLINE
  5
1B4
330
1F
100
AcDbEntity
  8
Ilustrace
 62
   250
370
    30
100
AcDbSpline
210
0.0
220
0.0
230
1.0
 70
    24
 71
     3
 72
     8
 73
     4
 74
     0
 42
0.0000000001
 43
0.0000000001
 40
0.0
 40
0.0
 40
0.0
 40
0.0
 40
1.0
 40
1.0
 40
1.0
 40
1.0
 10
-83.7992
 20
7.9327
 30
0.0
 10
-83.7992
 20
7.9327
 30
0.0
 10
-83.7992
 20
-1.3173
 30
0.0
 10
-83.7992
 20
-1.3173
 30
0.0
  0
SPLINE
  5
1B5
330
1F
100
AcDbEntity
  8
Ilustrace
 62
   250
370
    30
100
AcDbSpline
210
0.0
220
0.0
230
1.0
 70
    24
 71
     3
 72
    16
 73
    12
 74
     0
 42
0.0000000001
 43
0.0000000001
 40
0.0
 40
0.0
 40
0.0
 40
0.0
 40
0.25
 40
0.25
 40
0.25
 40
0.25
 40
0.5
 40
0.5
 40
0.5
 40
0.5
 40
1.0
 40
1.0
 40
1.0
 40
1.0
 10
-77.1249
 20
-1.3173
 30
0.0
 10
-77.1249
 20
-1.3173
 30
0.0
 10
-77.1249
 20
-0.8174
 30
0.0
 10
-77.1249
 20
-0.8174
 30
0.0
 10
-77.1249
 20
-0.8174
 30
0.0
 10
-77.1249
 20
-0.8174
 30
0.0
 10
-77.1249
 20
-0.4332
 30
0.0
 10
-77.1249
 20
-0.4332
 30
0.0
 10
-77.1249
 20
-0.4332
 30
0.0
 10
-77.1249
 20
-0.4332
 30
0.0
 10
-77.1249
 20
0.0668
 30
0.0
 10
-77.1249
 20
0.0668
 30
0.0
  0
SPLINE
  5
1B6
330
1F
100
AcDbEntity
  8
Ilustrace
 62
   250
370
    30
100
AcDbSpline
210
0.0
220
0.0
230
1.0
 70
     8
 71
     3
 72
    16
 73
    12
 74
     0
 42
0.0000000001
 43
0.0000000001
 40
0.0
 40
0.0
 40
0.0
 40
0.0
 40
0.25
 40
0.25
 40
0.25
 40
0.25
 40
0.5
 40
0.5
 40
0.5
 40
0.5
 40
1.0
 40
1.0
 40
1.0
 40
1.0
 10
-77.1249
 20
0.0668
 30
0.0
 10
-77.1383
 20
0.2844
 30
0.0
 10
-77.3473
 20
0.4896
 30
0.0
 10
-77.536
 20
0.5679
 30
0.0
 10
-77.536
 20
0.5679
 30
0.0
 10
-77.6932
 20
0.6329
 30
0.0
 10
-77.7344
 20
0.607
 30
0.0
 10
-77.9333
 20
0.607
 30
0.0
 10
-77.9333
 20
0.607
 30
0.0
 10
-78.1736
 20
0.5341
 30
0.0
 10
-78.4558
 20
0.3522
 30
0.0
 10
-78.4735
 20
0.0668
 30
0.0
  0
SPLINE
  5
1B7
330
1F
100
AcDbEntity
  8
Ilustrace
 62
   250
370
    30
100
AcDbSpline
210
0.0
220
0.0
230
1.0
 70
    24
 71
     3
 72
    16
 73
    12
 74
     0
 42
0.0000000001
 43
0.0000000001
 40
0.0
 40
0.0
 40
0.0
 40
0.0
 40
0.25
 40
0.25
 40
0.25
 40
0.25
 40
0.5
 40
0.5
 40
0.5
 40
0.5
 40
1.0
 40
1.0
 40
1.0
 40
1.0
 10
-78.4735
 20
0.0668
 30
0.0
 10
-78.4735
 20
0.0668
 30
0.0
 10
-78.4735
 20
-0.4332
 30
0.0
 10
-78.4735
 20
-0.4332
 30
0.0
 10
-78.4735
 20
-0.4332
 30
0.0
 10
-78.4735
 20
-0.4332
 30
0.0
 10
-78.4735
 20
-0.8174
 30
0.0
 10
-78.4735
 20
-0.8174
 30
0.0
 10
-78.4735
 20
-0.8174
 30
0.0
 10
-78.4735
 20
-0.8174
 30
0.0
 10
-78.4735
 20
-1.3173
 30
0.0
 10
-78.4735
 20
-1.3173
 30
0.0
  0
SPLINE
  5
1B8
330
1F
100
AcDbEntity
  8
Ilustrace
 62
   250
370
    30
100
AcDbSpline
210
0.0
220
0.0
230
1.0
 70
    24
 71
     3
 72
     8
 73
     4
 74
     0
 42
0.0000000001
 43
0.0000000001
 40
0.0
 40
0.0
 40
0.0
 40
0.0
 40
1.0
 40
1.0
 40
1.0
 40
1.0
 10
-59.4553
 20
1.8577
 30
0.0
 10
-59.4553
 20
1.8577
 30
0.0
 10
-58.1432
 20
1.8577
 30
0.0
 10
-58.1432
 20
1.8577
 30
0.0
  0
SPLINE
  5
1B9
330
1F
100
AcDbEntity
  8
Ilustrace
 62
   250
370
    30
100
AcDbSpline
210
0.0
220
0.0
230
1.0
 70
    24
 71
     3
 72
     8
 73
     4
 74
     0
 42
0.0000000001
 43
0.0000000001
 40
0.0
 40
0.0
 40
0.0
 40
0.0
 40
1.0
 40
1.0
 40
1.0
 40
1.0
 10
-58.268
 20
2.4326
 30
0.0
 10
-58.268
 20
2.4326
 30
0.0
 10
-59.3305
 20
2.4326
 30
0.0
 10
-59.3305
 20
2.4326
 30
0.0
  0
SPLINE
  5
1BA
330
1F
100
AcDbEntity
  8
Ilustrace
 62
   250
370
    30
100
AcDbSpline
210
0.0
220
0.0
230
1.0
 70
     8
 71
     3
 72
    12
 73
     8
 74
     0
 42
0.0000000001
 43
0.0000000001
 40
0.0
 40
0.0
 40
0.0
 40
0.0
 40
0.3333333333333333
 40
0.3333333333333333
 40
0.3333333333333333
 40
0.3333333333333333
 40
1.0
 40
1.0
 40
1.0
 40
1.0
 10
-58.3255
 20
1.8577
 30
0.0
 10
-58.3918
 20
1.6489
 30
0.0
 10
-58.5873
 20
1.5255
 30
0.0
 10
-58.7993
 20
1.5163
 30
0.0
 10
-58.7993
 20
1.5163
 30
0.0
 10
-59.0111
 20
1.5255
 30
0.0
 10
-59.2068
 20
1.6489
 30
0.0
 10
-59.273
 20
1.8577
 30
0.0
  0
SPLINE
  5
1BB
330
1F
100
AcDbEntity
  8
Ilustrace
 62
   250
370
    30
100
AcDbSpline
210
0.0
220
0.0
230
1.0
 70
     8
 71
     3
 72
    12
 73
     8
 74
     0
 42
0.0000000001
 43
0.0000000001
 40
0.0
 40
0.0
 40
0.0
 40
0.0
 40
0.3333333333333333
 40
0.3333333333333333
 40
0.3333333333333333
 40
0.3333333333333333
 40
1.0
 40
1.0
 40
1.0
 40
1.0
 10
-58.1432
 20
1.8577
 30
0.0
 10
-58.1175
 20
1.9866
 30
0.0
 10
-58.1183
 20
2.1138
 30
0.0
 10
-58.1623
 20
2.2393
 30
0.0
 10
-58.1623
 20
2.2393
 30
0.0
 10
-58.1804
 20
2.2916
 30
0.0
 10
-58.2052
 20
2.3414
 30
0.0
 10
-58.2357
 20
2.3877
 30
0.0
  0
SPLINE
  5
1BC
330
1F
100
AcDbEntity
  8
Ilustrace
 62
   250
370
    30
100
AcDbSpline
210
0.0
220
0.0
230
1.0
 70
     8
 71
     3
 72
    12
 73
     8
 74
     0
 42
0.0000000001
 43
0.0000000001
 40
0.0
 40
0.0
 40
0.0
 40
0.0
 40
0.3333333333333333
 40
0.3333333333333333
 40
0.3333333333333333
 40
0.3333333333333333
 40
1.0
 40
1.0
 40
1.0
 40
1.0
 10
-58.2357
 20
2.3877
 30
0.0
 10
-58.2357
 20
2.3877
 30
0.0
 10
-58.268
 20
2.4326
 30
0.0
 10
-58.268
 20
2.4326
 30
0.0
 10
-58.268
 20
2.4326
 30
0.0
 10
-58.268
 20
2.4326
 30
0.0
 10
-58.268
 20
2.8076
 30
0.0
 10
-58.268
 20
2.8076
 30
0.0
  0
SPLINE
  5
1BD
330
1F
100
AcDbEntity
  8
Ilustrace
 62
   250
370
    30
100
AcDbSpline
210
0.0
220
0.0
230
1.0
 70
     8
 71
     3
 72
    12
 73
     8
 74
     0
 42
0.0000000001
 43
0.0000000001
 40
0.0
 40
0.0
 40
0.0
 40
0.0
 40
0.3333333333333333
 40
0.3333333333333333
 40
0.3333333333333333
 40
0.3333333333333333
 40
1.0
 40
1.0
 40
1.0
 40
1.0
 10
-59.4553
 20
1.8577
 30
0.0
 10
-59.481
 20
1.9866
 30
0.0
 10
-59.4802
 20
2.1138
 30
0.0
 10
-59.4362
 20
2.2393
 30
0.0
 10
-59.4362
 20
2.2393
 30
0.0
 10
-59.4181
 20
2.2916
 30
0.0
 10
-59.3933
 20
2.3414
 30
0.0
 10
-59.3628
 20
2.3877
 30
0.0
  0
SPLINE
  5
1BE
330
1F
100
AcDbEntity
  8
Ilustrace
 62
   250
370
    30
100
AcDbSpline
210
0.0
220
0.0
230
1.0
 70
     8
 71
     3
 72
    12
 73
     8
 74
     0
 42
0.0000000001
 43
0.0000000001
 40
0.0
 40
0.0
 40
0.0
 40
0.0
 40
0.3333333333333333
 40
0.3333333333333333
 40
0.3333333333333333
 40
0.3333333333333333
 40
1.0
 40
1.0
 40
1.0
 40
1.0
 10
-59.3628
 20
2.3877
 30
0.0
 10
-59.3628
 20
2.3877
 30
0.0
 10
-59.3305
 20
2.4326
 30
0.0
 10
-59.3305
 20
2.4326
 30
0.0
 10
-59.3305
 20
2.4326
 30
0.0
 10
-59.3305
 20
2.4326
 30
0.0
 10
-59.3305
 20
2.8076
 30
0.0
 10
-59.3305
 20
2.8076
 30
0.0
  0
SPLINE
  5
1BF
330
1F
100
AcDbEntity
  8
Ilustrace
 62
   250
370
    30
100
AcDbSpline
210
0.0
220
0.0
230
1.0
 70
    24
 71
     3
 72
     8
 73
     4
 74
     0
 42
0.0000000001
 43
0.0000000001
 40
0.0
 40
0.0
 40
0.0
 40
0.0
 40
1.0
 40
1.0
 40
1.0
 40
1.0
 10
-83.7992
 20
-1.3173
 30
0.0
 10
-83.7992
 20
-1.3173
 30
0.0
 10
-83.7992
 20
-10.0673
 30
0.0
 10
-83.7992
 20
-10.0673
 30
0.0
  0
SPLINE
  5
1C0
330
1F
100
AcDbEntity
  8
Ilustrace
 62
   250
370
    30
100
AcDbSpline
210
0.0
220
0.0
230
1.0
 70
     8
 71
     3
 72
     8
 73
     4
 74
     0
 42
0.0000000001
 43
0.0000000001
 40
0.0
 40
0.0
 40
0.0
 40
0.0
 40
1.0
 40
1.0
 40
1.0
 40
1.0
 10
-77.1415
 20
-5.0283
 30
0.0
 10
-77.1593
 20
-5.3139
 30
0.0
 10
-77.4412
 20
-5.4955
 30
0.0
 10
-77.6815
 20
-5.5685
 30
0.0
  0
SPLINE
  5
1C1
330
1F
100
AcDbEntity
  8
Ilustrace
 62
   250
370
    30
100
AcDbSpline
210
0.0
220
0.0
230
1.0
 70
    24
 71
     3
 72
     8
 73
     4
 74
     0
 42
0.0000000001
 43
0.0000000001
 40
0.0
 40
0.0
 40
0.0
 40
0.0
 40
1.0
 40
1.0
 40
1.0
 40
1.0
 10
-77.6815
 20
-5.5685
 30
0.0
 10
-77.6815
 20
-5.5685
 30
0.0
 10
-77.9499
 20
-5.5685
 30
0.0
 10
-77.9499
 20
-5.5685
 30
0.0
  0
SPLINE
  5
1C2
330
1F
100
AcDbEntity
  8
Ilustrace
 62
   250
370
    30
100
AcDbSpline
210
0.0
220
0.0
230
1.0
 70
     8
 71
     3
 72
     8
 73
     4
 74
     0
 42
0.0000000001
 43
0.0000000001
 40
0.0
 40
0.0
 40
0.0
 40
0.0
 40
1.0
 40
1.0
 40
1.0
 40
1.0
 10
-77.9499
 20
-5.5685
 30
0.0
 10
-78.1693
 20
-5.5468
 30
0.0
 10
-78.3703
 20
-5.3518
 30
0.0
 10
-78.4509
 20
-5.1572
 30
0.0
  0
SPLINE
  5
1C3
330
1F
100
AcDbEntity
  8
Ilustrace
 62
   250
370
    15
100
AcDbSpline
210
0.0
220
0.0
230
1.0
 70
     8
 71
     3
 72
    40
 73
    36
 74
     0
 42
0.0000000001
 43
0.0000000001
 40
0.0
 40
0.0
 40
0.0
 40
0.0
 40
0.1
 40
0.1
 40
0.1
 40
0.1
 40
0.2
 40
0.2
 40
0.2
 40
0.2
 40
0.3
 40
0.3
 40
0.3
 40
0.3
 40
0.4
 40
0.4
 40
0.4
 40
0.4
 40
0.5
 40
0.5
 40
0.5
 40
0.5
 40
0.6
 40
0.6
 40
0.6
 40
0.6
 40
0.7
 40
0.7
 40
0.7
 40
0.7
 40
0.8
 40
0.8
 40
0.8
 40
0.8
 40
1.0
 40
1.0
 40
1.0
 40
1.0
 10
-43.6132
 20
7.9739
 30
0.0
 10
-43.6132
 20
7.9739
 30
0.0
 10
-43.6215
 20
7.5666
 30
0.0
 10
-43.6215
 20
7.5666
 30
0.0
 10
-43.6215
 20
7.5666
 30
0.0
 10
-43.6365
 20
6.8276
 30
0.0
 10
-43.8574
 20
6.3248
 30
0.0
 10
-43.8574
 20
5.6323
 30
0.0
 10
-43.8574
 20
5.6323
 30
0.0
 10
-43.8574
 20
5.6323
 30
0.0
 10
-43.8574
 20
5.2326
 30
0.0
 10
-43.8574
 20
5.2326
 30
0.0
 10
-43.8574
 20
5.2326
 30
0.0
 10
-43.8575
 20
3.4912
 30
0.0
 10
-43.8804
 20
1.0173
 30
0.0
 10
-44.0577
 20
-0.6469
 30
0.0
 10
-44.0577
 20
-0.6469
 30
0.0
 10
-44.0577
 20
-0.6469
 30
0.0
 10
-44.0758
 20
-0.8171
 30
0.0
 10
-44.0758
 20
-0.8171
 30
0.0
 10
-44.0758
 20
-0.8171
 30
0.0
 10
-44.2037
 20
-2.017
 30
0.0
 10
-44.1559
 20
-2.6812
 30
0.0
 10
-44.2762
 20
-3.8792
 30
0.0
 10
-44.2762
 20
-3.8792
 30
0.0
 10
-44.3418
 20
-4.5328
 30
0.0
 10
-44.3542
 20
-5.2262
 30
0.0
 10
-44.5075
 20
-5.8605
 30
0.0
 10
-44.5075
 20
-5.8605
 30
0.0
 10
-44.6527
 20
-6.4615
 30
0.0
 10
-44.8566
 20
-8.3128
 30
0.0
 10
-45.079
 20
-8.6848
 30
0.0
 10
-45.079
 20
-8.6848
 30
0.0
 10
-45.1187
 20
-8.7514
 30
0.0
 10
-45.3893
 20
-9.9248
 30
0.0
 10
-45.3893
 20
-10.0783
 30
0.0
  0
SPLINE
  5
1C4
330
1F
100
AcDbEntity
  8
Ilustrace
 62
   250
370
    30
100
AcDbSpline
210
0.0
220
0.0
230
1.0
 70
    24
 71
     3
 72
     8
 73
     4
 74
     0
 42
0.0000000001
 43
0.0000000001
 40
0.0
 40
0.0
 40
0.0
 40
0.0
 40
1.0
 40
1.0
 40
1.0
 40
1.0
 10
-43.9068
 20
2.8241
 30
0.0
 10
-43.9068
 20
2.8241
 30
0.0
 10
-83.7469
 20
2.8241
 30
0.0
 10
-83.7469
 20
2.8241
 30
0.0
  0
SPLINE
  5
1C5
330
1F
100
AcDbEntity
  8
Ilustrace
 62
   250
370
    30
100
AcDbSpline
210
0.0
220
0.0
230
1.0
 70
    24
 71
     3
 72
     8
 73
     4
 74
     0
 42
0.0000000001
 43
0.0000000001
 40
0.0
 40
0.0
 40
0.0
 40
0.0
 40
1.0
 40
1.0
 40
1.0
 40
1.0
 10
-83.7797
 20
7.9658
 30
0.0
 10
-83.7797
 20
7.9658
 30
0.0
 10
-43.6292
 20
7.9658
 30
0.0
 10
-43.6292
 20
7.9658
 30
0.0
  0
SPLINE
  5
1C6
330
1F
100
AcDbEntity
  8
Ilustrace
 62
   250
370
    30
100
AcDbSpline
210
0.0
220
0.0
230
1.0
 70
    24
 71
     3
 72
     8
 73
     4
 74
     0
 42
0.0000000001
 43
0.0000000001
 40
0.0
 40
0.0
 40
0.0
 40
0.0
 40
1.0
 40
1.0
 40
1.0
 40
1.0
 10
-83.7218
 20
5.041
 30
0.0
 10
-83.7218
 20
5.041
 30
0.0
 10
-43.9027
 20
5.041
 30
0.0
 10
-43.9027
 20
5.041
 30
0.0
  0
SPLINE
  5
1C7
330
1F
100
AcDbEntity
  8
Ilustrace
 62
   250
370
    30
100
AcDbSpline
210
0.0
220
0.0
230
1.0
 70
    24
 71
     3
 72
     8
 73
     4
 74
     0
 42
0.0000000001
 43
0.0000000001
 40
0.0
 40
0.0
 40
0.0
 40
0.0
 40
1.0
 40
1.0
 40
1.0
 40
1.0
 10
-45.4181
 20
-10.0673
 30
0.0
 10
-45.4181
 20
-10.0673
 30
0.0
 10
-83.7634
 20
-10.0673
 30
0.0
 10
-83.7634
 20
-10.0673
 30
0.0
  0
SPLINE
  5
1C8
330
1F
100
AcDbEntity
  8
Ilustrace
 62
   250
370
    30
100
AcDbSpline
210
0.0
220
0.0
230
1.0
 70
    24
 71
     3
 72
     8
 73
     4
 74
     0
 42
0.0000000001
 43
0.0000000001
 40
0.0
 40
0.0
 40
0.0
 40
0.0
 40
1.0
 40
1.0
 40
1.0
 40
1.0
 10
-44.1879
 20
-1.3172
 30
0.0
 10
-44.1879
 20
-1.3172
 30
0.0
 10
-83.7563
 20
-1.3172
 30
0.0
 10
-83.7563
 20
-1.3172
 30
0.0
  0
ENDSEC
  0
SECTION
  2
OBJECTS
  0
DICTIONARY
  5
C
330
0
100
AcDbDictionary
281
     1
  3
ACAD_GROUP
350
D
  3
ACAD_LAYOUT
350
1A
  3
ACAD_MATERIAL
350
3B
  3
ACAD_MLEADERSTYLE
350
1CB
  3
ACAD_MLINESTYLE
350
17
  3
ACAD_PLOTSETTINGS
350
19
  3
ACAD_PLOTSTYLENAME
350
E
  3
ACAD_SCALELIST
350
13A
  3
ACAD_VISUALSTYLE
350
2A
  3
AcDbVariableDictionary
350
1C9
  0
DICTIONARY
  5
D
102
{ACAD_REACTORS
330
C
102
}
330
C
100
AcDbDictionary
281
     1
  0
DICTIONARY
  5
1A
102
{ACAD_REACTORS
330
C
102
}
330
C
100
AcDbDictionary
281
     1
  3
Layout1
350
1E
  3
Layout2
350
26
  3
Model
350
22
  0
DICTIONARY
  5
3B
102
{ACAD_REACTORS
330
C
102
}
330
C
100
AcDbDictionary
281
     1
  3
ByBlock
350
3D
  3
ByLayer
350
3C
  3
Global
350
3E
  0
DICTIONARY
  5
1CB
102
{ACAD_REACTORS
330
C
102
}
330
C
100
AcDbDictionary
281
     1
  0
DICTIONARY
  5
17
102
{ACAD_REACTORS
330
C
102
}
330
C
100
AcDbDictionary
281
     1
  3
Standard
350
18
  0
DICTIONARY
  5
19
102
{ACAD_REACTORS
330
C
102
}
330
C
100
AcDbDictionary
281
     1
  0
ACDBDICTIONARYWDFLT
  5
E
102
{ACAD_REACTORS
330
C
102
}
330
C
100
AcDbDictionary
281
     1
  3
Normal
350
F
100
AcDbDictionaryWithDefault
340
F
  0
DICTIONARY
  5
13A
102
{ACAD_REACTORS
330
C
102
}
330
C
100
AcDbDictionary
281
     1
  3
A0
350
13B
  3
A1
350
13C
  3
A2
350
13D
  3
A3
350
13E
  3
A4
350
13F
  3
A5
350
140
  3
A6
350
141
  3
A7
350
142
  3
A8
350
143
  3
A9
350
144
  3
B0
350
145
  3
B1
350
146
  3
B2
350
147
  3
B3
350
148
  3
B4
350
149
  3
B5
350
14A
  3
B6
350
14B
  3
B7
350
14C
  3
B8
350
14D
  3
B9
350
14E
  3
C0
350
14F
  3
C1
350
150
  3
C2
350
151
  3
C3
350
152
  3
C4
350
153
  3
C5
350
154
  3
C6
350
155
  3
C7
350
156
  3
C8
350
157
  3
C9
350
158
  3
D0
350
159
  3
D1
350
15A
  3
D2
350
15B
  0
DICTIONARY
  5
2A
102
{ACAD_REACTORS
330
C
102
}
330
C
100
AcDbDictionary
281
     1
  3
2dWireframe
350
2F
  3
3D Hidden
350
31
  3
3dWireframe
350
30
  3
Basic
350
32
  3
Brighten
350
36
  3
ColorChange
350
3A
  3
Conceptual
350
34
  3
Dim
350
35
  3
Facepattern
350
39
  3
Flat
350
2B
  3
FlatWithEdges
350
2C
  3
Gouraud
350
2D
  3
GouraudWithEdges
350
2E
  3
Linepattern
350
38
  3
Realistic
350
33
  3
Thicken
350
37
  0
DICTIONARY
  5
1C9
102
{ACAD_REACTORS
330
C
102
}
330
C
100
AcDbDictionary
281
     1
  3
CANNOSCALE
350
1CC
  3
DIMASSOC
350
1CD
  3
HIDETEXT
350
1CE
  0
LAYOUT
  5
1E
102
{ACAD_REACTORS
330
1A
102
}
330
1A
100
AcDbPlotSettings
  1

  2
none_device
  4

  6

 40
0.0
 41
0.0
 42
0.0
 43
0.0
 44
0.0
 45
0.0
 46
0.0
 47
0.0
 48
0.0
 49
0.0
140
0.0
141
0.0
142
1.0
143
1.0
 70
   688
 72
     0
 73
     0
 74
     5
  7

 75
    16
147
1.0
148
0.0
149
0.0
100
AcDbLayout
  1
Layout1
 70
     1
 71
     1
 10
0.0
 20
0.0
 11
12.0
 21
9.0
 12
0.0
 22
0.0
 32
0.0
 14
1.000000000000000E+20
 24
1.000000000000000E+20
 34
1.000000000000000E+20
 15
-1.000000000000000E+20
 25
-1.000000000000000E+20
 35
-1.000000000000000E+20
146
0.0
 13
0.0
 23
0.0
 33
0.0
 16
1.0
 26
0.0
 36
0.0
 17
0.0
 27
1.0
 37
0.0
 76
     0
330
1B
  0
LAYOUT
  5
26
102
{ACAD_REACTORS
330
1A
102
}
330
1A
100
AcDbPlotSettings
  1

  2
none_device
  4

  6

 40
0.0
 41
0.0
 42
0.0
 43
0.0
 44
0.0
 45
0.0
 46
0.0
 47
0.0
 48
0.0
 49
0.0
140
0.0
141
0.0
142
1.0
143
1.0
 70
   688
 72
     0
 73
     0
 74
     5
  7

 75
    16
147
1.0
148
0.0
149
0.0
100
AcDbLayout
  1
Layout2
 70
     1
 71
     2
 10
0.0
 20
0.0
 11
0.0
 21
0.0
 12
0.0
 22
0.0
 32
0.0
 14
0.0
 24
0.0
 34
0.0
 15
0.0
 25
0.0
 35
0.0
146
0.0
 13
0.0
 23
0.0
 33
0.0
 16
1.0
 26
0.0
 36
0.0
 17
0.0
 27
1.0
 37
0.0
 76
     0
330
23
  0
LAYOUT
  5
22
102
{ACAD_REACTORS
330
1A
102
}
330
1A
100
AcDbPlotSettings
  1

  2
none_device
  4

  6

 40
0.0
 41
0.0
 42
0.0
 43
0.0
 44
0.0
 45
0.0
 46
0.0
 47
0.0
 48
0.0
 49
0.0
140
0.0
141
0.0
142
1.0
143
1.0
 70
  1712
 72
     0
 73
     0
 74
     0
  7

 75
     0
147
1.0
148
0.0
149
0.0
100
AcDbLayout
  1
Model
 70
     1
 71
     0
 10
0.0
 20
0.0
 11
12.0
 21
9.0
 12
0.0
 22
0.0
 32
0.0
 14
-83.9403
 24
-14.853
 34
0.0
 15
83.853
 25
14.853
 35
0.0
146
0.0
 13
0.0
 23
0.0
 33
0.0
 16
1.0
 26
0.0
 36
0.0
 17
0.0
 27
1.0
 37
0.0
 76
     0
330
1F
331
29
  0
MATERIAL
  5
3D
102
{ACAD_REACTORS
330
3B
102
}
102
{ACAD_XDICTIONARY
360
1F1
102
}
330
3B
100
AcDbMaterial
  1
ByBlock
  0
MATERIAL
  5
3C
102
{ACAD_REACTORS
330
3B
102
}
102
{ACAD_XDICTIONARY
360
1EF
102
}
330
3B
100
AcDbMaterial
  1
ByLayer
  0
MATERIAL
  5
3E
102
{ACAD_REACTORS
330
3B
102
}
102
{ACAD_XDICTIONARY
360
1F3
102
}
330
3B
100
AcDbMaterial
  1
Global
  0
MLINESTYLE
  5
18
102
{ACAD_REACTORS
330
17
102
}
330
17
100
AcDbMlineStyle
  2
Standard
 70
     0
  3

 62
   256
 51
90.0
 52
90.0
 71
     2
 49
0.5
 62
   256
  6
BYLAYER
 49
-0.5
 62
   256
  6
BYLAYER
  0
ACDBPLACEHOLDER
  5
F
102
{ACAD_REACTORS
330
E
102
}
330
E
  0
SCALE
  5
13B
102
{ACAD_REACTORS
330
13A
102
}
330
13A
100
AcDbScale
 70
     0
300
1:1
140
1.0
141
1.0
290
     1
  0
SCALE
  5
13C
102
{ACAD_REACTORS
330
13A
102
}
330
13A
100
AcDbScale
 70
     0
300
1:2
140
1.0
141
2.0
290
     0
  0
SCALE
  5
13D
102
{ACAD_REACTORS
330
13A
102
}
330
13A
100
AcDbScale
 70
     0
300
1:4
140
1.0
141
4.0
290
     0
  0
SCALE
  5
13E
102
{ACAD_REACTORS
330
13A
102
}
330
13A
100
AcDbScale
 70
     0
300
1:5
140
1.0
141
5.0
290
     0
  0
SCALE
  5
13F
102
{ACAD_REACTORS
330
13A
102
}
330
13A
100
AcDbScale
 70
     0
300
1:8
140
1.0
141
8.0
290
     0
  0
SCALE
  5
140
102
{ACAD_REACTORS
330
13A
102
}
330
13A
100
AcDbScale
 70
     0
300
1:10
140
1.0
141
10.0
290
     0
  0
SCALE
  5
141
102
{ACAD_REACTORS
330
13A
102
}
330
13A
100
AcDbScale
 70
     0
300
1:16
140
1.0
141
16.0
290
     0
  0
SCALE
  5
142
102
{ACAD_REACTORS
330
13A
102
}
330
13A
100
AcDbScale
 70
     0
300
1:20
140
1.0
141
20.0
290
     0
  0
SCALE
  5
143
102
{ACAD_REACTORS
330
13A
102
}
330
13A
100
AcDbScale
 70
     0
300
1:30
140
1.0
141
30.0
290
     0
  0
SCALE
  5
144
102
{ACAD_REACTORS
330
13A
102
}
330
13A
100
AcDbScale
 70
     0
300
1:40
140
1.0
141
40.0
290
     0
  0
SCALE
  5
145
102
{ACAD_REACTORS
330
13A
102
}
330
13A
100
AcDbScale
 70
     0
300
1:50
140
1.0
141
50.0
290
     0
  0
SCALE
  5
146
102
{ACAD_REACTORS
330
13A
102
}
330
13A
100
AcDbScale
 70
     0
300
1:100
140
1.0
141
100.0
290
     0
  0
SCALE
  5
147
102
{ACAD_REACTORS
330
13A
102
}
330
13A
100
AcDbScale
 70
     0
300
2:1
140
2.0
141
1.0
290
     0
  0
SCALE
  5
148
102
{ACAD_REACTORS
330
13A
102
}
330
13A
100
AcDbScale
 70
     0
300
4:1
140
4.0
141
1.0
290
     0
  0
SCALE
  5
149
102
{ACAD_REACTORS
330
13A
102
}
330
13A
100
AcDbScale
 70
     0
300
8:1
140
8.0
141
1.0
290
     0
  0
SCALE
  5
14A
102
{ACAD_REACTORS
330
13A
102
}
330
13A
100
AcDbScale
 70
     0
300
10:1
140
10.0
141
1.0
290
     0
  0
SCALE
  5
14B
102
{ACAD_REACTORS
330
13A
102
}
330
13A
100
AcDbScale
 70
     0
300
100:1
140
100.0
141
1.0
290
     0
  0
SCALE
  5
14C
102
{ACAD_REACTORS
330
13A
102
}
330
13A
100
AcDbScale
 70
     0
300
1/128" = 1'-0"
140
0.0078125
141
12.0
290
     0
  0
SCALE
  5
14D
102
{ACAD_REACTORS
330
13A
102
}
330
13A
100
AcDbScale
 70
     0
300
1/64" = 1'-0"
140
0.015625
141
12.0
290
     0
  0
SCALE
  5
14E
102
{ACAD_REACTORS
330
13A
102
}
330
13A
100
AcDbScale
 70
     0
300
1/32" = 1'-0"
140
0.03125
141
12.0
290
     0
  0
SCALE
  5
14F
102
{ACAD_REACTORS
330
13A
102
}
330
13A
100
AcDbScale
 70
     0
300
1/16" = 1'-0"
140
0.0625
141
12.0
290
     0
  0
SCALE
  5
150
102
{ACAD_REACTORS
330
13A
102
}
330
13A
100
AcDbScale
 70
     0
300
3/32" = 1'-0"
140
0.09375
141
12.0
290
     0
  0
SCALE
  5
151
102
{ACAD_REACTORS
330
13A
102
}
330
13A
100
AcDbScale
 70
     0
300
1/8" = 1'-0"
140
0.125
141
12.0
290
     0
  0
SCALE
  5
152
102
{ACAD_REACTORS
330
13A
102
}
330
13A
100
AcDbScale
 70
     0
300
3/16" = 1'-0"
140
0.1875
141
12.0
290
     0
  0
SCALE
  5
153
102
{ACAD_REACTORS
330
13A
102
}
330
13A
100
AcDbScale
 70
     0
300
1/4" = 1'-0"
140
0.25
141
12.0
290
     0
  0
SCALE
  5
154
102
{ACAD_REACTORS
330
13A
102
}
330
13A
100
AcDbScale
 70
     0
300
3/8" = 1'-0"
140
0.375
141
12.0
290
     0
  0
SCALE
  5
155
102
{ACAD_REACTORS
330
13A
102
}
330
13A
100
AcDbScale
 70
     0
300
1/2" = 1'-0"
140
0.5
141
12.0
290
     0
  0
SCALE
  5
156
102
{ACAD_REACTORS
330
13A
102
}
330
13A
100
AcDbScale
 70
     0
300
3/4" = 1'-0"
140
0.75
141
12.0
290
     0
  0
SCALE
  5
157
102
{ACAD_REACTORS
330
13A
102
}
330
13A
100
AcDbScale
 70
     0
300
1" = 1'-0"
140
1.0
141
12.0
290
     0
  0
SCALE
  5
158
102
{ACAD_REACTORS
330
13A
102
}
330
13A
100
AcDbScale
 70
     0
300
1-1/2" = 1'-0"
140
1.5
141
12.0
290
     0
  0
SCALE
  5
159
102
{ACAD_REACTORS
330
13A
102
}
330
13A
100
AcDbScale
 70
     0
300
3" = 1'-0"
140
3.0
141
12.0
290
     0
  0
SCALE
  5
15A
102
{ACAD_REACTORS
330
13A
102
}
330
13A
100
AcDbScale
 70
     0
300
6" = 1'-0"
140
6.0
141
12.0
290
     0
  0
SCALE
  5
15B
102
{ACAD_REACTORS
330
13A
102
}
330
13A
100
AcDbScale
 70
     0
300
1'-0" = 1'-0"
140
12.0
141
12.0
290
     0
  0
VISUALSTYLE
  5
2F
102
{ACAD_REACTORS
330
2A
102
}
102
{ACAD_XDICTIONARY
360
1D7
102
}
330
2A
100
AcDbVisualStyle
  2
2dWireframe
 70
     4
 71
     0
 72
     2
 73
     0
 90
        0
 40
-0.6
 41
-30.0
 62
     5
 63
     7
 74
     1
 91
        4
 64
     7
 65
   257
 75
     1
175
     1
 42
1.0
 92
        0
 66
   257
 43
1.0
 76
     1
 77
     6
 78
     2
 67
     7
 79
     5
170
     0
171
     0
290
     0
174
     0
 93
        1
 44
0.0
173
     0
291
     0
 45
0.0
1001
ACAD
1000
AcDbSavedByObjectVersion
1070
     0
  0
VISUALSTYLE
  5
31
102
{ACAD_REACTORS
330
2A
102
}
102
{ACAD_XDICTIONARY
360
1DB
102
}
330
2A
100
AcDbVisualStyle
  2
3D Hidden
 70
     6
 71
     1
 72
     2
 73
     2
 90
        0
 40
-0.6
 41
-30.0
 62
     5
 63
     7
 74
     2
 91
        2
 64
     7
 65
   257
 75
     2
175
     1
 42
40.0
 92
        0
 66
   257
 43
1.0
 76
     1
 77
     6
 78
     2
 67
     7
 79
     3
170
     0
171
     0
290
     0
174
     0
 93
        1
 44
0.0
173
     0
291
     0
 45
0.0
1001
ACAD
1000
AcDbSavedByObjectVersion
1070
     0
  0
VISUALSTYLE
  5
30
102
{ACAD_REACTORS
330
2A
102
}
102
{ACAD_XDICTIONARY
360
1D9
102
}
330
2A
100
AcDbVisualStyle
  2
3dWireframe
 70
     5
 71
     0
 72
     2
 73
     0
 90
        0
 40
-0.6
 41
-30.0
 62
     5
 63
     7
 74
     1
 91
        4
 64
     7
 65
   257
 75
     1
175
     1
 42
1.0
 92
        0
 66
   257
 43
1.0
 76
     1
 77
     6
 78
     2
 67
     7
 79
     5
170
     0
171
     0
290
     0
174
     0
 93
        1
 44
0.0
173
     0
291
     0
 45
0.0
1001
ACAD
1000
AcDbSavedByObjectVersion
1070
     0
  0
VISUALSTYLE
  5
32
102
{ACAD_REACTORS
330
2A
102
}
102
{ACAD_XDICTIONARY
360
1DD
102
}
330
2A
100
AcDbVisualStyle
  2
Basic
 70
     7
 71
     1
 72
     0
 73
     1
 90
        0
 40
-0.6
 41
-30.0
 62
     5
 63
     7
 74
     0
 91
        4
 64
     7
 65
   257
 75
     1
175
     1
 42
1.0
 92
        8
 66
     7
 43
1.0
 76
     1
 77
     6
 78
     2
 67
     7
 79
     5
170
     0
171
     0
290
     0
174
     0
 93
        1
 44
0.0
173
     0
291
     1
 45
0.0
1001
ACAD
1000
AcDbSavedByObjectVersion
1070
     0
  0
VISUALSTYLE
  5
36
102
{ACAD_REACTORS
330
2A
102
}
102
{ACAD_XDICTIONARY
360
1E5
102
}
330
2A
100
AcDbVisualStyle
  2
Brighten
 70
    12
 71
     2
 72
     2
 73
     0
 90
        0
 40
-0.6
 41
-30.0
 62
     5
 63
     7
 74
     1
 91
        4
 64
     7
 65
   257
 75
     1
175
     1
 42
1.0
 92
        8
 66
     7
 43
1.0
 76
     1
 77
     6
 78
     2
 67
     7
 79
     5
170
     0
171
     0
290
     0
174
     0
 93
        1
 44
50.0
173
     0
291
     1
 45
0.0
1001
ACAD
1000
AcDbSavedByObjectVersion
1070
     0
  0
VISUALSTYLE
  5
3A
102
{ACAD_REACTORS
330
2A
102
}
102
{ACAD_XDICTIONARY
360
1ED
102
}
330
2A
100
AcDbVisualStyle
  2
ColorChange
 70
    16
 71
     2
 72
     2
 73
     3
 90
        0
 40
-0.6
 41
-30.0
 62
     5
 63
     8
 74
     1
 91
        4
 64
     7
 65
   257
 75
     1
175
     1
 42
1.0
 92
        8
 66
     8
 43
1.0
 76
     1
 77
     6
 78
     2
 67
     7
 79
     5
170
     0
171
     0
290
     0
174
     0
 93
        1
 44
0.0
173
     0
291
     1
 45
0.0
1001
ACAD
1000
AcDbSavedByObjectVersion
1070
     0
  0
VISUALSTYLE
  5
34
102
{ACAD_REACTORS
330
2A
102
}
102
{ACAD_XDICTIONARY
360
1E1
102
}
330
2A
100
AcDbVisualStyle
  2
Conceptual
 70
     9
 71
     3
 72
     2
 73
     0
 90
        0
 40
-0.6
 41
-30.0
 62
     5
 63
     7
 74
     2
 91
        2
 64
     7
 65
   257
 75
     1
175
     1
 42
40.0
 92
        8
 66
     7
 43
1.0
 76
     1
 77
     6
 78
     2
 67
     7
 79
     3
170
     0
171
     0
290
     0
174
     0
 93
        1
 44
0.0
173
     0
291
     0
 45
0.0
1001
ACAD
1000
AcDbSavedByObjectVersion
1070
     0
  0
VISUALSTYLE
  5
35
102
{ACAD_REACTORS
330
2A
102
}
102
{ACAD_XDICTIONARY
360
1E3
102
}
330
2A
100
AcDbVisualStyle
  2
Dim
 70
    11
 71
     2
 72
     2
 73
     0
 90
        0
 40
-0.6
 41
-30.0
 62
     5
 63
     7
 74
     1
 91
        4
 64
     7
 65
   257
 75
     1
175
     1
 42
1.0
 92
        8
 66
     7
 43
1.0
 76
     1
 77
     6
 78
     2
 67
     7
 79
     5
170
     0
171
     0
290
     0
174
     0
 93
        1
 44
-50.0
173
     0
291
     1
 45
0.0
1001
ACAD
1000
AcDbSavedByObjectVersion
1070
     0
  0
VISUALSTYLE
  5
39
102
{ACAD_REACTORS
330
2A
102
}
102
{ACAD_XDICTIONARY
360
1EB
102
}
330
2A
100
AcDbVisualStyle
  2
Facepattern
 70
    15
 71
     2
 72
     2
 73
     0
 90
        0
 40
-0.6
 41
-30.0
 62
     5
 63
     7
 74
     1
 91
        4
 64
     7
 65
   257
 75
     1
175
     1
 42
1.0
 92
        8
 66
     7
 43
1.0
 76
     1
 77
     6
 78
     2
 67
     7
 79
     5
170
     0
171
     0
290
     0
174
     0
 93
        1
 44
0.0
173
     0
291
     1
 45
0.0
1001
ACAD
1000
AcDbSavedByObjectVersion
1070
     0
  0
VISUALSTYLE
  5
2B
102
{ACAD_REACTORS
330
2A
102
}
102
{ACAD_XDICTIONARY
360
1CF
102
}
330
2A
100
AcDbVisualStyle
  2
Flat
 70
     0
 71
     2
 72
     1
 73
     1
 90
        2
 40
-0.6
 41
30.0
 62
     5
 63
     7
 74
     0
 91
        4
 64
     7
 65
   257
 75
     1
175
     1
 42
1.0
 92
        8
 66
     7
 43
1.0
 76
     1
 77
     6
 78
     2
 67
     7
 79
     5
170
     0
171
     0
290
     0
174
     0
 93
       13
 44
0.0
173
     0
291
     1
 45
0.0
1001
ACAD
1000
AcDbSavedByObjectVersion
1070
     0
  0
VISUALSTYLE
  5
2C
102
{ACAD_REACTORS
330
2A
102
}
102
{ACAD_XDICTIONARY
360
1D1
102
}
330
2A
100
AcDbVisualStyle
  2
FlatWithEdges
 70
     1
 71
     2
 72
     1
 73
     1
 90
        2
 40
-0.6
 41
30.0
 62
     5
 63
     7
 74
     1
 91
        4
 64
     7
 65
   257
 75
     1
175
     1
 42
1.0
 92
        0
 66
   257
 43
1.0
 76
     1
 77
     6
 78
     2
 67
     7
 79
     5
170
     0
171
     0
290
     0
174
     0
 93
       13
 44
0.0
173
     0
291
     1
 45
0.0
1001
ACAD
1000
AcDbSavedByObjectVersion
1070
     0
  0
VISUALSTYLE
  5
2D
102
{ACAD_REACTORS
330
2A
102
}
102
{ACAD_XDICTIONARY
360
1D3
102
}
330
2A
100
AcDbVisualStyle
  2
Gouraud
 70
     2
 71
     2
 72
     2
 73
     1
 90
        2
 40
-0.6
 41
30.0
 62
     5
 63
     7
 74
     0
 91
        4
 64
     7
 65
   257
 75
     1
175
     1
 42
1.0
 92
        0
 66
     7
 43
1.0
 76
     1
 77
     6
 78
     2
 67
     7
 79
     5
170
     0
171
     0
290
     0
174
     0
 93
       13
 44
0.0
173
     0
291
     1
 45
0.0
1001
ACAD
1000
AcDbSavedByObjectVersion
1070
     0
  0
VISUALSTYLE
  5
2E
102
{ACAD_REACTORS
330
2A
102
}
102
{ACAD_XDICTIONARY
360
1D5
102
}
330
2A
100
AcDbVisualStyle
  2
GouraudWithEdges
 70
     3
 71
     2
 72
     2
 73
     1
 90
        2
 40
-0.6
 41
30.0
 62
     5
 63
     7
 74
     1
 91
        4
 64
     7
 65
   257
 75
     1
175
     1
 42
1.0
 92
        0
 66
   257
 43
1.0
 76
     1
 77
     6
 78
     2
 67
     7
 79
     5
170
     0
171
     0
290
     0
174
     0
 93
       13
 44
0.0
173
     0
291
     1
 45
0.0
1001
ACAD
1000
AcDbSavedByObjectVersion
1070
     0
  0
VISUALSTYLE
  5
38
102
{ACAD_REACTORS
330
2A
102
}
102
{ACAD_XDICTIONARY
360
1E9
102
}
330
2A
100
AcDbVisualStyle
  2
Linepattern
 70
    14
 71
     2
 72
     2
 73
     0
 90
        0
 40
-0.6
 41
-30.0
 62
     5
 63
     7
 74
     1
 91
        4
 64
     7
 65
   257
 75
     7
175
     7
 42
1.0
 92
        8
 66
     7
 43
1.0
 76
     1
 77
     6
 78
     2
 67
     7
 79
     5
170
     0
171
     0
290
     0
174
     0
 93
        1
 44
0.0
173
     0
291
     1
 45
0.0
1001
ACAD
1000
AcDbSavedByObjectVersion
1070
     0
  0
VISUALSTYLE
  5
33
102
{ACAD_REACTORS
330
2A
102
}
102
{ACAD_XDICTIONARY
360
1DF
102
}
330
2A
100
AcDbVisualStyle
  2
Realistic
 70
     8
 71
     2
 72
     2
 73
     0
 90
        0
 40
-0.6
 41
-30.0
 62
     5
 63
     7
 74
     1
 91
        0
 64
     7
 65
   257
 75
     1
175
     1
 42
1.0
 92
        8
 66
     8
 43
1.0
 76
     1
 77
     6
 78
     2
 67
     7
 79
     5
170
     0
171
     0
290
     0
174
     0
 93
       13
 44
0.0
173
     0
291
     0
 45
0.0
1001
ACAD
1000
AcDbSavedByObjectVersion
1070
     0
  0
VISUALSTYLE
  5
37
102
{ACAD_REACTORS
330
2A
102
}
102
{ACAD_XDICTIONARY
360
1E7
102
}
330
2A
100
AcDbVisualStyle
  2
Thicken
 70
    13
 71
     2
 72
     2
 73
     0
 90
        0
 40
-0.6
 41
-30.0
 62
     5
 63
     7
 74
     1
 91
        4
 64
     7
 65
   257
 75
     1
175
     1
 42
1.0
 92
       12
 66
     7
 43
1.0
 76
     1
 77
     6
 78
     2
 67
     7
 79
     5
170
     0
171
     0
290
     0
174
     0
 93
        1
 44
0.0
173
     0
291
     1
 45
0.0
1001
ACAD
1000
AcDbSavedByObjectVersion
1070
     0
  0
DICTIONARYVAR
  5
1CC
102
{ACAD_REACTORS
330
1C9
102
}
330
1C9
100
DictionaryVariables
280
     0
  1
1:1
  0
DICTIONARYVAR
  5
1CD
102
{ACAD_REACTORS
330
1C9
102
}
330
1C9
100
DictionaryVariables
280
     0
  1
2
  0
DICTIONARYVAR
  5
1CE
102
{ACAD_REACTORS
330
1C9
102
}
330
1C9
100
DictionaryVariables
280
     0
  1
1
  0
DICTIONARY
  5
1F1
330
3D
100
AcDbDictionary
280
     1
281
     1
  3
ACAD_XREC_ROUNDTRIP
360
1F2
  0
DICTIONARY
  5
1EF
330
3C
100
AcDbDictionary
280
     1
281
     1
  3
ACAD_XREC_ROUNDTRIP
360
1F0
  0
DICTIONARY
  5
1F3
330
3E
100
AcDbDictionary
280
     1
281
     1
  3
ACAD_XREC_ROUNDTRIP
360
1F4
  0
DICTIONARY
  5
1D7
330
2F
100
AcDbDictionary
280
     1
281
     1
  3
ACAD_XREC_ROUNDTRIP
360
1D8
  0
DICTIONARY
  5
1DB
330
31
100
AcDbDictionary
280
     1
281
     1
  3
ACAD_XREC_ROUNDTRIP
360
1DC
  0
DICTIONARY
  5
1D9
330
30
100
AcDbDictionary
280
     1
281
     1
  3
ACAD_XREC_ROUNDTRIP
360
1DA
  0
DICTIONARY
  5
1DD
330
32
100
AcDbDictionary
280
     1
281
     1
  3
ACAD_XREC_ROUNDTRIP
360
1DE
  0
DICTIONARY
  5
1E5
330
36
100
AcDbDictionary
280
     1
281
     1
  3
ACAD_XREC_ROUNDTRIP
360
1E6
  0
DICTIONARY
  5
1ED
330
3A
100
AcDbDictionary
280
     1
281
     1
  3
ACAD_XREC_ROUNDTRIP
360
1EE
  0
DICTIONARY
  5
1E1
330
34
100
AcDbDictionary
280
     1
281
     1
  3
ACAD_XREC_ROUNDTRIP
360
1E2
  0
DICTIONARY
  5
1E3
330
35
100
AcDbDictionary
280
     1
281
     1
  3
ACAD_XREC_ROUNDTRIP
360
1E4
  0
DICTIONARY
  5
1EB
330
39
100
AcDbDictionary
280
     1
281
     1
  3
ACAD_XREC_ROUNDTRIP
360
1EC
  0
DICTIONARY
  5
1CF
330
2B
100
AcDbDictionary
280
     1
281
     1
  3
ACAD_XREC_ROUNDTRIP
360
1D0
  0
DICTIONARY
  5
1D1
330
2C
100
AcDbDictionary
280
     1
281
     1
  3
ACAD_XREC_ROUNDTRIP
360
1D2
  0
DICTIONARY
  5
1D3
330
2D
100
AcDbDictionary
280
     1
281
     1
  3
ACAD_XREC_ROUNDTRIP
360
1D4
  0
DICTIONARY
  5
1D5
330
2E
100
AcDbDictionary
280
     1
281
     1
  3
ACAD_XREC_ROUNDTRIP
360
1D6
  0
DICTIONARY
  5
1E9
330
38
100
AcDbDictionary
280
     1
281
     1
  3
ACAD_XREC_ROUNDTRIP
360
1EA
  0
DICTIONARY
  5
1DF
330
33
100
AcDbDictionary
280
     1
281
     1
  3
ACAD_XREC_ROUNDTRIP
360
1E0
  0
DICTIONARY
  5
1E7
330
37
100
AcDbDictionary
280
     1
281
     1
  3
ACAD_XREC_ROUNDTRIP
360
1E8
  0
XRECORD
  5
1F2
102
{ACAD_REACTORS
330
1F1
102
}
330
1F1
100
AcDbXrecord
280
     1
102
MATERIAL
148
0.0
149
0.0
149
0.0
 93
        0
 94
      127
282
     0
 72
     1
 77
     1
171
     1
175
     1
179
     1
273
     0
  0
XRECORD
  5
1F0
102
{ACAD_REACTORS
330
1EF
102
}
330
1EF
100
AcDbXrecord
280
     1
102
MATERIAL
148
0.0
149
0.0
149
0.0
 93
        0
 94
      127
282
     0
 72
     1
 77
     1
171
     1
175
     1
179
     1
273
     0
  0
XRECORD
  5
1F4
102
{ACAD_REACTORS
330
1F3
102
}
330
1F3
100
AcDbXrecord
280
     1
102
MATERIAL
148
0.0
149
0.0
149
0.0
 93
        0
 94
      127
282
     0
 72
     1
 77
     1
171
     1
175
     1
179
     1
273
     0
  0
XRECORD
  5
1D8
102
{ACAD_REACTORS
330
1D7
102
}
330
1D7
100
AcDbXrecord
280
     1
102
RTVSPropertyOp0
 70
     1
102
RTVSPropertyOp1
 70
     1
102
RTVSPropertyOp2
 70
     1
102
RTVSPropertyOp3
 70
     1
102
RTVSPropertyOp4
 70
     1
102
RTVSPropertyOp5
 70
     1
102
RTVSPropertyOp6
 70
     1
102
RTVSPropertyOp7
 70
     1
102
RTVSPropertyOp8
 70
     1
102
RTVSPropertyOp9
 70
     1
102
RTVSPropertyOp10
 70
     1
102
RTVSPropertyOp11
 70
     1
102
RTVSPropertyOp12
 70
     1
102
RTVSPropertyOp13
 70
     1
102
RTVSPropertyOp14
 70
     1
102
RTVSPropertyOp15
 70
     1
102
RTVSPropertyOp16
 70
     1
102
RTVSPropertyOp17
 70
     1
102
RTVSPropertyOp18
 70
     1
102
RTVSPropertyOp19
 70
     1
102
RTVSPropertyOp20
 70
     1
102
RTVSPropertyOp21
 70
     1
102
RTVSPropertyOp22
 70
     1
102
RTVSPropertyOp23
 70
     1
102
RTVSPropertyOp24
 70
     1
102
RTVSPropertyOp25
 70
     1
102
RTVSPropertyOp26
 70
     1
102
RTVSPropertyOp27
 70
     1
  0
XRECORD
  5
1DC
102
{ACAD_REACTORS
330
1DB
102
}
330
1DB
100
AcDbXrecord
280
     1
102
RTVSPropertyOp0
 70
     1
102
RTVSPropertyOp1
 70
     1
102
RTVSPropertyOp2
 70
     1
102
RTVSPropertyOp3
 70
     1
102
RTVSPropertyOp4
 70
     1
102
RTVSPropertyOp5
 70
     1
102
RTVSPropertyOp6
 70
     1
102
RTVSPropertyOp7
 70
     1
102
RTVSPropertyOp8
 70
     1
102
RTVSPropertyOp9
 70
     1
102
RTVSPropertyOp10
 70
     1
102
RTVSPropertyOp11
 70
     1
102
RTVSPropertyOp12
 70
     1
102
RTVSPropertyOp13
 70
     1
102
RTVSPropertyOp14
 70
     1
102
RTVSPropertyOp15
 70
     1
102
RTVSPropertyOp16
 70
     1
102
RTVSPropertyOp17
 70
     1
102
RTVSPropertyOp18
 70
     1
102
RTVSPropertyOp19
 70
     1
102
RTVSPropertyOp20
 70
     1
102
RTVSPropertyOp21
 70
     1
102
RTVSPropertyOp22
 70
     1
102
RTVSPropertyOp23
 70
     1
102
RTVSPropertyOp24
 70
     1
102
RTVSPropertyOp25
 70
     1
102
RTVSPropertyOp26
 70
     1
102
RTVSPropertyOp27
 70
     1
  0
XRECORD
  5
1DA
102
{ACAD_REACTORS
330
1D9
102
}
330
1D9
100
AcDbXrecord
280
     1
102
RTVSPropertyOp0
 70
     1
102
RTVSPropertyOp1
 70
     1
102
RTVSPropertyOp2
 70
     1
102
RTVSPropertyOp3
 70
     1
102
RTVSPropertyOp4
 70
     1
102
RTVSPropertyOp5
 70
     1
102
RTVSPropertyOp6
 70
     1
102
RTVSPropertyOp7
 70
     1
102
RTVSPropertyOp8
 70
     1
102
RTVSPropertyOp9
 70
     1
102
RTVSPropertyOp10
 70
     1
102
RTVSPropertyOp11
 70
     1
102
RTVSPropertyOp12
 70
     1
102
RTVSPropertyOp13
 70
     1
102
RTVSPropertyOp14
 70
     1
102
RTVSPropertyOp15
 70
     1
102
RTVSPropertyOp16
 70
     1
102
RTVSPropertyOp17
 70
     1
102
RTVSPropertyOp18
 70
     1
102
RTVSPropertyOp19
 70
     1
102
RTVSPropertyOp20
 70
     1
102
RTVSPropertyOp21
 70
     1
102
RTVSPropertyOp22
 70
     1
102
RTVSPropertyOp23
 70
     1
102
RTVSPropertyOp24
 70
     1
102
RTVSPropertyOp25
 70
     1
102
RTVSPropertyOp26
 70
     1
102
RTVSPropertyOp27
 70
     1
  0
XRECORD
  5
1DE
102
{ACAD_REACTORS
330
1DD
102
}
330
1DD
100
AcDbXrecord
280
     1
102
RTVSPropertyOp0
 70
     1
102
RTVSPropertyOp1
 70
     1
102
RTVSPropertyOp2
 70
     1
102
RTVSPropertyOp3
 70
     1
102
RTVSPropertyOp4
 70
     1
102
RTVSPropertyOp5
 70
     1
102
RTVSPropertyOp6
 70
     1
102
RTVSPropertyOp7
 70
     1
102
RTVSPropertyOp8
 70
     1
102
RTVSPropertyOp9
 70
     1
102
RTVSPropertyOp10
 70
     1
102
RTVSPropertyOp11
 70
     1
102
RTVSPropertyOp12
 70
     1
102
RTVSPropertyOp13
 70
     1
102
RTVSPropertyOp14
 70
     1
102
RTVSPropertyOp15
 70
     1
102
RTVSPropertyOp16
 70
     1
102
RTVSPropertyOp17
 70
     1
102
RTVSPropertyOp18
 70
     1
102
RTVSPropertyOp19
 70
     1
102
RTVSPropertyOp20
 70
     1
102
RTVSPropertyOp21
 70
     1
102
RTVSPropertyOp22
 70
     1
102
RTVSPropertyOp23
 70
     1
102
RTVSPropertyOp24
 70
     1
102
RTVSPropertyOp25
 70
     1
102
RTVSPropertyOp26
 70
     1
102
RTVSPropertyOp27
 70
     1
  0
XRECORD
  5
1E6
102
{ACAD_REACTORS
330
1E5
102
}
330
1E5
100
AcDbXrecord
280
     1
102
RTVSPropertyOp0
 70
     1
102
RTVSPropertyOp1
 70
     1
102
RTVSPropertyOp2
 70
     1
102
RTVSPropertyOp3
 70
     1
102
RTVSPropertyOp4
 70
     1
102
RTVSPropertyOp5
 70
     1
102
RTVSPropertyOp6
 70
     1
102
RTVSPropertyOp7
 70
     1
102
RTVSPropertyOp8
 70
     1
102
RTVSPropertyOp9
 70
     1
102
RTVSPropertyOp10
 70
     1
102
RTVSPropertyOp11
 70
     1
102
RTVSPropertyOp12
 70
     1
102
RTVSPropertyOp13
 70
     1
102
RTVSPropertyOp14
 70
     1
102
RTVSPropertyOp15
 70
     1
102
RTVSPropertyOp16
 70
     1
102
RTVSPropertyOp17
 70
     1
102
RTVSPropertyOp18
 70
     1
102
RTVSPropertyOp19
 70
     1
102
RTVSPropertyOp20
 70
     1
102
RTVSPropertyOp21
 70
     1
102
RTVSPropertyOp22
 70
     1
102
RTVSPropertyOp23
 70
     1
102
RTVSPropertyOp24
 70
     1
102
RTVSPropertyOp25
 70
     1
102
RTVSPropertyOp26
 70
     1
102
RTVSPropertyOp27
 70
     1
  0
XRECORD
  5
1EE
102
{ACAD_REACTORS
330
1ED
102
}
330
1ED
100
AcDbXrecord
280
     1
102
RTVSPropertyOp0
 70
     1
102
RTVSPropertyOp1
 70
     1
102
RTVSPropertyOp2
 70
     1
102
RTVSPropertyOp3
 70
     1
102
RTVSPropertyOp4
 70
     1
102
RTVSPropertyOp5
 70
     1
102
RTVSPropertyOp6
 70
     1
102
RTVSPropertyOp7
 70
     1
102
RTVSPropertyOp8
 70
     1
102
RTVSPropertyOp9
 70
     1
102
RTVSPropertyOp10
 70
     1
102
RTVSPropertyOp11
 70
     1
102
RTVSPropertyOp12
 70
     1
102
RTVSPropertyOp13
 70
     1
102
RTVSPropertyOp14
 70
     1
102
RTVSPropertyOp15
 70
     1
102
RTVSPropertyOp16
 70
     1
102
RTVSPropertyOp17
 70
     1
102
RTVSPropertyOp18
 70
     1
102
RTVSPropertyOp19
 70
     1
102
RTVSPropertyOp20
 70
     1
102
RTVSPropertyOp21
 70
     1
102
RTVSPropertyOp22
 70
     1
102
RTVSPropertyOp23
 70
     1
102
RTVSPropertyOp24
 70
     1
102
RTVSPropertyOp25
 70
     1
102
RTVSPropertyOp26
 70
     1
102
RTVSPropertyOp27
 70
     1
  0
XRECORD
  5
1E2
102
{ACAD_REACTORS
330
1E1
102
}
330
1E1
100
AcDbXrecord
280
     1
102
RTVSPropertyOp0
 70
     1
102
RTVSPropertyOp1
 70
     1
102
RTVSPropertyOp2
 70
     1
102
RTVSPropertyOp3
 70
     1
102
RTVSPropertyOp4
 70
     1
102
RTVSPropertyOp5
 70
     1
102
RTVSPropertyOp6
 70
     1
102
RTVSPropertyOp7
 70
     1
102
RTVSPropertyOp8
 70
     1
102
RTVSPropertyOp9
 70
     1
102
RTVSPropertyOp10
 70
     1
102
RTVSPropertyOp11
 70
     1
102
RTVSPropertyOp12
 70
     1
102
RTVSPropertyOp13
 70
     1
102
RTVSPropertyOp14
 70
     1
102
RTVSPropertyOp15
 70
     1
102
RTVSPropertyOp16
 70
     1
102
RTVSPropertyOp17
 70
     1
102
RTVSPropertyOp18
 70
     1
102
RTVSPropertyOp19
 70
     1
102
RTVSPropertyOp20
 70
     1
102
RTVSPropertyOp21
 70
     1
102
RTVSPropertyOp22
 70
     1
102
RTVSPropertyOp23
 70
     1
102
RTVSPropertyOp24
 70
     1
102
RTVSPropertyOp25
 70
     1
102
RTVSPropertyOp26
 70
     1
102
RTVSPropertyOp27
 70
     1
  0
XRECORD
  5
1E4
102
{ACAD_REACTORS
330
1E3
102
}
330
1E3
100
AcDbXrecord
280
     1
102
RTVSPropertyOp0
 70
     1
102
RTVSPropertyOp1
 70
     1
102
RTVSPropertyOp2
 70
     1
102
RTVSPropertyOp3
 70
     1
102
RTVSPropertyOp4
 70
     1
102
RTVSPropertyOp5
 70
     1
102
RTVSPropertyOp6
 70
     1
102
RTVSPropertyOp7
 70
     1
102
RTVSPropertyOp8
 70
     1
102
RTVSPropertyOp9
 70
     1
102
RTVSPropertyOp10
 70
     1
102
RTVSPropertyOp11
 70
     1
102
RTVSPropertyOp12
 70
     1
102
RTVSPropertyOp13
 70
     1
102
RTVSPropertyOp14
 70
     1
102
RTVSPropertyOp15
 70
     1
102
RTVSPropertyOp16
 70
     1
102
RTVSPropertyOp17
 70
     1
102
RTVSPropertyOp18
 70
     1
102
RTVSPropertyOp19
 70
     1
102
RTVSPropertyOp20
 70
     1
102
RTVSPropertyOp21
 70
     1
102
RTVSPropertyOp22
 70
     1
102
RTVSPropertyOp23
 70
     1
102
RTVSPropertyOp24
 70
     1
102
RTVSPropertyOp25
 70
     1
102
RTVSPropertyOp26
 70
     1
102
RTVSPropertyOp27
 70
     1
  0
XRECORD
  5
1EC
102
{ACAD_REACTORS
330
1EB
102
}
330
1EB
100
AcDbXrecord
280
     1
102
RTVSPropertyOp0
 70
     1
102
RTVSPropertyOp1
 70
     1
102
RTVSPropertyOp2
 70
     1
102
RTVSPropertyOp3
 70
     1
102
RTVSPropertyOp4
 70
     1
102
RTVSPropertyOp5
 70
     1
102
RTVSPropertyOp6
 70
     1
102
RTVSPropertyOp7
 70
     1
102
RTVSPropertyOp8
 70
     1
102
RTVSPropertyOp9
 70
     1
102
RTVSPropertyOp10
 70
     1
102
RTVSPropertyOp11
 70
     1
102
RTVSPropertyOp12
 70
     1
102
RTVSPropertyOp13
 70
     1
102
RTVSPropertyOp14
 70
     1
102
RTVSPropertyOp15
 70
     1
102
RTVSPropertyOp16
 70
     1
102
RTVSPropertyOp17
 70
     1
102
RTVSPropertyOp18
 70
     1
102
RTVSPropertyOp19
 70
     1
102
RTVSPropertyOp20
 70
     1
102
RTVSPropertyOp21
 70
     1
102
RTVSPropertyOp22
 70
     1
102
RTVSPropertyOp23
 70
     1
102
RTVSPropertyOp24
 70
     1
102
RTVSPropertyOp25
 70
     1
102
RTVSPropertyOp26
 70
     1
102
RTVSPropertyOp27
 70
     1
  0
XRECORD
  5
1D0
102
{ACAD_REACTORS
330
1CF
102
}
330
1CF
100
AcDbXrecord
280
     1
102
RTVSPropertyOp0
 70
     1
102
RTVSPropertyOp1
 70
     1
102
RTVSPropertyOp2
 70
     1
102
RTVSPropertyOp3
 70
     1
102
RTVSPropertyOp4
 70
     1
102
RTVSPropertyOp5
 70
     1
102
RTVSPropertyOp6
 70
     1
102
RTVSPropertyOp7
 70
     1
102
RTVSPropertyOp8
 70
     1
102
RTVSPropertyOp9
 70
     1
102
RTVSPropertyOp10
 70
     1
102
RTVSPropertyOp11
 70
     1
102
RTVSPropertyOp12
 70
     1
102
RTVSPropertyOp13
 70
     1
102
RTVSPropertyOp14
 70
     1
102
RTVSPropertyOp15
 70
     1
102
RTVSPropertyOp16
 70
     1
102
RTVSPropertyOp17
 70
     1
102
RTVSPropertyOp18
 70
     1
102
RTVSPropertyOp19
 70
     1
102
RTVSPropertyOp20
 70
     1
102
RTVSPropertyOp21
 70
     1
102
RTVSPropertyOp22
 70
     1
102
RTVSPropertyOp23
 70
     1
102
RTVSPropertyOp24
 70
     1
102
RTVSPropertyOp25
 70
     1
102
RTVSPropertyOp26
 70
     1
102
RTVSPropertyOp27
 70
     1
  0
XRECORD
  5
1D2
102
{ACAD_REACTORS
330
1D1
102
}
330
1D1
100
AcDbXrecord
280
     1
102
RTVSPropertyOp0
 70
     1
102
RTVSPropertyOp1
 70
     1
102
RTVSPropertyOp2
 70
     1
102
RTVSPropertyOp3
 70
     1
102
RTVSPropertyOp4
 70
     1
102
RTVSPropertyOp5
 70
     1
102
RTVSPropertyOp6
 70
     1
102
RTVSPropertyOp7
 70
     1
102
RTVSPropertyOp8
 70
     1
102
RTVSPropertyOp9
 70
     1
102
RTVSPropertyOp10
 70
     1
102
RTVSPropertyOp11
 70
     1
102
RTVSPropertyOp12
 70
     1
102
RTVSPropertyOp13
 70
     1
102
RTVSPropertyOp14
 70
     1
102
RTVSPropertyOp15
 70
     1
102
RTVSPropertyOp16
 70
     1
102
RTVSPropertyOp17
 70
     1
102
RTVSPropertyOp18
 70
     1
102
RTVSPropertyOp19
 70
     1
102
RTVSPropertyOp20
 70
     1
102
RTVSPropertyOp21
 70
     1
102
RTVSPropertyOp22
 70
     1
102
RTVSPropertyOp23
 70
     1
102
RTVSPropertyOp24
 70
     1
102
RTVSPropertyOp25
 70
     1
102
RTVSPropertyOp26
 70
     1
102
RTVSPropertyOp27
 70
     1
  0
XRECORD
  5
1D4
102
{ACAD_REACTORS
330
1D3
102
}
330
1D3
100
AcDbXrecord
280
     1
102
RTVSPropertyOp0
 70
     1
102
RTVSPropertyOp1
 70
     1
102
RTVSPropertyOp2
 70
     1
102
RTVSPropertyOp3
 70
     1
102
RTVSPropertyOp4
 70
     1
102
RTVSPropertyOp5
 70
     1
102
RTVSPropertyOp6
 70
     1
102
RTVSPropertyOp7
 70
     1
102
RTVSPropertyOp8
 70
     1
102
RTVSPropertyOp9
 70
     1
102
RTVSPropertyOp10
 70
     1
102
RTVSPropertyOp11
 70
     1
102
RTVSPropertyOp12
 70
     1
102
RTVSPropertyOp13
 70
     1
102
RTVSPropertyOp14
 70
     1
102
RTVSPropertyOp15
 70
     1
102
RTVSPropertyOp16
 70
     1
102
RTVSPropertyOp17
 70
     1
102
RTVSPropertyOp18
 70
     1
102
RTVSPropertyOp19
 70
     1
102
RTVSPropertyOp20
 70
     1
102
RTVSPropertyOp21
 70
     1
102
RTVSPropertyOp22
 70
     1
102
RTVSPropertyOp23
 70
     1
102
RTVSPropertyOp24
 70
     1
102
RTVSPropertyOp25
 70
     1
102
RTVSPropertyOp26
 70
     1
102
RTVSPropertyOp27
 70
     1
  0
XRECORD
  5
1D6
102
{ACAD_REACTORS
330
1D5
102
}
330
1D5
100
AcDbXrecord
280
     1
102
RTVSPropertyOp0
 70
     1
102
RTVSPropertyOp1
 70
     1
102
RTVSPropertyOp2
 70
     1
102
RTVSPropertyOp3
 70
     1
102
RTVSPropertyOp4
 70
     1
102
RTVSPropertyOp5
 70
     1
102
RTVSPropertyOp6
 70
     1
102
RTVSPropertyOp7
 70
     1
102
RTVSPropertyOp8
 70
     1
102
RTVSPropertyOp9
 70
     1
102
RTVSPropertyOp10
 70
     1
102
RTVSPropertyOp11
 70
     1
102
RTVSPropertyOp12
 70
     1
102
RTVSPropertyOp13
 70
     1
102
RTVSPropertyOp14
 70
     1
102
RTVSPropertyOp15
 70
     1
102
RTVSPropertyOp16
 70
     1
102
RTVSPropertyOp17
 70
     1
102
RTVSPropertyOp18
 70
     1
102
RTVSPropertyOp19
 70
     1
102
RTVSPropertyOp20
 70
     1
102
RTVSPropertyOp21
 70
     1
102
RTVSPropertyOp22
 70
     1
102
RTVSPropertyOp23
 70
     1
102
RTVSPropertyOp24
 70
     1
102
RTVSPropertyOp25
 70
     1
102
RTVSPropertyOp26
 70
     1
102
RTVSPropertyOp27
 70
     1
  0
XRECORD
  5
1EA
102
{ACAD_REACTORS
330
1E9
102
}
330
1E9
100
AcDbXrecord
280
     1
102
RTVSPropertyOp0
 70
     1
102
RTVSPropertyOp1
 70
     1
102
RTVSPropertyOp2
 70
     1
102
RTVSPropertyOp3
 70
     1
102
RTVSPropertyOp4
 70
     1
102
RTVSPropertyOp5
 70
     1
102
RTVSPropertyOp6
 70
     1
102
RTVSPropertyOp7
 70
     1
102
RTVSPropertyOp8
 70
     1
102
RTVSPropertyOp9
 70
     1
102
RTVSPropertyOp10
 70
     1
102
RTVSPropertyOp11
 70
     1
102
RTVSPropertyOp12
 70
     1
102
RTVSPropertyOp13
 70
     1
102
RTVSPropertyOp14
 70
     1
102
RTVSPropertyOp15
 70
     1
102
RTVSPropertyOp16
 70
     1
102
RTVSPropertyOp17
 70
     1
102
RTVSPropertyOp18
 70
     1
102
RTVSPropertyOp19
 70
     1
102
RTVSPropertyOp20
 70
     1
102
RTVSPropertyOp21
 70
     1
102
RTVSPropertyOp22
 70
     1
102
RTVSPropertyOp23
 70
     1
102
RTVSPropertyOp24
 70
     1
102
RTVSPropertyOp25
 70
     1
102
RTVSPropertyOp26
 70
     1
102
RTVSPropertyOp27
 70
     1
  0
XRECORD
  5
1E0
102
{ACAD_REACTORS
330
1DF
102
}
330
1DF
100
AcDbXrecord
280
     1
102
RTVSPropertyOp0
 70
     1
102
RTVSPropertyOp1
 70
     1
102
RTVSPropertyOp2
 70
     1
102
RTVSPropertyOp3
 70
     1
102
RTVSPropertyOp4
 70
     1
102
RTVSPropertyOp5
 70
     1
102
RTVSPropertyOp6
 70
     1
102
RTVSPropertyOp7
 70
     1
102
RTVSPropertyOp8
 70
     1
102
RTVSPropertyOp9
 70
     1
102
RTVSPropertyOp10
 70
     1
102
RTVSPropertyOp11
 70
     1
102
RTVSPropertyOp12
 70
     1
102
RTVSPropertyOp13
 70
     1
102
RTVSPropertyOp14
 70
     1
102
RTVSPropertyOp15
 70
     1
102
RTVSPropertyOp16
 70
     1
102
RTVSPropertyOp17
 70
     1
102
RTVSPropertyOp18
 70
     1
102
RTVSPropertyOp19
 70
     1
102
RTVSPropertyOp20
 70
     1
102
RTVSPropertyOp21
 70
     1
102
RTVSPropertyOp22
 70
     1
102
RTVSPropertyOp23
 70
     1
102
RTVSPropertyOp24
 70
     1
102
RTVSPropertyOp25
 70
     1
102
RTVSPropertyOp26
 70
     1
102
RTVSPropertyOp27
 70
     1
  0
XRECORD
  5
1E8
102
{ACAD_REACTORS
330
1E7
102
}
330
1E7
100
AcDbXrecord
280
     1
102
RTVSPropertyOp0
 70
     1
102
RTVSPropertyOp1
 70
     1
102
RTVSPropertyOp2
 70
     1
102
RTVSPropertyOp3
 70
     1
102
RTVSPropertyOp4
 70
     1
102
RTVSPropertyOp5
 70
     1
102
RTVSPropertyOp6
 70
     1
102
RTVSPropertyOp7
 70
     1
102
RTVSPropertyOp8
 70
     1
102
RTVSPropertyOp9
 70
     1
102
RTVSPropertyOp10
 70
     1
102
RTVSPropertyOp11
 70
     1
102
RTVSPropertyOp12
 70
     1
102
RTVSPropertyOp13
 70
     1
102
RTVSPropertyOp14
 70
     1
102
RTVSPropertyOp15
 70
     1
102
RTVSPropertyOp16
 70
     1
102
RTVSPropertyOp17
 70
     1
102
RTVSPropertyOp18
 70
     1
102
RTVSPropertyOp19
 70
     1
102
RTVSPropertyOp20
 70
     1
102
RTVSPropertyOp21
 70
     1
102
RTVSPropertyOp22
 70
     1
102
RTVSPropertyOp23
 70
     1
102
RTVSPropertyOp24
 70
     1
102
RTVSPropertyOp25
 70
     1
102
RTVSPropertyOp26
 70
     1
102
RTVSPropertyOp27
 70
     1
  0
ENDSEC
  0
EOF
