  0
SECTION
  2
HEADER
  9
$ACADVER
  1
AC1015
  9
$ACADMAINTVER
 70
     6
  9
$DWGCODEPAGE
  3
ANSI_1250
  9
$INSBASE
 10
0.0
 20
0.0
 30
0.0
  9
$EXTMIN
 10
-37.5883
 20
-37.6397
 30
0.0
  9
$EXTMAX
 10
37.5883
 20
37.5687
 30
0.0
  9
$LIMMIN
 10
0.0
 20
0.0
  9
$LIMMAX
 10
12.0
 20
9.0
  9
$ORTHOMODE
 70
     0
  9
$REGENMODE
 70
     1
  9
$FILLMODE
 70
     1
  9
$QTEXTMODE
 70
     0
  9
$MIRRTEXT
 70
     1
  9
$LTSCALE
 40
1.0
  9
$ATTMODE
 70
     1
  9
$TEXTSIZE
 40
0.2
  9
$TRACEWID
 40
0.05
  9
$TEXTSTYLE
  7
Standard
  9
$CLAYER
  8
0
  9
$CELTYPE
  6
ByLayer
  9
$CECOLOR
 62
   256
  9
$CELTSCALE
 40
1.0
  9
$DISPSILH
 70
     0
  9
$DIMSCALE
 40
1.0
  9
$DIMASZ
 40
0.18
  9
$DIMEXO
 40
0.0625
  9
$DIMDLI
 40
0.38
  9
$DIMRND
 40
0.0
  9
$DIMDLE
 40
0.0
  9
$DIMEXE
 40
0.18
  9
$DIMTP
 40
0.0
  9
$DIMTM
 40
0.0
  9
$DIMTXT
 40
0.18
  9
$DIMCEN
 40
0.09
  9
$DIMTSZ
 40
0.0
  9
$DIMTOL
 70
     0
  9
$DIMLIM
 70
     0
  9
$DIMTIH
 70
     1
  9
$DIMTOH
 70
     1
  9
$DIMSE1
 70
     0
  9
$DIMSE2
 70
     0
  9
$DIMTAD
 70
     0
  9
$DIMZIN
 70
     0
  9
$DIMBLK
  1

  9
$DIMASO
 70
     1
  9
$DIMSHO
 70
     1
  9
$DIMPOST
  1

  9
$DIMAPOST
  1

  9
$DIMALT
 70
     0
  9
$DIMALTD
 70
     2
  9
$DIMALTF
 40
25.4
  9
$DIMLFAC
 40
1.0
  9
$DIMTOFL
 70
     0
  9
$DIMTVP
 40
0.0
  9
$DIMTIX
 70
     0
  9
$DIMSOXD
 70
     0
  9
$DIMSAH
 70
     0
  9
$DIMBLK1
  1

  9
$DIMBLK2
  1

  9
$DIMSTYLE
  2
Standard
  9
$DIMCLRD
 70
     0
  9
$DIMCLRE
 70
     0
  9
$DIMCLRT
 70
     0
  9
$DIMTFAC
 40
1.0
  9
$DIMGAP
 40
0.09
  9
$DIMJUST
 70
     0
  9
$DIMSD1
 70
     0
  9
$DIMSD2
 70
     0
  9
$DIMTOLJ
 70
     1
  9
$DIMTZIN
 70
     0
  9
$DIMALTZ
 70
     0
  9
$DIMALTTZ
 70
     0
  9
$DIMUPT
 70
     0
  9
$DIMDEC
 70
     4
  9
$DIMTDEC
 70
     4
  9
$DIMALTU
 70
     2
  9
$DIMALTTD
 70
     2
  9
$DIMTXSTY
  7
Standard
  9
$DIMAUNIT
 70
     0
  9
$DIMADEC
 70
     0
  9
$DIMALTRND
 40
0.0
  9
$DIMAZIN
 70
     0
  9
$DIMDSEP
 70
    46
  9
$DIMATFIT
 70
     3
  9
$DIMFRAC
 70
     0
  9
$DIMLDRBLK
  1

  9
$DIMLUNIT
 70
     2
  9
$DIMLWD
 70
    -2
  9
$DIMLWE
 70
    -2
  9
$DIMTMOVE
 70
     0
  9
$LUNITS
 70
     2
  9
$LUPREC
 70
     4
  9
$SKETCHINC
 40
0.1
  9
$FILLETRAD
 40
0.5
  9
$AUNITS
 70
     0
  9
$AUPREC
 70
     0
  9
$MENU
  1
.
  9
$ELEVATION
 40
0.0
  9
$PELEVATION
 40
0.0
  9
$THICKNESS
 40
0.0
  9
$LIMCHECK
 70
     0
  9
$CHAMFERA
 40
0.5
  9
$CHAMFERB
 40
0.5
  9
$CHAMFERC
 40
1.0
  9
$CHAMFERD
 40
0.0
  9
$SKPOLY
 70
     0
  9
$TDCREATE
 40
2457822.540054283
  9
$TDUCREATE
 40
2457822.498387616
  9
$TDUPDATE
 40
2457822.540054294
  9
$TDUUPDATE
 40
2457822.498387627
  9
$TDINDWG
 40
0.0000000116
  9
$TDUSRTIMER
 40
0.0000000116
  9
$USRTIMER
 70
     1
  9
$ANGBASE
 50
0.0
  9
$ANGDIR
 70
     0
  9
$PDMODE
 70
     0
  9
$PDSIZE
 40
0.0
  9
$PLINEWID
 40
0.0
  9
$SPLFRAME
 70
     0
  9
$SPLINETYPE
 70
     6
  9
$SPLINESEGS
 70
     8
  9
$HANDSEED
  5
1C8
  9
$SURFTAB1
 70
     6
  9
$SURFTAB2
 70
     6
  9
$SURFTYPE
 70
     6
  9
$SURFU
 70
     6
  9
$SURFV
 70
     6
  9
$UCSBASE
  2

  9
$UCSNAME
  2

  9
$UCSORG
 10
0.0
 20
0.0
 30
0.0
  9
$UCSXDIR
 10
1.0
 20
0.0
 30
0.0
  9
$UCSYDIR
 10
0.0
 20
1.0
 30
0.0
  9
$UCSORTHOREF
  2

  9
$UCSORTHOVIEW
 70
     0
  9
$UCSORGTOP
 10
0.0
 20
0.0
 30
0.0
  9
$UCSORGBOTTOM
 10
0.0
 20
0.0
 30
0.0
  9
$UCSORGLEFT
 10
0.0
 20
0.0
 30
0.0
  9
$UCSORGRIGHT
 10
0.0
 20
0.0
 30
0.0
  9
$UCSORGFRONT
 10
0.0
 20
0.0
 30
0.0
  9
$UCSORGBACK
 10
0.0
 20
0.0
 30
0.0
  9
$PUCSBASE
  2

  9
$PUCSNAME
  2

  9
$PUCSORG
 10
0.0
 20
0.0
 30
0.0
  9
$PUCSXDIR
 10
1.0
 20
0.0
 30
0.0
  9
$PUCSYDIR
 10
0.0
 20
1.0
 30
0.0
  9
$PUCSORTHOREF
  2

  9
$PUCSORTHOVIEW
 70
     0
  9
$PUCSORGTOP
 10
0.0
 20
0.0
 30
0.0
  9
$PUCSORGBOTTOM
 10
0.0
 20
0.0
 30
0.0
  9
$PUCSORGLEFT
 10
0.0
 20
0.0
 30
0.0
  9
$PUCSORGRIGHT
 10
0.0
 20
0.0
 30
0.0
  9
$PUCSORGFRONT
 10
0.0
 20
0.0
 30
0.0
  9
$PUCSORGBACK
 10
0.0
 20
0.0
 30
0.0
  9
$USERI1
 70
     0
  9
$USERI2
 70
     0
  9
$USERI3
 70
     0
  9
$USERI4
 70
     0
  9
$USERI5
 70
     0
  9
$USERR1
 40
0.0
  9
$USERR2
 40
0.0
  9
$USERR3
 40
0.0
  9
$USERR4
 40
0.0
  9
$USERR5
 40
0.0
  9
$WORLDVIEW
 70
     1
  9
$SHADEDGE
 70
     3
  9
$SHADEDIF
 70
    70
  9
$TILEMODE
 70
     1
  9
$MAXACTVP
 70
    64
  9
$PINSBASE
 10
0.0
 20
0.0
 30
0.0
  9
$PLIMCHECK
 70
     0
  9
$PEXTMIN
 10
1.000000000000000E+20
 20
1.000000000000000E+20
 30
1.000000000000000E+20
  9
$PEXTMAX
 10
-1.000000000000000E+20
 20
-1.000000000000000E+20
 30
-1.000000000000000E+20
  9
$PLIMMIN
 10
0.0
 20
0.0
  9
$PLIMMAX
 10
12.0
 20
9.0
  9
$UNITMODE
 70
     0
  9
$VISRETAIN
 70
     1
  9
$PLINEGEN
 70
     0
  9
$PSLTSCALE
 70
     1
  9
$TREEDEPTH
 70
  3020
  9
$CMLSTYLE
  2
Standard
  9
$CMLJUST
 70
     0
  9
$CMLSCALE
 40
1.0
  9
$PROXYGRAPHICS
 70
     1
  9
$MEASUREMENT
 70
     0
  9
$CELWEIGHT
370
    -1
  9
$ENDCAPS
280
     0
  9
$JOINSTYLE
280
     0
  9
$LWDISPLAY
290
     0
  9
$INSUNITS
 70
     4
  9
$HYPERLINKBASE
  1

  9
$STYLESHEET
  1

  9
$XEDIT
290
     1
  9
$CEPSNTYPE
380
     0
  9
$PSTYLEMODE
290
     1
  9
$FINGERPRINTGUID
  2
{59F1AEBB-09D3-40A6-B498-52BF9631A72F}
  9
$VERSIONGUID
  2
{FAEB1C32-E019-11D5-929B-00C0DF256EC4}
  9
$EXTNAMES
290
     1
  9
$PSVPSCALE
 40
0.0
  9
$OLESTARTUP
290
     0
  0
ENDSEC
  0
SECTION
  2
CLASSES
  0
CLASS
  1
ACDBDICTIONARYWDFLT
  2
AcDbDictionaryWithDefault
  3
ObjectDBX Classes
 90
        0
280
     0
281
     0
  0
CLASS
  1
VISUALSTYLE
  2
AcDbVisualStyle
  3
ObjectDBX Classes
 90
     4095
280
     0
281
     0
  0
CLASS
  1
MATERIAL
  2
AcDbMaterial
  3
ObjectDBX Classes
 90
     1153
280
     0
281
     0
  0
CLASS
  1
DICTIONARYVAR
  2
AcDbDictionaryVar
  3
ObjectDBX Classes
 90
        0
280
     0
281
     0
  0
CLASS
  1
ACDBPLACEHOLDER
  2
AcDbPlaceHolder
  3
ObjectDBX Classes
 90
        0
280
     0
281
     0
  0
CLASS
  1
LAYOUT
  2
AcDbLayout
  3
ObjectDBX Classes
 90
        0
280
     0
281
     0
  0
ENDSEC
  0
SECTION
  2
TABLES
  0
TABLE
  2
VPORT
  5
8
330
0
100
AcDbSymbolTable
 70
     1
  0
VPORT
  5
29
330
8
100
AcDbSymbolTableRecord
100
AcDbViewportTableRecord
  2
*Active
 70
     0
 10
0.0
 20
0.0
 11
1.0
 21
1.0
 12
10.42990654205607
 22
4.5
 13
0.0
 23
0.0
 14
0.5
 24
0.5
 15
0.5
 25
0.5
 16
0.0
 26
0.0
 36
1.0
 17
0.0
 27
0.0
 37
0.0
 40
9.0
 41
1.972972972850329
 42
50.0
 43
0.0
 44
0.0
 50
0.0
 51
0.0
 71
     0
 72
   100
 73
     1
 74
     3
 75
     0
 76
     0
 77
     0
 78
     0
281
     0
 65
     1
110
0.0
120
0.0
130
0.0
111
1.0
121
0.0
131
0.0
112
0.0
122
1.0
132
0.0
 79
     0
146
0.0
  0
ENDTAB
  0
TABLE
  2
LTYPE
  5
5
330
0
100
AcDbSymbolTable
 70
     1
  0
LTYPE
  5
14
330
5
100
AcDbSymbolTableRecord
100
AcDbLinetypeTableRecord
  2
ByBlock
 70
     0
  3

 72
    65
 73
     0
 40
0.0
  0
LTYPE
  5
15
330
5
100
AcDbSymbolTableRecord
100
AcDbLinetypeTableRecord
  2
ByLayer
 70
     0
  3

 72
    65
 73
     0
 40
0.0
  0
LTYPE
  5
16
330
5
100
AcDbSymbolTableRecord
100
AcDbLinetypeTableRecord
  2
Continuous
 70
     0
  3
Solid line
 72
    65
 73
     0
 40
0.0
  0
ENDTAB
  0
TABLE
  2
LAYER
  5
2
330
0
100
AcDbSymbolTable
 70
     2
  0
LAYER
  5
10
330
2
100
AcDbSymbolTableRecord
100
AcDbLayerTableRecord
  2
0
 70
     0
 62
     7
  6
Continuous
370
    -3
390
F
  0
LAYER
  5
40
330
2
100
AcDbSymbolTableRecord
100
AcDbLayerTableRecord
  2
Ilustrace
 70
     0
 62
     7
  6
Continuous
370
    -3
390
F
  0
ENDTAB
  0
TABLE
  2
STYLE
  5
3
330
0
100
AcDbSymbolTable
 70
     1
  0
STYLE
  5
11
330
3
100
AcDbSymbolTableRecord
100
AcDbTextStyleTableRecord
  2
Standard
 70
     0
 40
0.0
 41
1.0
 50
0.0
 71
     0
 42
0.2
  3
txt
  4

  0
ENDTAB
  0
TABLE
  2
VIEW
  5
6
330
0
100
AcDbSymbolTable
 70
     0
  0
ENDTAB
  0
TABLE
  2
UCS
  5
7
330
0
100
AcDbSymbolTable
 70
     0
  0
ENDTAB
  0
TABLE
  2
APPID
  5
9
330
0
100
AcDbSymbolTable
 70
     2
  0
APPID
  5
12
330
9
100
AcDbSymbolTableRecord
100
AcDbRegAppTableRecord
  2
ACAD
 70
     0
  0
APPID
  5
3F
330
9
100
AcDbSymbolTableRecord
100
AcDbRegAppTableRecord
  2
ODA
 70
     0
  0
ENDTAB
  0
TABLE
  2
DIMSTYLE
  5
A
330
0
100
AcDbSymbolTable
 70
     1
100
AcDbDimStyleTable
  0
DIMSTYLE
105
27
330
A
100
AcDbSymbolTableRecord
100
AcDbDimStyleTableRecord
  2
Standard
 70
     0
340
11
  0
ENDTAB
  0
TABLE
  2
BLOCK_RECORD
  5
1
330
0
100
AcDbSymbolTable
 70
     1
  0
BLOCK_RECORD
  5
1F
330
1
100
AcDbSymbolTableRecord
100
AcDbBlockTableRecord
  2
*Model_Space
340
22
  0
BLOCK_RECORD
  5
1B
330
1
100
AcDbSymbolTableRecord
100
AcDbBlockTableRecord
  2
*Paper_Space
340
1E
  0
BLOCK_RECORD
  5
23
330
1
100
AcDbSymbolTableRecord
100
AcDbBlockTableRecord
  2
*Paper_Space0
340
26
  0
ENDTAB
  0
ENDSEC
  0
SECTION
  2
BLOCKS
  0
BLOCK
  5
20
330
1F
100
AcDbEntity
  8
0
100
AcDbBlockBegin
  2
*Model_Space
 70
     0
 10
0.0
 20
0.0
 30
0.0
  3
*Model_Space
  1

  0
ENDBLK
  5
21
330
1F
100
AcDbEntity
  8
0
100
AcDbBlockEnd
  0
BLOCK
  5
1C
330
1B
100
AcDbEntity
 67
     1
  8
0
100
AcDbBlockBegin
  2
*Paper_Space
 70
     0
 10
0.0
 20
0.0
 30
0.0
  3
*Paper_Space
  1

  0
ENDBLK
  5
1D
330
1B
100
AcDbEntity
 67
     1
  8
0
100
AcDbBlockEnd
  0
BLOCK
  5
24
330
23
100
AcDbEntity
  8
0
100
AcDbBlockBegin
  2
*Paper_Space0
 70
     0
 10
0.0
 20
0.0
 30
0.0
  3
*Paper_Space0
  1

  0
ENDBLK
  5
25
330
23
100
AcDbEntity
  8
0
100
AcDbBlockEnd
  0
ENDSEC
  0
SECTION
  2
ENTITIES
  0
SPLINE
  5
41
330
1F
100
AcDbEntity
  8
Ilustrace
 62
   254
100
AcDbSpline
210
0.0
220
0.0
230
1.0
 70
    11
 71
     3
 72
    68
 73
    64
 74
     0
 42
0.0000000001
 43
0.0000000001
 40
0.0
 40
0.0
 40
0.0
 40
0.0
 40
0.0588235294117647
 40
0.0588235294117647
 40
0.0588235294117647
 40
0.0588235294117647
 40
0.1176470588235294
 40
0.1176470588235294
 40
0.1176470588235294
 40
0.1176470588235294
 40
0.1764705882352941
 40
0.1764705882352941
 40
0.1764705882352941
 40
0.1764705882352941
 40
0.2352941176470588
 40
0.2352941176470588
 40
0.2352941176470588
 40
0.2352941176470588
 40
0.2941176470588235
 40
0.2941176470588235
 40
0.2941176470588235
 40
0.2941176470588235
 40
0.3529411764705883
 40
0.3529411764705883
 40
0.3529411764705883
 40
0.3529411764705883
 40
0.4117647058823529
 40
0.4117647058823529
 40
0.4117647058823529
 40
0.4117647058823529
 40
0.4705882352941176
 40
0.4705882352941176
 40
0.4705882352941176
 40
0.4705882352941176
 40
0.5294117647058824
 40
0.5294117647058824
 40
0.5294117647058824
 40
0.5294117647058824
 40
0.5882352941176471
 40
0.5882352941176471
 40
0.5882352941176471
 40
0.5882352941176471
 40
0.6470588235294118
 40
0.6470588235294118
 40
0.6470588235294118
 40
0.6470588235294118
 40
0.7058823529411765
 40
0.7058823529411765
 40
0.7058823529411765
 40
0.7058823529411765
 40
0.7647058823529411
 40
0.7647058823529411
 40
0.7647058823529411
 40
0.7647058823529411
 40
0.8235294117647058
 40
0.8235294117647058
 40
0.8235294117647058
 40
0.8235294117647058
 40
0.8823529411764706
 40
0.8823529411764706
 40
0.8823529411764706
 40
0.8823529411764706
 40
1.0
 40
1.0
 40
1.0
 40
1.0
 10
-31.6036
 20
-37.4203
 30
0.0
 10
-31.6036
 20
-37.4203
 30
0.0
 10
-7.3942
 20
-37.4863
 30
0.0
 10
-7.3942
 20
-37.4863
 30
0.0
 10
-7.3942
 20
-37.4863
 30
0.0
 10
-7.3942
 20
-37.4863
 30
0.0
 10
-7.4384
 20
-2.5723
 30
0.0
 10
-7.4384
 20
-2.5723
 30
0.0
 10
-7.4384
 20
-2.5723
 30
0.0
 10
-7.4384
 20
-2.5723
 30
0.0
 10
-7.4714
 20
-1.9329
 30
0.0
 10
-7.4714
 20
-1.9329
 30
0.0
 10
-7.4714
 20
-1.9329
 30
0.0
 10
-7.4714
 20
-1.9329
 30
0.0
 10
-8.1659
 20
-0.8635
 30
0.0
 10
-8.1659
 20
-0.8635
 30
0.0
 10
-8.1659
 20
-0.8635
 30
0.0
 10
-8.1659
 20
-0.8635
 30
0.0
 10
-8.5628
 20
-0.3454
 30
0.0
 10
-8.5628
 20
-0.3454
 30
0.0
 10
-8.5628
 20
-0.3454
 30
0.0
 10
-8.5628
 20
-0.3454
 30
0.0
 10
-8.4304
 20
-0.2572
 30
0.0
 10
-8.4304
 20
-0.2572
 30
0.0
 10
-8.4304
 20
-0.2572
 30
0.0
 10
-8.4304
 20
-0.2572
 30
0.0
 10
-7.9235
 20
-0.6321
 30
0.0
 10
-7.9235
 20
-0.6321
 30
0.0
 10
-7.9235
 20
-0.6321
 30
0.0
 10
-7.9235
 20
-0.6321
 30
0.0
 10
-7.328
 20
-1.1061
 30
0.0
 10
-7.328
 20
-1.1061
 30
0.0
 10
-7.328
 20
-1.1061
 30
0.0
 10
-7.328
 20
-1.1061
 30
0.0
 10
-6.865
 20
-1.2714
 30
0.0
 10
-6.865
 20
-1.2714
 30
0.0
 10
-6.865
 20
-1.2714
 30
0.0
 10
-6.865
 20
-1.2714
 30
0.0
 10
-6.1926
 20
-1.4919
 30
0.0
 10
-6.1926
 20
-1.4919
 30
0.0
 10
-6.1926
 20
-1.4919
 30
0.0
 10
-6.1926
 20
-1.4919
 30
0.0
 10
28.7053
 20
-1.4368
 30
0.0
 10
28.7053
 20
-1.4368
 30
0.0
 10
28.7053
 20
-1.4368
 30
0.0
 10
28.7053
 20
-1.4368
 30
0.0
 10
28.6832
 20
22.8219
 30
0.0
 10
28.6832
 20
22.8219
 30
0.0
 10
28.6832
 20
22.8219
 30
0.0
 10
28.6832
 20
22.8219
 30
0.0
 10
-31.2229
 20
22.8106
 30
0.0
 10
-31.2229
 20
22.8106
 30
0.0
 10
-31.2229
 20
22.8106
 30
0.0
 10
-31.2229
 20
22.8106
 30
0.0
 10
-31.2174
 20
22.4303
 30
0.0
 10
-31.2174
 20
22.4303
 30
0.0
 10
-31.2174
 20
22.4303
 30
0.0
 10
-31.2174
 20
22.4303
 30
0.0
 10
-31.5206
 20
22.4303
 30
0.0
 10
-31.5206
 20
22.4303
 30
0.0
 10
-31.5206
 20
22.4303
 30
0.0
 10
-31.5206
 20
22.4303
 30
0.0
 10
-31.6036
 20
-37.4203
 30
0.0
 10
-31.6036
 20
-37.4203
 30
0.0
  0
SPLINE
  5
42
330
1F
100
AcDbEntity
  8
Ilustrace
 62
   254
100
AcDbSpline
210
0.0
220
0.0
230
1.0
 70
    11
 71
     3
 72
    20
 73
    16
 74
     0
 42
0.0000000001
 43
0.0000000001
 40
0.0
 40
0.0
 40
0.0
 40
0.0
 40
0.2
 40
0.2
 40
0.2
 40
0.2
 40
0.4
 40
0.4
 40
0.4
 40
0.4
 40
0.6
 40
0.6
 40
0.6
 40
0.6
 40
1.0
 40
1.0
 40
1.0
 40
1.0
 10
-6.4459
 20
14.4485
 30
0.0
 10
-6.4459
 20
14.4485
 30
0.0
 10
-6.4459
 20
15.9037
 30
0.0
 10
-6.4459
 20
15.9037
 30
0.0
 10
-6.4459
 20
15.9037
 30
0.0
 10
-6.4459
 20
15.9037
 30
0.0
 10
6.6291
 20
15.9037
 30
0.0
 10
6.6291
 20
15.9037
 30
0.0
 10
6.6291
 20
15.9037
 30
0.0
 10
6.6291
 20
15.9037
 30
0.0
 10
6.6291
 20
14.4485
 30
0.0
 10
6.6291
 20
14.4485
 30
0.0
 10
6.6291
 20
14.4485
 30
0.0
 10
6.6291
 20
14.4485
 30
0.0
 10
-6.4459
 20
14.4485
 30
0.0
 10
-6.4459
 20
14.4485
 30
0.0
  0
SPLINE
  5
43
330
1F
100
AcDbEntity
  8
Ilustrace
 62
   254
100
AcDbSpline
210
0.0
220
0.0
230
1.0
 70
    11
 71
     3
 72
    20
 73
    16
 74
     0
 42
0.0000000001
 43
0.0000000001
 40
0.0
 40
0.0
 40
0.0
 40
0.0
 40
0.2
 40
0.2
 40
0.2
 40
0.2
 40
0.4
 40
0.4
 40
0.4
 40
0.4
 40
0.6
 40
0.6
 40
0.6
 40
0.6
 40
1.0
 40
1.0
 40
1.0
 40
1.0
 10
-11.6164
 20
17.2486
 30
0.0
 10
-11.6164
 20
17.2486
 30
0.0
 10
-10.1612
 20
17.2486
 30
0.0
 10
-10.1612
 20
17.2486
 30
0.0
 10
-10.1612
 20
17.2486
 30
0.0
 10
-10.1612
 20
17.2486
 30
0.0
 10
-10.1612
 20
4.1528
 30
0.0
 10
-10.1612
 20
4.1528
 30
0.0
 10
-10.1612
 20
4.1528
 30
0.0
 10
-10.1612
 20
4.1528
 30
0.0
 10
-11.6164
 20
4.1528
 30
0.0
 10
-11.6164
 20
4.1528
 30
0.0
 10
-11.6164
 20
4.1528
 30
0.0
 10
-11.6164
 20
4.1528
 30
0.0
 10
-11.6164
 20
17.2486
 30
0.0
 10
-11.6164
 20
17.2486
 30
0.0
  0
SPLINE
  5
44
330
1F
100
AcDbEntity
  8
Ilustrace
 62
   254
100
AcDbSpline
210
0.0
220
0.0
230
1.0
 70
    11
 71
     3
 72
    20
 73
    16
 74
     0
 42
0.0000000001
 43
0.0000000001
 40
0.0
 40
0.0
 40
0.0
 40
0.0
 40
0.2
 40
0.2
 40
0.2
 40
0.2
 40
0.4
 40
0.4
 40
0.4
 40
0.4
 40
0.6
 40
0.6
 40
0.6
 40
0.6
 40
1.0
 40
1.0
 40
1.0
 40
1.0
 10
-15.8497
 20
17.2927
 30
0.0
 10
-15.8497
 20
17.2927
 30
0.0
 10
-14.3945
 20
17.2927
 30
0.0
 10
-14.3945
 20
17.2927
 30
0.0
 10
-14.3945
 20
17.2927
 30
0.0
 10
-14.3945
 20
17.2927
 30
0.0
 10
-14.3945
 20
4.1969
 30
0.0
 10
-14.3945
 20
4.1969
 30
0.0
 10
-14.3945
 20
4.1969
 30
0.0
 10
-14.3945
 20
4.1969
 30
0.0
 10
-15.8497
 20
4.1969
 30
0.0
 10
-15.8497
 20
4.1969
 30
0.0
 10
-15.8497
 20
4.1969
 30
0.0
 10
-15.8497
 20
4.1969
 30
0.0
 10
-15.8497
 20
17.2927
 30
0.0
 10
-15.8497
 20
17.2927
 30
0.0
  0
SPLINE
  5
45
330
1F
100
AcDbEntity
  8
Ilustrace
 62
   254
100
AcDbSpline
210
0.0
220
0.0
230
1.0
 70
    11
 71
     3
 72
    20
 73
    16
 74
     0
 42
0.0000000001
 43
0.0000000001
 40
0.0
 40
0.0
 40
0.0
 40
0.0
 40
0.2
 40
0.2
 40
0.2
 40
0.2
 40
0.4
 40
0.4
 40
0.4
 40
0.4
 40
0.6
 40
0.6
 40
0.6
 40
0.6
 40
1.0
 40
1.0
 40
1.0
 40
1.0
 10
-15.8276
 20
-2.2091
 30
0.0
 10
-15.8276
 20
-2.2091
 30
0.0
 10
-14.3724
 20
-2.2091
 30
0.0
 10
-14.3724
 20
-2.2091
 30
0.0
 10
-14.3724
 20
-2.2091
 30
0.0
 10
-14.3724
 20
-2.2091
 30
0.0
 10
-14.3724
 20
-15.2841
 30
0.0
 10
-14.3724
 20
-15.2841
 30
0.0
 10
-14.3724
 20
-15.2841
 30
0.0
 10
-14.3724
 20
-15.2841
 30
0.0
 10
-15.8276
 20
-15.2841
 30
0.0
 10
-15.8276
 20
-15.2841
 30
0.0
 10
-15.8276
 20
-15.2841
 30
0.0
 10
-15.8276
 20
-15.2841
 30
0.0
 10
-15.8276
 20
-2.2091
 30
0.0
 10
-15.8276
 20
-2.2091
 30
0.0
  0
SPLINE
  5
46
330
1F
100
AcDbEntity
  8
Ilustrace
 62
   254
100
AcDbSpline
210
0.0
220
0.0
230
1.0
 70
    11
 71
     3
 72
    20
 73
    16
 74
     0
 42
0.0000000001
 43
0.0000000001
 40
0.0
 40
0.0
 40
0.0
 40
0.0
 40
0.2
 40
0.2
 40
0.2
 40
0.2
 40
0.4
 40
0.4
 40
0.4
 40
0.4
 40
0.6
 40
0.6
 40
0.6
 40
0.6
 40
1.0
 40
1.0
 40
1.0
 40
1.0
 10
10.3111
 20
14.4044
 30
0.0
 10
10.3111
 20
14.4044
 30
0.0
 10
10.3111
 20
15.8596
 30
0.0
 10
10.3111
 20
15.8596
 30
0.0
 10
10.3111
 20
15.8596
 30
0.0
 10
10.3111
 20
15.8596
 30
0.0
 10
23.3861
 20
15.8596
 30
0.0
 10
23.3861
 20
15.8596
 30
0.0
 10
23.3861
 20
15.8596
 30
0.0
 10
23.3861
 20
15.8596
 30
0.0
 10
23.3861
 20
14.4044
 30
0.0
 10
23.3861
 20
14.4044
 30
0.0
 10
23.3861
 20
14.4044
 30
0.0
 10
23.3861
 20
14.4044
 30
0.0
 10
10.3111
 20
14.4044
 30
0.0
 10
10.3111
 20
14.4044
 30
0.0
  0
SPLINE
  5
47
330
1F
100
AcDbEntity
  8
Ilustrace
 62
   254
100
AcDbSpline
210
0.0
220
0.0
230
1.0
 70
    11
 71
     3
 72
    20
 73
    16
 74
     0
 42
0.0000000001
 43
0.0000000001
 40
0.0
 40
0.0
 40
0.0
 40
0.0
 40
0.2
 40
0.2
 40
0.2
 40
0.2
 40
0.4
 40
0.4
 40
0.4
 40
0.4
 40
0.6
 40
0.6
 40
0.6
 40
0.6
 40
1.0
 40
1.0
 40
1.0
 40
1.0
 10
-15.8717
 20
-18.9661
 30
0.0
 10
-15.8717
 20
-18.9661
 30
0.0
 10
-14.4165
 20
-18.9661
 30
0.0
 10
-14.4165
 20
-18.9661
 30
0.0
 10
-14.4165
 20
-18.9661
 30
0.0
 10
-14.4165
 20
-18.9661
 30
0.0
 10
-14.4165
 20
-32.0411
 30
0.0
 10
-14.4165
 20
-32.0411
 30
0.0
 10
-14.4165
 20
-32.0411
 30
0.0
 10
-14.4165
 20
-32.0411
 30
0.0
 10
-15.8717
 20
-32.0411
 30
0.0
 10
-15.8717
 20
-32.0411
 30
0.0
 10
-15.8717
 20
-32.0411
 30
0.0
 10
-15.8717
 20
-32.0411
 30
0.0
 10
-15.8717
 20
-18.9661
 30
0.0
 10
-15.8717
 20
-18.9661
 30
0.0
  0
SPLINE
  5
48
330
1F
100
AcDbEntity
  8
Ilustrace
 62
   254
100
AcDbSpline
210
0.0
220
0.0
230
1.0
 70
    11
 71
     3
 72
    20
 73
    16
 74
     0
 42
0.0000000001
 43
0.0000000001
 40
0.0
 40
0.0
 40
0.0
 40
0.0
 40
0.2
 40
0.2
 40
0.2
 40
0.2
 40
0.4
 40
0.4
 40
0.4
 40
0.4
 40
0.6
 40
0.6
 40
0.6
 40
0.6
 40
1.0
 40
1.0
 40
1.0
 40
1.0
 10
-6.4901
 20
10.0829
 30
0.0
 10
-6.4901
 20
10.0829
 30
0.0
 10
-6.4901
 20
11.5381
 30
0.0
 10
-6.4901
 20
11.5381
 30
0.0
 10
-6.4901
 20
11.5381
 30
0.0
 10
-6.4901
 20
11.5381
 30
0.0
 10
6.5849
 20
11.5381
 30
0.0
 10
6.5849
 20
11.5381
 30
0.0
 10
6.5849
 20
11.5381
 30
0.0
 10
6.5849
 20
11.5381
 30
0.0
 10
6.5849
 20
10.0829
 30
0.0
 10
6.5849
 20
10.0829
 30
0.0
 10
6.5849
 20
10.0829
 30
0.0
 10
6.5849
 20
10.0829
 30
0.0
 10
-6.4901
 20
10.0829
 30
0.0
 10
-6.4901
 20
10.0829
 30
0.0
  0
SPLINE
  5
49
330
1F
100
AcDbEntity
  8
Ilustrace
 62
   254
100
AcDbSpline
210
0.0
220
0.0
230
1.0
 70
    11
 71
     3
 72
    20
 73
    16
 74
     0
 42
0.0000000001
 43
0.0000000001
 40
0.0
 40
0.0
 40
0.0
 40
0.0
 40
0.2
 40
0.2
 40
0.2
 40
0.2
 40
0.4
 40
0.4
 40
0.4
 40
0.4
 40
0.6
 40
0.6
 40
0.6
 40
0.6
 40
1.0
 40
1.0
 40
1.0
 40
1.0
 10
-20.2153
 20
17.2809
 30
0.0
 10
-20.2153
 20
17.2809
 30
0.0
 10
-18.7601
 20
17.2809
 30
0.0
 10
-18.7601
 20
17.2809
 30
0.0
 10
-18.7601
 20
17.2809
 30
0.0
 10
-18.7601
 20
17.2809
 30
0.0
 10
-18.7601
 20
4.2439
 30
0.0
 10
-18.7601
 20
4.2439
 30
0.0
 10
-18.7601
 20
4.2439
 30
0.0
 10
-18.7601
 20
4.2439
 30
0.0
 10
-20.2153
 20
4.2439
 30
0.0
 10
-20.2153
 20
4.2439
 30
0.0
 10
-20.2153
 20
4.2439
 30
0.0
 10
-20.2153
 20
4.2439
 30
0.0
 10
-20.2153
 20
17.2809
 30
0.0
 10
-20.2153
 20
17.2809
 30
0.0
  0
SPLINE
  5
4A
330
1F
100
AcDbEntity
  8
Ilustrace
 62
   254
100
AcDbSpline
210
0.0
220
0.0
230
1.0
 70
    11
 71
     3
 72
    20
 73
    16
 74
     0
 42
0.0000000001
 43
0.0000000001
 40
0.0
 40
0.0
 40
0.0
 40
0.0
 40
0.2
 40
0.2
 40
0.2
 40
0.2
 40
0.4
 40
0.4
 40
0.4
 40
0.4
 40
0.6
 40
0.6
 40
0.6
 40
0.6
 40
1.0
 40
1.0
 40
1.0
 40
1.0
 10
-20.1932
 20
-2.1649
 30
0.0
 10
-20.1932
 20
-2.1649
 30
0.0
 10
-18.738
 20
-2.1649
 30
0.0
 10
-18.738
 20
-2.1649
 30
0.0
 10
-18.738
 20
-2.1649
 30
0.0
 10
-18.738
 20
-2.1649
 30
0.0
 10
-18.738
 20
-15.2399
 30
0.0
 10
-18.738
 20
-15.2399
 30
0.0
 10
-18.738
 20
-15.2399
 30
0.0
 10
-18.738
 20
-15.2399
 30
0.0
 10
-20.1932
 20
-15.2399
 30
0.0
 10
-20.1932
 20
-15.2399
 30
0.0
 10
-20.1932
 20
-15.2399
 30
0.0
 10
-20.1932
 20
-15.2399
 30
0.0
 10
-20.1932
 20
-2.1649
 30
0.0
 10
-20.1932
 20
-2.1649
 30
0.0
  0
SPLINE
  5
4B
330
1F
100
AcDbEntity
  8
Ilustrace
 62
   254
100
AcDbSpline
210
0.0
220
0.0
230
1.0
 70
    11
 71
     3
 72
    20
 73
    16
 74
     0
 42
0.0000000001
 43
0.0000000001
 40
0.0
 40
0.0
 40
0.0
 40
0.0
 40
0.2
 40
0.2
 40
0.2
 40
0.2
 40
0.4
 40
0.4
 40
0.4
 40
0.4
 40
0.6
 40
0.6
 40
0.6
 40
0.6
 40
1.0
 40
1.0
 40
1.0
 40
1.0
 10
10.2669
 20
10.0388
 30
0.0
 10
10.2669
 20
10.0388
 30
0.0
 10
10.2669
 20
11.494
 30
0.0
 10
10.2669
 20
11.494
 30
0.0
 10
10.2669
 20
11.494
 30
0.0
 10
10.2669
 20
11.494
 30
0.0
 10
23.3419
 20
11.494
 30
0.0
 10
23.3419
 20
11.494
 30
0.0
 10
23.3419
 20
11.494
 30
0.0
 10
23.3419
 20
11.494
 30
0.0
 10
23.3419
 20
10.0388
 30
0.0
 10
23.3419
 20
10.0388
 30
0.0
 10
23.3419
 20
10.0388
 30
0.0
 10
23.3419
 20
10.0388
 30
0.0
 10
10.2669
 20
10.0388
 30
0.0
 10
10.2669
 20
10.0388
 30
0.0
  0
SPLINE
  5
4C
330
1F
100
AcDbEntity
  8
Ilustrace
 62
   254
100
AcDbSpline
210
0.0
220
0.0
230
1.0
 70
    11
 71
     3
 72
    20
 73
    16
 74
     0
 42
0.0000000001
 43
0.0000000001
 40
0.0
 40
0.0
 40
0.0
 40
0.0
 40
0.2
 40
0.2
 40
0.2
 40
0.2
 40
0.4
 40
0.4
 40
0.4
 40
0.4
 40
0.6
 40
0.6
 40
0.6
 40
0.6
 40
1.0
 40
1.0
 40
1.0
 40
1.0
 10
-20.2373
 20
-18.9219
 30
0.0
 10
-20.2373
 20
-18.9219
 30
0.0
 10
-18.7821
 20
-18.9219
 30
0.0
 10
-18.7821
 20
-18.9219
 30
0.0
 10
-18.7821
 20
-18.9219
 30
0.0
 10
-18.7821
 20
-18.9219
 30
0.0
 10
-18.7821
 20
-31.9969
 30
0.0
 10
-18.7821
 20
-31.9969
 30
0.0
 10
-18.7821
 20
-31.9969
 30
0.0
 10
-18.7821
 20
-31.9969
 30
0.0
 10
-20.2373
 20
-31.9969
 30
0.0
 10
-20.2373
 20
-31.9969
 30
0.0
 10
-20.2373
 20
-31.9969
 30
0.0
 10
-20.2373
 20
-31.9969
 30
0.0
 10
-20.2373
 20
-18.9219
 30
0.0
 10
-20.2373
 20
-18.9219
 30
0.0
  0
SPLINE
  5
4D
330
1F
100
AcDbEntity
  8
Ilustrace
 62
   254
100
AcDbSpline
210
0.0
220
0.0
230
1.0
 70
    11
 71
     3
 72
    20
 73
    16
 74
     0
 42
0.0000000001
 43
0.0000000001
 40
0.0
 40
0.0
 40
0.0
 40
0.0
 40
0.2
 40
0.2
 40
0.2
 40
0.2
 40
0.4
 40
0.4
 40
0.4
 40
0.4
 40
0.6
 40
0.6
 40
0.6
 40
0.6
 40
1.0
 40
1.0
 40
1.0
 40
1.0
 10
-6.5343
 20
5.7173
 30
0.0
 10
-6.5343
 20
5.7173
 30
0.0
 10
-6.5343
 20
7.1725
 30
0.0
 10
-6.5343
 20
7.1725
 30
0.0
 10
-6.5343
 20
7.1725
 30
0.0
 10
-6.5343
 20
7.1725
 30
0.0
 10
6.5407
 20
7.1725
 30
0.0
 10
6.5407
 20
7.1725
 30
0.0
 10
6.5407
 20
7.1725
 30
0.0
 10
6.5407
 20
7.1725
 30
0.0
 10
6.5407
 20
5.7173
 30
0.0
 10
6.5407
 20
5.7173
 30
0.0
 10
6.5407
 20
5.7173
 30
0.0
 10
6.5407
 20
5.7173
 30
0.0
 10
-6.5343
 20
5.7173
 30
0.0
 10
-6.5343
 20
5.7173
 30
0.0
  0
SPLINE
  5
4E
330
1F
100
AcDbEntity
  8
Ilustrace
 62
   254
100
AcDbSpline
210
0.0
220
0.0
230
1.0
 70
    11
 71
     3
 72
    20
 73
    16
 74
     0
 42
0.0000000001
 43
0.0000000001
 40
0.0
 40
0.0
 40
0.0
 40
0.0
 40
0.2
 40
0.2
 40
0.2
 40
0.2
 40
0.4
 40
0.4
 40
0.4
 40
0.4
 40
0.6
 40
0.6
 40
0.6
 40
0.6
 40
1.0
 40
1.0
 40
1.0
 40
1.0
 10
-28.159
 20
17.1237
 30
0.0
 10
-28.159
 20
17.1237
 30
0.0
 10
-27.5354
 20
17.1237
 30
0.0
 10
-27.5354
 20
17.1237
 30
0.0
 10
-27.5354
 20
17.1237
 30
0.0
 10
-27.5354
 20
17.1237
 30
0.0
 10
-27.5354
 20
4.1806
 30
0.0
 10
-27.5354
 20
4.1806
 30
0.0
 10
-27.5354
 20
4.1806
 30
0.0
 10
-27.5354
 20
4.1806
 30
0.0
 10
-28.159
 20
4.1806
 30
0.0
 10
-28.159
 20
4.1806
 30
0.0
 10
-28.159
 20
4.1806
 30
0.0
 10
-28.159
 20
4.1806
 30
0.0
 10
-28.159
 20
17.1237
 30
0.0
 10
-28.159
 20
17.1237
 30
0.0
  0
SPLINE
  5
4F
330
1F
100
AcDbEntity
  8
Ilustrace
 62
   254
100
AcDbSpline
210
0.0
220
0.0
230
1.0
 70
    11
 71
     3
 72
    20
 73
    16
 74
     0
 42
0.0000000001
 43
0.0000000001
 40
0.0
 40
0.0
 40
0.0
 40
0.0
 40
0.2
 40
0.2
 40
0.2
 40
0.2
 40
0.4
 40
0.4
 40
0.4
 40
0.4
 40
0.6
 40
0.6
 40
0.6
 40
0.6
 40
1.0
 40
1.0
 40
1.0
 40
1.0
 10
-24.5809
 20
17.234
 30
0.0
 10
-24.5809
 20
17.234
 30
0.0
 10
-23.1257
 20
17.234
 30
0.0
 10
-23.1257
 20
17.234
 30
0.0
 10
-23.1257
 20
17.234
 30
0.0
 10
-23.1257
 20
17.234
 30
0.0
 10
-23.1257
 20
4.2909
 30
0.0
 10
-23.1257
 20
4.2909
 30
0.0
 10
-23.1257
 20
4.2909
 30
0.0
 10
-23.1257
 20
4.2909
 30
0.0
 10
-24.5809
 20
4.2909
 30
0.0
 10
-24.5809
 20
4.2909
 30
0.0
 10
-24.5809
 20
4.2909
 30
0.0
 10
-24.5809
 20
4.2909
 30
0.0
 10
-24.5809
 20
17.234
 30
0.0
 10
-24.5809
 20
17.234
 30
0.0
  0
SPLINE
  5
50
330
1F
100
AcDbEntity
  8
Ilustrace
 62
   254
100
AcDbSpline
210
0.0
220
0.0
230
1.0
 70
    11
 71
     3
 72
    20
 73
    16
 74
     0
 42
0.0000000001
 43
0.0000000001
 40
0.0
 40
0.0
 40
0.0
 40
0.0
 40
0.2
 40
0.2
 40
0.2
 40
0.2
 40
0.4
 40
0.4
 40
0.4
 40
0.4
 40
0.6
 40
0.6
 40
0.6
 40
0.6
 40
1.0
 40
1.0
 40
1.0
 40
1.0
 10
-24.5588
 20
-2.1207
 30
0.0
 10
-24.5588
 20
-2.1207
 30
0.0
 10
-23.1036
 20
-2.1207
 30
0.0
 10
-23.1036
 20
-2.1207
 30
0.0
 10
-23.1036
 20
-2.1207
 30
0.0
 10
-23.1036
 20
-2.1207
 30
0.0
 10
-23.1036
 20
-15.1957
 30
0.0
 10
-23.1036
 20
-15.1957
 30
0.0
 10
-23.1036
 20
-15.1957
 30
0.0
 10
-23.1036
 20
-15.1957
 30
0.0
 10
-24.5588
 20
-15.1957
 30
0.0
 10
-24.5588
 20
-15.1957
 30
0.0
 10
-24.5588
 20
-15.1957
 30
0.0
 10
-24.5588
 20
-15.1957
 30
0.0
 10
-24.5588
 20
-2.1207
 30
0.0
 10
-24.5588
 20
-2.1207
 30
0.0
  0
SPLINE
  5
51
330
1F
100
AcDbEntity
  8
Ilustrace
 62
   254
100
AcDbSpline
210
0.0
220
0.0
230
1.0
 70
    11
 71
     3
 72
    20
 73
    16
 74
     0
 42
0.0000000001
 43
0.0000000001
 40
0.0
 40
0.0
 40
0.0
 40
0.0
 40
0.2
 40
0.2
 40
0.2
 40
0.2
 40
0.4
 40
0.4
 40
0.4
 40
0.4
 40
0.6
 40
0.6
 40
0.6
 40
0.6
 40
1.0
 40
1.0
 40
1.0
 40
1.0
 10
10.2227
 20
5.6732
 30
0.0
 10
10.2227
 20
5.6732
 30
0.0
 10
10.2227
 20
7.1284
 30
0.0
 10
10.2227
 20
7.1284
 30
0.0
 10
10.2227
 20
7.1284
 30
0.0
 10
10.2227
 20
7.1284
 30
0.0
 10
23.2977
 20
7.1284
 30
0.0
 10
23.2977
 20
7.1284
 30
0.0
 10
23.2977
 20
7.1284
 30
0.0
 10
23.2977
 20
7.1284
 30
0.0
 10
23.2977
 20
5.6732
 30
0.0
 10
23.2977
 20
5.6732
 30
0.0
 10
23.2977
 20
5.6732
 30
0.0
 10
23.2977
 20
5.6732
 30
0.0
 10
10.2227
 20
5.6732
 30
0.0
 10
10.2227
 20
5.6732
 30
0.0
  0
SPLINE
  5
52
330
1F
100
AcDbEntity
  8
Ilustrace
 62
   254
100
AcDbSpline
210
0.0
220
0.0
230
1.0
 70
    11
 71
     3
 72
    20
 73
    16
 74
     0
 42
0.0000000001
 43
0.0000000001
 40
0.0
 40
0.0
 40
0.0
 40
0.0
 40
0.2
 40
0.2
 40
0.2
 40
0.2
 40
0.4
 40
0.4
 40
0.4
 40
0.4
 40
0.6
 40
0.6
 40
0.6
 40
0.6
 40
1.0
 40
1.0
 40
1.0
 40
1.0
 10
-24.6029
 20
-18.8777
 30
0.0
 10
-24.6029
 20
-18.8777
 30
0.0
 10
-23.1477
 20
-18.8777
 30
0.0
 10
-23.1477
 20
-18.8777
 30
0.0
 10
-23.1477
 20
-18.8777
 30
0.0
 10
-23.1477
 20
-18.8777
 30
0.0
 10
-23.1477
 20
-31.9527
 30
0.0
 10
-23.1477
 20
-31.9527
 30
0.0
 10
-23.1477
 20
-31.9527
 30
0.0
 10
-23.1477
 20
-31.9527
 30
0.0
 10
-24.6029
 20
-31.9527
 30
0.0
 10
-24.6029
 20
-31.9527
 30
0.0
 10
-24.6029
 20
-31.9527
 30
0.0
 10
-24.6029
 20
-31.9527
 30
0.0
 10
-24.6029
 20
-18.8777
 30
0.0
 10
-24.6029
 20
-18.8777
 30
0.0
  0
SPLINE
  5
53
330
1F
100
AcDbEntity
  8
Ilustrace
 62
   254
100
AcDbSpline
210
0.0
220
0.0
230
1.0
 70
    11
 71
     3
 72
    28
 73
    24
 74
     0
 42
0.0000000001
 43
0.0000000001
 40
0.0
 40
0.0
 40
0.0
 40
0.0
 40
0.1428571428571428
 40
0.1428571428571428
 40
0.1428571428571428
 40
0.1428571428571428
 40
0.2857142857142857
 40
0.2857142857142857
 40
0.2857142857142857
 40
0.2857142857142857
 40
0.4285714285714285
 40
0.4285714285714285
 40
0.4285714285714285
 40
0.4285714285714285
 40
0.5714285714285714
 40
0.5714285714285714
 40
0.5714285714285714
 40
0.5714285714285714
 40
0.7142857142857143
 40
0.7142857142857143
 40
0.7142857142857143
 40
0.7142857142857143
 40
1.0
 40
1.0
 40
1.0
 40
1.0
 10
-6.5184
 20
2.6651
 30
0.0
 10
-6.5184
 20
2.6651
 30
0.0
 10
-6.5404
 20
1.2761
 30
0.0
 10
-6.5404
 20
1.2761
 30
0.0
 10
-6.5404
 20
1.2761
 30
0.0
 10
-6.5404
 20
1.2761
 30
0.0
 10
0.0522
 20
1.2981
 30
0.0
 10
0.0522
 20
1.2981
 30
0.0
 10
0.0522
 20
1.2981
 30
0.0
 10
0.0522
 20
1.2981
 30
0.0
 10
0.6475
 20
1.9155
 30
0.0
 10
0.6475
 20
1.9155
 30
0.0
 10
0.6475
 20
1.9155
 30
0.0
 10
0.6475
 20
1.9155
 30
0.0
 10
6.5345
 20
1.9596
 30
0.0
 10
6.5345
 20
1.9596
 30
0.0
 10
6.5345
 20
1.9596
 30
0.0
 10
6.5345
 20
1.9596
 30
0.0
 10
6.6007
 20
2.6872
 30
0.0
 10
6.6007
 20
2.6872
 30
0.0
 10
6.6007
 20
2.6872
 30
0.0
 10
6.6007
 20
2.6872
 30
0.0
 10
-6.5184
 20
2.6651
 30
0.0
 10
-6.5184
 20
2.6651
 30
0.0
  0
SPLINE
  5
54
330
1F
100
AcDbEntity
  8
Ilustrace
 62
   254
100
AcDbSpline
210
0.0
220
0.0
230
1.0
 70
    11
 71
     3
 72
    28
 73
    24
 74
     0
 42
0.0000000001
 43
0.0000000001
 40
0.0
 40
0.0
 40
0.0
 40
0.0
 40
0.1428571428571428
 40
0.1428571428571428
 40
0.1428571428571428
 40
0.1428571428571428
 40
0.2857142857142857
 40
0.2857142857142857
 40
0.2857142857142857
 40
0.2857142857142857
 40
0.4285714285714285
 40
0.4285714285714285
 40
0.4285714285714285
 40
0.4285714285714285
 40
0.5714285714285714
 40
0.5714285714285714
 40
0.5714285714285714
 40
0.5714285714285714
 40
0.7142857142857143
 40
0.7142857142857143
 40
0.7142857142857143
 40
0.7142857142857143
 40
1.0
 40
1.0
 40
1.0
 40
1.0
 10
-11.4572
 20
-2.1415
 30
0.0
 10
-11.4572
 20
-2.1415
 30
0.0
 10
-10.0682
 20
-2.1195
 30
0.0
 10
-10.0682
 20
-2.1195
 30
0.0
 10
-10.0682
 20
-2.1195
 30
0.0
 10
-10.0682
 20
-2.1195
 30
0.0
 10
-10.0902
 20
-8.7121
 30
0.0
 10
-10.0902
 20
-8.7121
 30
0.0
 10
-10.0902
 20
-8.7121
 30
0.0
 10
-10.0902
 20
-8.7121
 30
0.0
 10
-10.7076
 20
-9.3074
 30
0.0
 10
-10.7076
 20
-9.3074
 30
0.0
 10
-10.7076
 20
-9.3074
 30
0.0
 10
-10.7076
 20
-9.3074
 30
0.0
 10
-10.7517
 20
-15.1944
 30
0.0
 10
-10.7517
 20
-15.1944
 30
0.0
 10
-10.7517
 20
-15.1944
 30
0.0
 10
-10.7517
 20
-15.1944
 30
0.0
 10
-11.4793
 20
-15.2606
 30
0.0
 10
-11.4793
 20
-15.2606
 30
0.0
 10
-11.4793
 20
-15.2606
 30
0.0
 10
-11.4793
 20
-15.2606
 30
0.0
 10
-11.4572
 20
-2.1415
 30
0.0
 10
-11.4572
 20
-2.1415
 30
0.0
  0
SPLINE
  5
55
330
1F
100
AcDbEntity
  8
Ilustrace
 62
   254
100
AcDbSpline
210
0.0
220
0.0
230
1.0
 70
    11
 71
     3
 72
    40
 73
    36
 74
     0
 42
0.0000000001
 43
0.0000000001
 40
0.0
 40
0.0
 40
0.0
 40
0.0
 40
0.1
 40
0.1
 40
0.1
 40
0.1
 40
0.2
 40
0.2
 40
0.2
 40
0.2
 40
0.3
 40
0.3
 40
0.3
 40
0.3
 40
0.4
 40
0.4
 40
0.4
 40
0.4
 40
0.5
 40
0.5
 40
0.5
 40
0.5
 40
0.6
 40
0.6
 40
0.6
 40
0.6
 40
0.7
 40
0.7
 40
0.7
 40
0.7
 40
0.8
 40
0.8
 40
0.8
 40
0.8
 40
1.0
 40
1.0
 40
1.0
 40
1.0
 10
-6.5103
 20
20.1409
 30
0.0
 10
-6.5103
 20
20.1409
 30
0.0
 10
-2.3982
 20
20.1188
 30
0.0
 10
-2.3982
 20
20.1188
 30
0.0
 10
-2.3982
 20
20.1188
 30
0.0
 10
-2.3982
 20
20.1188
 30
0.0
 10
-2.4147
 20
19.7385
 30
0.0
 10
-2.4147
 20
19.7385
 30
0.0
 10
-2.4147
 20
19.7385
 30
0.0
 10
-2.4147
 20
19.7385
 30
0.0
 10
-2.3431
 20
19.5511
 30
0.0
 10
-2.3431
 20
19.5511
 30
0.0
 10
-2.3431
 20
19.5511
 30
0.0
 10
-2.3431
 20
19.5511
 30
0.0
 10
-2.2549
 20
19.4629
 30
0.0
 10
-2.2549
 20
19.4629
 30
0.0
 10
-2.2549
 20
19.4629
 30
0.0
 10
-2.2549
 20
19.4629
 30
0.0
 10
-2.073
 20
19.4243
 30
0.0
 10
-2.073
 20
19.4243
 30
0.0
 10
-2.073
 20
19.4243
 30
0.0
 10
-2.073
 20
19.4243
 30
0.0
 10
6.5701
 20
19.4245
 30
0.0
 10
6.5701
 20
19.4245
 30
0.0
 10
6.5701
 20
19.4245
 30
0.0
 10
6.5701
 20
19.4245
 30
0.0
 10
6.5922
 20
18.7189
 30
0.0
 10
6.5922
 20
18.7189
 30
0.0
 10
6.5922
 20
18.7189
 30
0.0
 10
6.5922
 20
18.7189
 30
0.0
 10
-6.5046
 20
18.6859
 30
0.0
 10
-6.5046
 20
18.6859
 30
0.0
 10
-6.5046
 20
18.6859
 30
0.0
 10
-6.5046
 20
18.6859
 30
0.0
 10
-6.5103
 20
20.1409
 30
0.0
 10
-6.5103
 20
20.1409
 30
0.0
  0
SPLINE
  5
56
330
1F
100
AcDbEntity
  8
Ilustrace
 62
   254
100
AcDbSpline
210
0.0
220
0.0
230
1.0
 70
    11
 71
     3
 72
    40
 73
    36
 74
     0
 42
0.0000000001
 43
0.0000000001
 40
0.0
 40
0.0
 40
0.0
 40
0.0
 40
0.1
 40
0.1
 40
0.1
 40
0.1
 40
0.2
 40
0.2
 40
0.2
 40
0.2
 40
0.3
 40
0.3
 40
0.3
 40
0.3
 40
0.4
 40
0.4
 40
0.4
 40
0.4
 40
0.5
 40
0.5
 40
0.5
 40
0.5
 40
0.6
 40
0.6
 40
0.6
 40
0.6
 40
0.7
 40
0.7
 40
0.7
 40
0.7
 40
0.8
 40
0.8
 40
0.8
 40
0.8
 40
1.0
 40
1.0
 40
1.0
 40
1.0
 10
-28.9086
 20
-2.1473
 30
0.0
 10
-28.9086
 20
-2.1473
 30
0.0
 10
-28.8865
 20
-6.2594
 30
0.0
 10
-28.8865
 20
-6.2594
 30
0.0
 10
-28.8865
 20
-6.2594
 30
0.0
 10
-28.8865
 20
-6.2594
 30
0.0
 10
-28.5062
 20
-6.2429
 30
0.0
 10
-28.5062
 20
-6.2429
 30
0.0
 10
-28.5062
 20
-6.2429
 30
0.0
 10
-28.5062
 20
-6.2429
 30
0.0
 10
-28.3188
 20
-6.3145
 30
0.0
 10
-28.3188
 20
-6.3145
 30
0.0
 10
-28.3188
 20
-6.3145
 30
0.0
 10
-28.3188
 20
-6.3145
 30
0.0
 10
-28.2306
 20
-6.4027
 30
0.0
 10
-28.2306
 20
-6.4027
 30
0.0
 10
-28.2306
 20
-6.4027
 30
0.0
 10
-28.2306
 20
-6.4027
 30
0.0
 10
-28.192
 20
-6.5846
 30
0.0
 10
-28.192
 20
-6.5846
 30
0.0
 10
-28.192
 20
-6.5846
 30
0.0
 10
-28.192
 20
-6.5846
 30
0.0
 10
-28.1922
 20
-15.2277
 30
0.0
 10
-28.1922
 20
-15.2277
 30
0.0
 10
-28.1922
 20
-15.2277
 30
0.0
 10
-28.1922
 20
-15.2277
 30
0.0
 10
-27.4866
 20
-15.2498
 30
0.0
 10
-27.4866
 20
-15.2498
 30
0.0
 10
-27.4866
 20
-15.2498
 30
0.0
 10
-27.4866
 20
-15.2498
 30
0.0
 10
-27.4536
 20
-2.153
 30
0.0
 10
-27.4536
 20
-2.153
 30
0.0
 10
-27.4536
 20
-2.153
 30
0.0
 10
-27.4536
 20
-2.153
 30
0.0
 10
-28.9086
 20
-2.1473
 30
0.0
 10
-28.9086
 20
-2.1473
 30
0.0
  0
SPLINE
  5
57
330
1F
100
AcDbEntity
  8
Ilustrace
 62
   254
100
AcDbSpline
210
0.0
220
0.0
230
1.0
 70
    11
 71
     3
 72
    52
 73
    48
 74
     0
 42
0.0000000001
 43
0.0000000001
 40
0.0
 40
0.0
 40
0.0
 40
0.0
 40
0.0769230769230769
 40
0.0769230769230769
 40
0.0769230769230769
 40
0.0769230769230769
 40
0.1538461538461539
 40
0.1538461538461539
 40
0.1538461538461539
 40
0.1538461538461539
 40
0.2307692307692308
 40
0.2307692307692308
 40
0.2307692307692308
 40
0.2307692307692308
 40
0.3076923076923077
 40
0.3076923076923077
 40
0.3076923076923077
 40
0.3076923076923077
 40
0.3846153846153846
 40
0.3846153846153846
 40
0.3846153846153846
 40
0.3846153846153846
 40
0.4615384615384616
 40
0.4615384615384616
 40
0.4615384615384616
 40
0.4615384615384616
 40
0.5384615384615384
 40
0.5384615384615384
 40
0.5384615384615384
 40
0.5384615384615384
 40
0.6153846153846154
 40
0.6153846153846154
 40
0.6153846153846154
 40
0.6153846153846154
 40
0.6923076923076923
 40
0.6923076923076923
 40
0.6923076923076923
 40
0.6923076923076923
 40
0.7692307692307693
 40
0.7692307692307693
 40
0.7692307692307693
 40
0.7692307692307693
 40
0.8461538461538461
 40
0.8461538461538461
 40
0.8461538461538461
 40
0.8461538461538461
 40
1.0
 40
1.0
 40
1.0
 40
1.0
 10
19.2545
 20
20.0908
 30
0.0
 10
19.2545
 20
20.0908
 30
0.0
 10
14.4425
 20
20.1128
 30
0.0
 10
14.4425
 20
20.1128
 30
0.0
 10
14.4425
 20
20.1128
 30
0.0
 10
14.4425
 20
20.1128
 30
0.0
 10
14.4423
 20
19.7216
 30
0.0
 10
14.4423
 20
19.7216
 30
0.0
 10
14.4423
 20
19.7216
 30
0.0
 10
14.4423
 20
19.7216
 30
0.0
 10
14.2606
 20
19.3907
 30
0.0
 10
14.2606
 20
19.3907
 30
0.0
 10
14.2606
 20
19.3907
 30
0.0
 10
14.2606
 20
19.3907
 30
0.0
 10
13.7038
 20
19.3908
 30
0.0
 10
13.7038
 20
19.3908
 30
0.0
 10
13.7038
 20
19.3908
 30
0.0
 10
13.7038
 20
19.3908
 30
0.0
 10
10.4185
 20
19.3908
 30
0.0
 10
10.4185
 20
19.3908
 30
0.0
 10
10.4185
 20
19.3908
 30
0.0
 10
10.4185
 20
19.3908
 30
0.0
 10
10.3414
 20
18.6742
 30
0.0
 10
10.3414
 20
18.6742
 30
0.0
 10
10.3414
 20
18.6742
 30
0.0
 10
10.3414
 20
18.6742
 30
0.0
 10
23.4109
 20
18.7073
 30
0.0
 10
23.4109
 20
18.7073
 30
0.0
 10
23.4109
 20
18.7073
 30
0.0
 10
23.4109
 20
18.7073
 30
0.0
 10
23.3999
 20
19.3798
 30
0.0
 10
23.3999
 20
19.3798
 30
0.0
 10
23.3999
 20
19.3798
 30
0.0
 10
23.3999
 20
19.3798
 30
0.0
 10
19.6849
 20
19.3855
 30
0.0
 10
19.6849
 20
19.3855
 30
0.0
 10
19.6849
 20
19.3855
 30
0.0
 10
19.6849
 20
19.3855
 30
0.0
 10
19.3376
 20
19.4351
 30
0.0
 10
19.3376
 20
19.4351
 30
0.0
 10
19.3376
 20
19.4351
 30
0.0
 10
19.3376
 20
19.4351
 30
0.0
 10
19.2549
 20
19.6612
 30
0.0
 10
19.2549
 20
19.6612
 30
0.0
 10
19.2549
 20
19.6612
 30
0.0
 10
19.2549
 20
19.6612
 30
0.0
 10
19.2545
 20
20.0908
 30
0.0
 10
19.2545
 20
20.0908
 30
0.0
  0
SPLINE
  5
58
330
1F
100
AcDbEntity
  8
Ilustrace
 62
   254
100
AcDbSpline
210
0.0
220
0.0
230
1.0
 70
    11
 71
     3
 72
    52
 73
    48
 74
     0
 42
0.0000000001
 43
0.0000000001
 40
0.0
 40
0.0
 40
0.0
 40
0.0
 40
0.0769230769230769
 40
0.0769230769230769
 40
0.0769230769230769
 40
0.0769230769230769
 40
0.1538461538461539
 40
0.1538461538461539
 40
0.1538461538461539
 40
0.1538461538461539
 40
0.2307692307692308
 40
0.2307692307692308
 40
0.2307692307692308
 40
0.2307692307692308
 40
0.3076923076923077
 40
0.3076923076923077
 40
0.3076923076923077
 40
0.3076923076923077
 40
0.3846153846153846
 40
0.3846153846153846
 40
0.3846153846153846
 40
0.3846153846153846
 40
0.4615384615384616
 40
0.4615384615384616
 40
0.4615384615384616
 40
0.4615384615384616
 40
0.5384615384615384
 40
0.5384615384615384
 40
0.5384615384615384
 40
0.5384615384615384
 40
0.6153846153846154
 40
0.6153846153846154
 40
0.6153846153846154
 40
0.6153846153846154
 40
0.6923076923076923
 40
0.6923076923076923
 40
0.6923076923076923
 40
0.6923076923076923
 40
0.7692307692307693
 40
0.7692307692307693
 40
0.7692307692307693
 40
0.7692307692307693
 40
0.8461538461538461
 40
0.8461538461538461
 40
0.8461538461538461
 40
0.8461538461538461
 40
1.0
 40
1.0
 40
1.0
 40
1.0
 10
-10.1168
 20
-23.177
 30
0.0
 10
-10.1168
 20
-23.177
 30
0.0
 10
-10.0838
 20
-28.0607
 30
0.0
 10
-10.0838
 20
-28.0607
 30
0.0
 10
-10.0838
 20
-28.0607
 30
0.0
 10
-10.0838
 20
-28.0607
 30
0.0
 10
-10.646
 20
-28.0718
 30
0.0
 10
-10.646
 20
-28.0718
 30
0.0
 10
-10.646
 20
-28.0718
 30
0.0
 10
-10.646
 20
-28.0718
 30
0.0
 10
-10.8224
 20
-28.2922
 30
0.0
 10
-10.8224
 20
-28.2922
 30
0.0
 10
-10.8224
 20
-28.2922
 30
0.0
 10
-10.8224
 20
-28.2922
 30
0.0
 10
-10.7893
 20
-28.5899
 30
0.0
 10
-10.7893
 20
-28.5899
 30
0.0
 10
-10.7893
 20
-28.5899
 30
0.0
 10
-10.7893
 20
-28.5899
 30
0.0
 10
-10.7893
 20
-31.8752
 30
0.0
 10
-10.7893
 20
-31.8752
 30
0.0
 10
-10.7893
 20
-31.8752
 30
0.0
 10
-10.7893
 20
-31.8752
 30
0.0
 10
-11.5059
 20
-31.9523
 30
0.0
 10
-11.5059
 20
-31.9523
 30
0.0
 10
-11.5059
 20
-31.9523
 30
0.0
 10
-11.5059
 20
-31.9523
 30
0.0
 10
-11.4728
 20
-18.8828
 30
0.0
 10
-11.4728
 20
-18.8828
 30
0.0
 10
-11.4728
 20
-18.8828
 30
0.0
 10
-11.4728
 20
-18.8828
 30
0.0
 10
-10.8003
 20
-18.8938
 30
0.0
 10
-10.8003
 20
-18.8938
 30
0.0
 10
-10.8003
 20
-18.8938
 30
0.0
 10
-10.8003
 20
-18.8938
 30
0.0
 10
-10.8056
 20
-22.9671
 30
0.0
 10
-10.8056
 20
-22.9671
 30
0.0
 10
-10.8056
 20
-22.9671
 30
0.0
 10
-10.8056
 20
-22.9671
 30
0.0
 10
-10.7285
 20
-23.1986
 30
0.0
 10
-10.7285
 20
-23.1986
 30
0.0
 10
-10.7285
 20
-23.1986
 30
0.0
 10
-10.7285
 20
-23.1986
 30
0.0
 10
-10.53
 20
-23.2482
 30
0.0
 10
-10.53
 20
-23.2482
 30
0.0
 10
-10.53
 20
-23.2482
 30
0.0
 10
-10.53
 20
-23.2482
 30
0.0
 10
-10.1168
 20
-23.177
 30
0.0
 10
-10.1168
 20
-23.177
 30
0.0
  0
SPLINE
  5
59
330
1F
100
AcDbEntity
  8
Ilustrace
 62
   254
100
AcDbSpline
210
0.0
220
0.0
230
1.0
 70
    11
 71
     3
 72
    52
 73
    48
 74
     0
 42
0.0000000001
 43
0.0000000001
 40
0.0
 40
0.0
 40
0.0
 40
0.0
 40
0.0769230769230769
 40
0.0769230769230769
 40
0.0769230769230769
 40
0.0769230769230769
 40
0.1538461538461539
 40
0.1538461538461539
 40
0.1538461538461539
 40
0.1538461538461539
 40
0.2307692307692308
 40
0.2307692307692308
 40
0.2307692307692308
 40
0.2307692307692308
 40
0.3076923076923077
 40
0.3076923076923077
 40
0.3076923076923077
 40
0.3076923076923077
 40
0.3846153846153846
 40
0.3846153846153846
 40
0.3846153846153846
 40
0.3846153846153846
 40
0.4615384615384616
 40
0.4615384615384616
 40
0.4615384615384616
 40
0.4615384615384616
 40
0.5384615384615384
 40
0.5384615384615384
 40
0.5384615384615384
 40
0.5384615384615384
 40
0.6153846153846154
 40
0.6153846153846154
 40
0.6153846153846154
 40
0.6153846153846154
 40
0.6923076923076923
 40
0.6923076923076923
 40
0.6923076923076923
 40
0.6923076923076923
 40
0.7692307692307693
 40
0.7692307692307693
 40
0.7692307692307693
 40
0.7692307692307693
 40
0.8461538461538461
 40
0.8461538461538461
 40
0.8461538461538461
 40
0.8461538461538461
 40
1.0
 40
1.0
 40
1.0
 40
1.0
 10
19.2876
 20
1.2779
 30
0.0
 10
19.2876
 20
1.2779
 30
0.0
 10
14.4315
 20
1.2449
 30
0.0
 10
14.4315
 20
1.2449
 30
0.0
 10
14.4315
 20
1.2449
 30
0.0
 10
14.4315
 20
1.2449
 30
0.0
 10
14.4204
 20
1.8292
 30
0.0
 10
14.4204
 20
1.8292
 30
0.0
 10
14.4204
 20
1.8292
 30
0.0
 10
14.4204
 20
1.8292
 30
0.0
 10
14.0236
 20
2.0166
 30
0.0
 10
14.0236
 20
2.0166
 30
0.0
 10
14.0236
 20
2.0166
 30
0.0
 10
14.0236
 20
2.0166
 30
0.0
 10
13.7259
 20
1.9835
 30
0.0
 10
13.7259
 20
1.9835
 30
0.0
 10
13.7259
 20
1.9835
 30
0.0
 10
13.7259
 20
1.9835
 30
0.0
 10
10.4406
 20
1.9835
 30
0.0
 10
10.4406
 20
1.9835
 30
0.0
 10
10.4406
 20
1.9835
 30
0.0
 10
10.4406
 20
1.9835
 30
0.0
 10
10.3635
 20
2.7001
 30
0.0
 10
10.3635
 20
2.7001
 30
0.0
 10
10.3635
 20
2.7001
 30
0.0
 10
10.3635
 20
2.7001
 30
0.0
 10
23.433
 20
2.667
 30
0.0
 10
23.433
 20
2.667
 30
0.0
 10
23.433
 20
2.667
 30
0.0
 10
23.433
 20
2.667
 30
0.0
 10
23.422
 20
1.9945
 30
0.0
 10
23.422
 20
1.9945
 30
0.0
 10
23.422
 20
1.9945
 30
0.0
 10
23.422
 20
1.9945
 30
0.0
 10
19.4479
 20
1.9998
 30
0.0
 10
19.4479
 20
1.9998
 30
0.0
 10
19.4479
 20
1.9998
 30
0.0
 10
19.4479
 20
1.9998
 30
0.0
 10
19.3376
 20
1.8841
 30
0.0
 10
19.3376
 20
1.8841
 30
0.0
 10
19.3376
 20
1.8841
 30
0.0
 10
19.3376
 20
1.8841
 30
0.0
 10
19.2661
 20
1.5919
 30
0.0
 10
19.2661
 20
1.5919
 30
0.0
 10
19.2661
 20
1.5919
 30
0.0
 10
19.2661
 20
1.5919
 30
0.0
 10
19.2876
 20
1.2779
 30
0.0
 10
19.2876
 20
1.2779
 30
0.0
  0
SPLINE
  5
5A
330
1F
100
AcDbEntity
  8
Ilustrace
 62
   254
100
AcDbSpline
210
0.0
220
0.0
230
1.0
 70
    11
 71
     3
 72
    52
 73
    48
 74
     0
 42
0.0000000001
 43
0.0000000001
 40
0.0
 40
0.0
 40
0.0
 40
0.0
 40
0.0769230769230769
 40
0.0769230769230769
 40
0.0769230769230769
 40
0.0769230769230769
 40
0.1538461538461539
 40
0.1538461538461539
 40
0.1538461538461539
 40
0.1538461538461539
 40
0.2307692307692308
 40
0.2307692307692308
 40
0.2307692307692308
 40
0.2307692307692308
 40
0.3076923076923077
 40
0.3076923076923077
 40
0.3076923076923077
 40
0.3076923076923077
 40
0.3846153846153846
 40
0.3846153846153846
 40
0.3846153846153846
 40
0.3846153846153846
 40
0.4615384615384616
 40
0.4615384615384616
 40
0.4615384615384616
 40
0.4615384615384616
 40
0.5384615384615384
 40
0.5384615384615384
 40
0.5384615384615384
 40
0.5384615384615384
 40
0.6153846153846154
 40
0.6153846153846154
 40
0.6153846153846154
 40
0.6153846153846154
 40
0.6923076923076923
 40
0.6923076923076923
 40
0.6923076923076923
 40
0.6923076923076923
 40
0.7692307692307693
 40
0.7692307692307693
 40
0.7692307692307693
 40
0.7692307692307693
 40
0.8461538461538461
 40
0.8461538461538461
 40
0.8461538461538461
 40
0.8461538461538461
 40
1.0
 40
1.0
 40
1.0
 40
1.0
 10
-28.8691
 20
-23.1549
 30
0.0
 10
-28.8691
 20
-23.1549
 30
0.0
 10
-28.9021
 20
-28.0386
 30
0.0
 10
-28.9021
 20
-28.0386
 30
0.0
 10
-28.9021
 20
-28.0386
 30
0.0
 10
-28.9021
 20
-28.0386
 30
0.0
 10
-28.3399
 20
-28.0497
 30
0.0
 10
-28.3399
 20
-28.0497
 30
0.0
 10
-28.3399
 20
-28.0497
 30
0.0
 10
-28.3399
 20
-28.0497
 30
0.0
 10
-28.1635
 20
-28.2701
 30
0.0
 10
-28.1635
 20
-28.2701
 30
0.0
 10
-28.1635
 20
-28.2701
 30
0.0
 10
-28.1635
 20
-28.2701
 30
0.0
 10
-28.1966
 20
-28.5678
 30
0.0
 10
-28.1966
 20
-28.5678
 30
0.0
 10
-28.1966
 20
-28.5678
 30
0.0
 10
-28.1966
 20
-28.5678
 30
0.0
 10
-28.1966
 20
-31.8531
 30
0.0
 10
-28.1966
 20
-31.8531
 30
0.0
 10
-28.1966
 20
-31.8531
 30
0.0
 10
-28.1966
 20
-31.8531
 30
0.0
 10
-27.48
 20
-31.9302
 30
0.0
 10
-27.48
 20
-31.9302
 30
0.0
 10
-27.48
 20
-31.9302
 30
0.0
 10
-27.48
 20
-31.9302
 30
0.0
 10
-27.5131
 20
-18.8607
 30
0.0
 10
-27.5131
 20
-18.8607
 30
0.0
 10
-27.5131
 20
-18.8607
 30
0.0
 10
-27.5131
 20
-18.8607
 30
0.0
 10
-28.1856
 20
-18.8717
 30
0.0
 10
-28.1856
 20
-18.8717
 30
0.0
 10
-28.1856
 20
-18.8717
 30
0.0
 10
-28.1856
 20
-18.8717
 30
0.0
 10
-28.1803
 20
-22.945
 30
0.0
 10
-28.1803
 20
-22.945
 30
0.0
 10
-28.1803
 20
-22.945
 30
0.0
 10
-28.1803
 20
-22.945
 30
0.0
 10
-28.2574
 20
-23.1765
 30
0.0
 10
-28.2574
 20
-23.1765
 30
0.0
 10
-28.2574
 20
-23.1765
 30
0.0
 10
-28.2574
 20
-23.1765
 30
0.0
 10
-28.4559
 20
-23.2261
 30
0.0
 10
-28.4559
 20
-23.2261
 30
0.0
 10
-28.4559
 20
-23.2261
 30
0.0
 10
-28.4559
 20
-23.2261
 30
0.0
 10
-28.8691
 20
-23.1549
 30
0.0
 10
-28.8691
 20
-23.1549
 30
0.0
  0
SPLINE
  5
5B
330
1F
100
AcDbEntity
  8
Ilustrace
 62
   250
370
    30
100
AcDbSpline
210
0.0
220
0.0
230
1.0
 70
    24
 71
     3
 72
     8
 73
     4
 74
     0
 42
0.0000000001
 43
0.0000000001
 40
0.0
 40
0.0
 40
0.0
 40
0.0
 40
1.0
 40
1.0
 40
1.0
 40
1.0
 10
-31.58
 20
-37.4986
 30
0.0
 10
-31.58
 20
-37.4986
 30
0.0
 10
-31.58
 20
22.4381
 30
0.0
 10
-31.58
 20
22.4381
 30
0.0
  0
SPLINE
  5
5C
330
1F
100
AcDbEntity
  8
Ilustrace
 62
   250
370
    30
100
AcDbSpline
210
0.0
220
0.0
230
1.0
 70
    24
 71
     3
 72
     8
 73
     4
 74
     0
 42
0.0000000001
 43
0.0000000001
 40
0.0
 40
0.0
 40
0.0
 40
0.0
 40
1.0
 40
1.0
 40
1.0
 40
1.0
 10
-31.2168
 20
22.8014
 30
0.0
 10
-31.2168
 20
22.8014
 30
0.0
 10
-26.0023
 20
22.8014
 30
0.0
 10
-26.0023
 20
22.8014
 30
0.0
  0
SPLINE
  5
5D
330
1F
100
AcDbEntity
  8
Ilustrace
 62
   250
370
    30
100
AcDbSpline
210
0.0
220
0.0
230
1.0
 70
    24
 71
     3
 72
     8
 73
     4
 74
     0
 42
0.0000000001
 43
0.0000000001
 40
0.0
 40
0.0
 40
0.0
 40
0.0
 40
1.0
 40
1.0
 40
1.0
 40
1.0
 10
-25.0414
 20
22.8014
 30
0.0
 10
-25.0414
 20
22.8014
 30
0.0
 10
22.4235
 20
22.8014
 30
0.0
 10
22.4235
 20
22.8014
 30
0.0
  0
SPLINE
  5
5E
330
1F
100
AcDbEntity
  8
Ilustrace
 62
   250
370
    30
100
AcDbSpline
210
0.0
220
0.0
230
1.0
 70
    24
 71
     3
 72
     8
 73
     4
 74
     0
 42
0.0000000001
 43
0.0000000001
 40
0.0
 40
0.0
 40
0.0
 40
0.0
 40
1.0
 40
1.0
 40
1.0
 40
1.0
 10
23.3922
 20
18.6845
 30
0.0
 10
23.3922
 20
18.6845
 30
0.0
 10
23.3922
 20
20.1375
 30
0.0
 10
23.3922
 20
20.1375
 30
0.0
  0
SPLINE
  5
5F
330
1F
100
AcDbEntity
  8
Ilustrace
 62
   250
370
    30
100
AcDbSpline
210
0.0
220
0.0
230
1.0
 70
    24
 71
     3
 72
     8
 73
     4
 74
     0
 42
0.0000000001
 43
0.0000000001
 40
0.0
 40
0.0
 40
0.0
 40
0.0
 40
1.0
 40
1.0
 40
1.0
 40
1.0
 10
23.3922
 20
22.8014
 30
0.0
 10
23.3922
 20
22.8014
 30
0.0
 10
-26.0101
 20
22.8014
 30
0.0
 10
-26.0101
 20
22.8014
 30
0.0
  0
SPLINE
  5
60
330
1F
100
AcDbEntity
  8
Ilustrace
 62
   250
370
    30
100
AcDbSpline
210
0.0
220
0.0
230
1.0
 70
    24
 71
     3
 72
     8
 73
     4
 74
     0
 42
0.0000000001
 43
0.0000000001
 40
0.0
 40
0.0
 40
0.0
 40
0.0
 40
1.0
 40
1.0
 40
1.0
 40
1.0
 10
22.7581
 20
22.8014
 30
0.0
 10
22.7581
 20
22.8014
 30
0.0
 10
-25.3762
 20
22.8014
 30
0.0
 10
-25.3762
 20
22.8014
 30
0.0
  0
SPLINE
  5
61
330
1F
100
AcDbEntity
  8
Ilustrace
 62
   250
370
    30
100
AcDbSpline
210
0.0
220
0.0
230
1.0
 70
    24
 71
     3
 72
     8
 73
     4
 74
     0
 42
0.0000000001
 43
0.0000000001
 40
0.0
 40
0.0
 40
0.0
 40
0.0
 40
1.0
 40
1.0
 40
1.0
 40
1.0
 10
22.7174
 20
22.8014
 30
0.0
 10
22.7174
 20
22.8014
 30
0.0
 10
-25.2963
 20
22.8014
 30
0.0
 10
-25.2963
 20
22.8014
 30
0.0
  0
SPLINE
  5
62
330
1F
100
AcDbEntity
  8
Ilustrace
 62
   250
370
    30
100
AcDbSpline
210
0.0
220
0.0
230
1.0
 70
    24
 71
     3
 72
     8
 73
     4
 74
     0
 42
0.0000000001
 43
0.0000000001
 40
0.0
 40
0.0
 40
0.0
 40
0.0
 40
1.0
 40
1.0
 40
1.0
 40
1.0
 10
22.641
 20
22.8014
 30
0.0
 10
22.641
 20
22.8014
 30
0.0
 10
-25.259
 20
22.8014
 30
0.0
 10
-25.259
 20
22.8014
 30
0.0
  0
SPLINE
  5
63
330
1F
100
AcDbEntity
  8
Ilustrace
 62
   250
370
    30
100
AcDbSpline
210
0.0
220
0.0
230
1.0
 70
    24
 71
     3
 72
     8
 73
     4
 74
     0
 42
0.0000000001
 43
0.0000000001
 40
0.0
 40
0.0
 40
0.0
 40
0.0
 40
1.0
 40
1.0
 40
1.0
 40
1.0
 10
22.6058
 20
22.8014
 30
0.0
 10
22.6058
 20
22.8014
 30
0.0
 10
-25.2237
 20
22.8014
 30
0.0
 10
-25.2237
 20
22.8014
 30
0.0
  0
SPLINE
  5
64
330
1F
100
AcDbEntity
  8
Ilustrace
 62
   250
370
    30
100
AcDbSpline
210
0.0
220
0.0
230
1.0
 70
    24
 71
     3
 72
     8
 73
     4
 74
     0
 42
0.0000000001
 43
0.0000000001
 40
0.0
 40
0.0
 40
0.0
 40
0.0
 40
1.0
 40
1.0
 40
1.0
 40
1.0
 10
22.5732
 20
22.8014
 30
0.0
 10
22.5732
 20
22.8014
 30
0.0
 10
-25.1911
 20
22.8014
 30
0.0
 10
-25.1911
 20
22.8014
 30
0.0
  0
SPLINE
  5
65
330
1F
100
AcDbEntity
  8
Ilustrace
 62
   250
370
    30
100
AcDbSpline
210
0.0
220
0.0
230
1.0
 70
    24
 71
     3
 72
     8
 73
     4
 74
     0
 42
0.0000000001
 43
0.0000000001
 40
0.0
 40
0.0
 40
0.0
 40
0.0
 40
1.0
 40
1.0
 40
1.0
 40
1.0
 10
22.5431
 20
22.8014
 30
0.0
 10
22.5431
 20
22.8014
 30
0.0
 10
-25.161
 20
22.8014
 30
0.0
 10
-25.161
 20
22.8014
 30
0.0
  0
SPLINE
  5
66
330
1F
100
AcDbEntity
  8
Ilustrace
 62
   250
370
    30
100
AcDbSpline
210
0.0
220
0.0
230
1.0
 70
    24
 71
     3
 72
     8
 73
     4
 74
     0
 42
0.0000000001
 43
0.0000000001
 40
0.0
 40
0.0
 40
0.0
 40
0.0
 40
1.0
 40
1.0
 40
1.0
 40
1.0
 10
22.5161
 20
22.8014
 30
0.0
 10
22.5161
 20
22.8014
 30
0.0
 10
-25.134
 20
22.8014
 30
0.0
 10
-25.134
 20
22.8014
 30
0.0
  0
SPLINE
  5
67
330
1F
100
AcDbEntity
  8
Ilustrace
 62
   250
370
    30
100
AcDbSpline
210
0.0
220
0.0
230
1.0
 70
    24
 71
     3
 72
     8
 73
     4
 74
     0
 42
0.0000000001
 43
0.0000000001
 40
0.0
 40
0.0
 40
0.0
 40
0.0
 40
1.0
 40
1.0
 40
1.0
 40
1.0
 10
22.4921
 20
22.8014
 30
0.0
 10
22.4921
 20
22.8014
 30
0.0
 10
-25.1099
 20
22.8014
 30
0.0
 10
-25.1099
 20
22.8014
 30
0.0
  0
SPLINE
  5
68
330
1F
100
AcDbEntity
  8
Ilustrace
 62
   250
370
    30
100
AcDbSpline
210
0.0
220
0.0
230
1.0
 70
    24
 71
     3
 72
     8
 73
     4
 74
     0
 42
0.0000000001
 43
0.0000000001
 40
0.0
 40
0.0
 40
0.0
 40
0.0
 40
1.0
 40
1.0
 40
1.0
 40
1.0
 10
22.4545
 20
22.8014
 30
0.0
 10
22.4545
 20
22.8014
 30
0.0
 10
-25.0894
 20
22.8014
 30
0.0
 10
-25.0894
 20
22.8014
 30
0.0
  0
SPLINE
  5
69
330
1F
100
AcDbEntity
  8
Ilustrace
 62
   250
370
    30
100
AcDbSpline
210
0.0
220
0.0
230
1.0
 70
    24
 71
     3
 72
     8
 73
     4
 74
     0
 42
0.0000000001
 43
0.0000000001
 40
0.0
 40
0.0
 40
0.0
 40
0.0
 40
1.0
 40
1.0
 40
1.0
 40
1.0
 10
22.4715
 20
22.8014
 30
0.0
 10
22.4715
 20
22.8014
 30
0.0
 10
-25.0724
 20
22.8014
 30
0.0
 10
-25.0724
 20
22.8014
 30
0.0
  0
SPLINE
  5
6A
330
1F
100
AcDbEntity
  8
Ilustrace
 62
   250
370
    30
100
AcDbSpline
210
0.0
220
0.0
230
1.0
 70
    24
 71
     3
 72
     8
 73
     4
 74
     0
 42
0.0000000001
 43
0.0000000001
 40
0.0
 40
0.0
 40
0.0
 40
0.0
 40
1.0
 40
1.0
 40
1.0
 40
1.0
 10
22.441
 20
22.8014
 30
0.0
 10
22.441
 20
22.8014
 30
0.0
 10
-25.0589
 20
22.8014
 30
0.0
 10
-25.0589
 20
22.8014
 30
0.0
  0
SPLINE
  5
6B
330
1F
100
AcDbEntity
  8
Ilustrace
 62
   250
370
    30
100
AcDbSpline
210
0.0
220
0.0
230
1.0
 70
    24
 71
     3
 72
     8
 73
     4
 74
     0
 42
0.0000000001
 43
0.0000000001
 40
0.0
 40
0.0
 40
0.0
 40
0.0
 40
1.0
 40
1.0
 40
1.0
 40
1.0
 10
22.4313
 20
22.8014
 30
0.0
 10
22.4313
 20
22.8014
 30
0.0
 10
-25.0492
 20
22.8014
 30
0.0
 10
-25.0492
 20
22.8014
 30
0.0
  0
SPLINE
  5
6C
330
1F
100
AcDbEntity
  8
Ilustrace
 62
   250
370
    30
100
AcDbSpline
210
0.0
220
0.0
230
1.0
 70
    24
 71
     3
 72
     8
 73
     4
 74
     0
 42
0.0000000001
 43
0.0000000001
 40
0.0
 40
0.0
 40
0.0
 40
0.0
 40
1.0
 40
1.0
 40
1.0
 40
1.0
 10
22.4235
 20
22.8014
 30
0.0
 10
22.4235
 20
22.8014
 30
0.0
 10
-25.0414
 20
22.8014
 30
0.0
 10
-25.0414
 20
22.8014
 30
0.0
  0
SPLINE
  5
6D
330
1F
100
AcDbEntity
  8
Ilustrace
 62
   250
370
    30
100
AcDbSpline
210
0.0
220
0.0
230
1.0
 70
    24
 71
     3
 72
     8
 73
     4
 74
     0
 42
0.0000000001
 43
0.0000000001
 40
0.0
 40
0.0
 40
0.0
 40
0.0
 40
1.0
 40
1.0
 40
1.0
 40
1.0
 10
28.72
 20
22.8014
 30
0.0
 10
28.72
 20
22.8014
 30
0.0
 10
23.3844
 20
22.8014
 30
0.0
 10
23.3844
 20
22.8014
 30
0.0
  0
SPLINE
  5
6E
330
1F
100
AcDbEntity
  8
Ilustrace
 62
   250
370
    30
100
AcDbSpline
210
0.0
220
0.0
230
1.0
 70
    24
 71
     3
 72
     8
 73
     4
 74
     0
 42
0.0000000001
 43
0.0000000001
 40
0.0
 40
0.0
 40
0.0
 40
0.0
 40
1.0
 40
1.0
 40
1.0
 40
1.0
 10
23.3922
 20
20.1375
 30
0.0
 10
23.3922
 20
20.1375
 30
0.0
 10
10.3152
 20
20.1375
 30
0.0
 10
10.3152
 20
20.1375
 30
0.0
  0
SPLINE
  5
6F
330
1F
100
AcDbEntity
  8
Ilustrace
 62
   250
370
    30
100
AcDbSpline
210
0.0
220
0.0
230
1.0
 70
    24
 71
     3
 72
     8
 73
     4
 74
     0
 42
0.0000000001
 43
0.0000000001
 40
0.0
 40
0.0
 40
0.0
 40
0.0
 40
1.0
 40
1.0
 40
1.0
 40
1.0
 10
10.3152
 20
18.6845
 30
0.0
 10
10.3152
 20
18.6845
 30
0.0
 10
10.3152
 20
20.1375
 30
0.0
 10
10.3152
 20
20.1375
 30
0.0
  0
SPLINE
  5
70
330
1F
100
AcDbEntity
  8
Ilustrace
 62
   250
370
    30
100
AcDbSpline
210
0.0
220
0.0
230
1.0
 70
    24
 71
     3
 72
     8
 73
     4
 74
     0
 42
0.0000000001
 43
0.0000000001
 40
0.0
 40
0.0
 40
0.0
 40
0.0
 40
1.0
 40
1.0
 40
1.0
 40
1.0
 10
10.3152
 20
18.6845
 30
0.0
 10
10.3152
 20
18.6845
 30
0.0
 10
23.3922
 20
18.6845
 30
0.0
 10
23.3922
 20
18.6845
 30
0.0
  0
SPLINE
  5
71
330
1F
100
AcDbEntity
  8
Ilustrace
 62
   250
370
    30
100
AcDbSpline
210
0.0
220
0.0
230
1.0
 70
    24
 71
     3
 72
     8
 73
     4
 74
     0
 42
0.0000000001
 43
0.0000000001
 40
0.0
 40
0.0
 40
0.0
 40
0.0
 40
1.0
 40
1.0
 40
1.0
 40
1.0
 10
28.72
 20
-1.4126
 30
0.0
 10
28.72
 20
-1.4126
 30
0.0
 10
28.72
 20
22.8014
 30
0.0
 10
28.72
 20
22.8014
 30
0.0
  0
SPLINE
  5
72
330
1F
100
AcDbEntity
  8
Ilustrace
 62
   250
370
    30
100
AcDbSpline
210
0.0
220
0.0
230
1.0
 70
    24
 71
     3
 72
     8
 73
     4
 74
     0
 42
0.0000000001
 43
0.0000000001
 40
0.0
 40
0.0
 40
0.0
 40
0.0
 40
1.0
 40
1.0
 40
1.0
 40
1.0
 10
-31.2168
 20
22.8014
 30
0.0
 10
-31.2168
 20
22.8014
 30
0.0
 10
28.72
 20
22.8014
 30
0.0
 10
28.72
 20
22.8014
 30
0.0
  0
SPLINE
  5
73
330
1F
100
AcDbEntity
  8
Ilustrace
 62
   250
370
    30
100
AcDbSpline
210
0.0
220
0.0
230
1.0
 70
    24
 71
     3
 72
     8
 73
     4
 74
     0
 42
0.0000000001
 43
0.0000000001
 40
0.0
 40
0.0
 40
0.0
 40
0.0
 40
1.0
 40
1.0
 40
1.0
 40
1.0
 10
28.72
 20
21.8084
 30
0.0
 10
28.72
 20
21.8084
 30
0.0
 10
28.72
 20
22.1713
 30
0.0
 10
28.72
 20
22.1713
 30
0.0
  0
SPLINE
  5
74
330
1F
100
AcDbEntity
  8
Ilustrace
 62
   250
370
    30
100
AcDbSpline
210
0.0
220
0.0
230
1.0
 70
    24
 71
     3
 72
     8
 73
     4
 74
     0
 42
0.0000000001
 43
0.0000000001
 40
0.0
 40
0.0
 40
0.0
 40
0.0
 40
1.0
 40
1.0
 40
1.0
 40
1.0
 10
28.72
 20
-1.4155
 30
0.0
 10
28.72
 20
-1.4155
 30
0.0
 10
28.72
 20
-0.4226
 30
0.0
 10
28.72
 20
-0.4226
 30
0.0
  0
SPLINE
  5
75
330
1F
100
AcDbEntity
  8
Ilustrace
 62
   250
370
    30
100
AcDbSpline
210
0.0
220
0.0
230
1.0
 70
    24
 71
     3
 72
     8
 73
     4
 74
     0
 42
0.0000000001
 43
0.0000000001
 40
0.0
 40
0.0
 40
0.0
 40
0.0
 40
1.0
 40
1.0
 40
1.0
 40
1.0
 10
-6.3945
 20
1.2483
 30
0.0
 10
-6.3945
 20
1.2483
 30
0.0
 10
-6.3945
 20
2.7014
 30
0.0
 10
-6.3945
 20
2.7014
 30
0.0
  0
SPLINE
  5
76
330
1F
100
AcDbEntity
  8
Ilustrace
 62
   250
370
    30
100
AcDbSpline
210
0.0
220
0.0
230
1.0
 70
    24
 71
     3
 72
     8
 73
     4
 74
     0
 42
0.0000000001
 43
0.0000000001
 40
0.0
 40
0.0
 40
0.0
 40
0.0
 40
1.0
 40
1.0
 40
1.0
 40
1.0
 10
-6.3945
 20
1.2483
 30
0.0
 10
-6.3945
 20
1.2483
 30
0.0
 10
6.6826
 20
1.2483
 30
0.0
 10
6.6826
 20
1.2483
 30
0.0
  0
SPLINE
  5
77
330
1F
100
AcDbEntity
  8
Ilustrace
 62
   250
370
    30
100
AcDbSpline
210
0.0
220
0.0
230
1.0
 70
    24
 71
     3
 72
     8
 73
     4
 74
     0
 42
0.0000000001
 43
0.0000000001
 40
0.0
 40
0.0
 40
0.0
 40
0.0
 40
1.0
 40
1.0
 40
1.0
 40
1.0
 10
6.6826
 20
2.7014
 30
0.0
 10
6.6826
 20
2.7014
 30
0.0
 10
6.6826
 20
1.2483
 30
0.0
 10
6.6826
 20
1.2483
 30
0.0
  0
SPLINE
  5
78
330
1F
100
AcDbEntity
  8
Ilustrace
 62
   250
370
    30
100
AcDbSpline
210
0.0
220
0.0
230
1.0
 70
    24
 71
     3
 72
     8
 73
     4
 74
     0
 42
0.0000000001
 43
0.0000000001
 40
0.0
 40
0.0
 40
0.0
 40
0.0
 40
1.0
 40
1.0
 40
1.0
 40
1.0
 10
0.6102
 20
1.9749
 30
0.0
 10
0.6102
 20
1.9749
 30
0.0
 10
6.6826
 20
1.9743
 30
0.0
 10
6.6826
 20
1.9743
 30
0.0
  0
SPLINE
  5
79
330
1F
100
AcDbEntity
  8
Ilustrace
 62
   250
370
    30
100
AcDbSpline
210
0.0
220
0.0
230
1.0
 70
    24
 71
     3
 72
     8
 73
     4
 74
     0
 42
0.0000000001
 43
0.0000000001
 40
0.0
 40
0.0
 40
0.0
 40
0.0
 40
1.0
 40
1.0
 40
1.0
 40
1.0
 10
-6.3945
 20
2.7014
 30
0.0
 10
-6.3945
 20
2.7014
 30
0.0
 10
6.6826
 20
2.7014
 30
0.0
 10
6.6826
 20
2.7014
 30
0.0
  0
SPLINE
  5
7A
330
1F
100
AcDbEntity
  8
Ilustrace
 62
   250
370
    30
100
AcDbSpline
210
0.0
220
0.0
230
1.0
 70
    24
 71
     3
 72
     8
 73
     4
 74
     0
 42
0.0000000001
 43
0.0000000001
 40
0.0
 40
0.0
 40
0.0
 40
0.0
 40
1.0
 40
1.0
 40
1.0
 40
1.0
 10
-0.1163
 20
1.2483
 30
0.0
 10
-0.1163
 20
1.2483
 30
0.0
 10
0.6102
 20
1.9749
 30
0.0
 10
0.6102
 20
1.9749
 30
0.0
  0
SPLINE
  5
7B
330
1F
100
AcDbEntity
  8
Ilustrace
 62
   250
370
    30
100
AcDbSpline
210
0.0
220
0.0
230
1.0
 70
    24
 71
     3
 72
     8
 73
     4
 74
     0
 42
0.0000000001
 43
0.0000000001
 40
0.0
 40
0.0
 40
0.0
 40
0.0
 40
1.0
 40
1.0
 40
1.0
 40
1.0
 10
-10.027
 20
-15.2191
 30
0.0
 10
-10.027
 20
-15.2191
 30
0.0
 10
-10.027
 20
-2.1421
 30
0.0
 10
-10.027
 20
-2.1421
 30
0.0
  0
SPLINE
  5
7C
330
1F
100
AcDbEntity
  8
Ilustrace
 62
   250
370
    30
100
AcDbSpline
210
0.0
220
0.0
230
1.0
 70
    24
 71
     3
 72
     8
 73
     4
 74
     0
 42
0.0000000001
 43
0.0000000001
 40
0.0
 40
0.0
 40
0.0
 40
0.0
 40
1.0
 40
1.0
 40
1.0
 40
1.0
 10
-11.4799
 20
-2.1421
 30
0.0
 10
-11.4799
 20
-2.1421
 30
0.0
 10
-10.027
 20
-2.1421
 30
0.0
 10
-10.027
 20
-2.1421
 30
0.0
  0
SPLINE
  5
7D
330
1F
100
AcDbEntity
  8
Ilustrace
 62
   250
370
    30
100
AcDbSpline
210
0.0
220
0.0
230
1.0
 70
    24
 71
     3
 72
     8
 73
     4
 74
     0
 42
0.0000000001
 43
0.0000000001
 40
0.0
 40
0.0
 40
0.0
 40
0.0
 40
1.0
 40
1.0
 40
1.0
 40
1.0
 10
-11.4799
 20
-2.1421
 30
0.0
 10
-11.4799
 20
-2.1421
 30
0.0
 10
-11.4799
 20
-15.2191
 30
0.0
 10
-11.4799
 20
-15.2191
 30
0.0
  0
SPLINE
  5
7E
330
1F
100
AcDbEntity
  8
Ilustrace
 62
   250
370
    30
100
AcDbSpline
210
0.0
220
0.0
230
1.0
 70
    24
 71
     3
 72
     8
 73
     4
 74
     0
 42
0.0000000001
 43
0.0000000001
 40
0.0
 40
0.0
 40
0.0
 40
0.0
 40
1.0
 40
1.0
 40
1.0
 40
1.0
 10
-10.027
 20
-15.2191
 30
0.0
 10
-10.027
 20
-15.2191
 30
0.0
 10
-11.4799
 20
-15.2191
 30
0.0
 10
-11.4799
 20
-15.2191
 30
0.0
  0
SPLINE
  5
7F
330
1F
100
AcDbEntity
  8
Ilustrace
 62
   250
370
    30
100
AcDbSpline
210
0.0
220
0.0
230
1.0
 70
    24
 71
     3
 72
     8
 73
     4
 74
     0
 42
0.0000000001
 43
0.0000000001
 40
0.0
 40
0.0
 40
0.0
 40
0.0
 40
1.0
 40
1.0
 40
1.0
 40
1.0
 10
-7.7285
 20
-37.4986
 30
0.0
 10
-7.7285
 20
-37.4986
 30
0.0
 10
-7.3632
 20
-37.4986
 30
0.0
 10
-7.3632
 20
-37.4986
 30
0.0
  0
SPLINE
  5
80
330
1F
100
AcDbEntity
  8
Ilustrace
 62
   250
370
    30
100
AcDbSpline
210
0.0
220
0.0
230
1.0
 70
    24
 71
     3
 72
     8
 73
     4
 74
     0
 42
0.0000000001
 43
0.0000000001
 40
0.0
 40
0.0
 40
0.0
 40
0.0
 40
1.0
 40
1.0
 40
1.0
 40
1.0
 10
-10.5114
 20
-37.4986
 30
0.0
 10
-10.5114
 20
-37.4986
 30
0.0
 10
-8.3559
 20
-37.4986
 30
0.0
 10
-8.3559
 20
-37.4986
 30
0.0
  0
SPLINE
  5
81
330
1F
100
AcDbEntity
  8
Ilustrace
 62
   250
370
    30
100
AcDbSpline
210
0.0
220
0.0
230
1.0
 70
    24
 71
     3
 72
     8
 73
     4
 74
     0
 42
0.0000000001
 43
0.0000000001
 40
0.0
 40
0.0
 40
0.0
 40
0.0
 40
1.0
 40
1.0
 40
1.0
 40
1.0
 10
-7.3632
 20
-37.4986
 30
0.0
 10
-7.3632
 20
-37.4986
 30
0.0
 10
-31.5771
 20
-37.4986
 30
0.0
 10
-31.5771
 20
-37.4986
 30
0.0
  0
SPLINE
  5
82
330
1F
100
AcDbEntity
  8
Ilustrace
 62
   250
370
    30
100
AcDbSpline
210
0.0
220
0.0
230
1.0
 70
    24
 71
     3
 72
     8
 73
     4
 74
     0
 42
0.0000000001
 43
0.0000000001
 40
0.0
 40
0.0
 40
0.0
 40
0.0
 40
1.0
 40
1.0
 40
1.0
 40
1.0
 10
-31.58
 20
-37.4986
 30
0.0
 10
-31.58
 20
-37.4986
 30
0.0
 10
-31.2168
 20
-37.4986
 30
0.0
 10
-31.2168
 20
-37.4986
 30
0.0
  0
SPLINE
  5
83
330
1F
100
AcDbEntity
  8
Ilustrace
 62
   250
370
    30
100
AcDbSpline
210
0.0
220
0.0
230
1.0
 70
    24
 71
     3
 72
     8
 73
     4
 74
     0
 42
0.0000000001
 43
0.0000000001
 40
0.0
 40
0.0
 40
0.0
 40
0.0
 40
1.0
 40
1.0
 40
1.0
 40
1.0
 10
-28.4318
 20
-37.4986
 30
0.0
 10
-28.4318
 20
-37.4986
 30
0.0
 10
-30.7501
 20
-37.4986
 30
0.0
 10
-30.7501
 20
-37.4986
 30
0.0
  0
SPLINE
  5
84
330
1F
100
AcDbEntity
  8
Ilustrace
 62
   250
370
    30
100
AcDbSpline
210
0.0
220
0.0
230
1.0
 70
    24
 71
     3
 72
     8
 73
     4
 74
     0
 42
0.0000000001
 43
0.0000000001
 40
0.0
 40
0.0
 40
0.0
 40
0.0
 40
1.0
 40
1.0
 40
1.0
 40
1.0
 10
-7.3659
 20
-37.4986
 30
0.0
 10
-7.3659
 20
-37.4986
 30
0.0
 10
-31.58
 20
-37.4986
 30
0.0
 10
-31.58
 20
-37.4986
 30
0.0
  0
SPLINE
  5
85
330
1F
100
AcDbEntity
  8
Ilustrace
 62
   250
370
    30
100
AcDbSpline
210
0.0
220
0.0
230
1.0
 70
    24
 71
     3
 72
     8
 73
     4
 74
     0
 42
0.0000000001
 43
0.0000000001
 40
0.0
 40
0.0
 40
0.0
 40
0.0
 40
1.0
 40
1.0
 40
1.0
 40
1.0
 10
-27.4631
 20
4.1544
 30
0.0
 10
-27.4631
 20
4.1544
 30
0.0
 10
-28.9161
 20
4.1544
 30
0.0
 10
-28.9161
 20
4.1544
 30
0.0
  0
SPLINE
  5
86
330
1F
100
AcDbEntity
  8
Ilustrace
 62
   250
370
    30
100
AcDbSpline
210
0.0
220
0.0
230
1.0
 70
    24
 71
     3
 72
     8
 73
     4
 74
     0
 42
0.0000000001
 43
0.0000000001
 40
0.0
 40
0.0
 40
0.0
 40
0.0
 40
1.0
 40
1.0
 40
1.0
 40
1.0
 10
-28.9161
 20
17.2314
 30
0.0
 10
-28.9161
 20
17.2314
 30
0.0
 10
-28.9161
 20
4.1544
 30
0.0
 10
-28.9161
 20
4.1544
 30
0.0
  0
SPLINE
  5
87
330
1F
100
AcDbEntity
  8
Ilustrace
 62
   250
370
    30
100
AcDbSpline
210
0.0
220
0.0
230
1.0
 70
    24
 71
     3
 72
     8
 73
     4
 74
     0
 42
0.0000000001
 43
0.0000000001
 40
0.0
 40
0.0
 40
0.0
 40
0.0
 40
1.0
 40
1.0
 40
1.0
 40
1.0
 10
-28.1896
 20
17.2314
 30
0.0
 10
-28.1896
 20
17.2314
 30
0.0
 10
-28.1896
 20
4.1544
 30
0.0
 10
-28.1896
 20
4.1544
 30
0.0
  0
SPLINE
  5
88
330
1F
100
AcDbEntity
  8
Ilustrace
 62
   250
370
    30
100
AcDbSpline
210
0.0
220
0.0
230
1.0
 70
    24
 71
     3
 72
     8
 73
     4
 74
     0
 42
0.0000000001
 43
0.0000000001
 40
0.0
 40
0.0
 40
0.0
 40
0.0
 40
1.0
 40
1.0
 40
1.0
 40
1.0
 10
-27.4631
 20
4.1544
 30
0.0
 10
-27.4631
 20
4.1544
 30
0.0
 10
-27.4631
 20
17.2314
 30
0.0
 10
-27.4631
 20
17.2314
 30
0.0
  0
SPLINE
  5
89
330
1F
100
AcDbEntity
  8
Ilustrace
 62
   250
370
    30
100
AcDbSpline
210
0.0
220
0.0
230
1.0
 70
    24
 71
     3
 72
     8
 73
     4
 74
     0
 42
0.0000000001
 43
0.0000000001
 40
0.0
 40
0.0
 40
0.0
 40
0.0
 40
1.0
 40
1.0
 40
1.0
 40
1.0
 10
-28.9161
 20
17.2314
 30
0.0
 10
-28.9161
 20
17.2314
 30
0.0
 10
-27.4631
 20
17.2314
 30
0.0
 10
-27.4631
 20
17.2314
 30
0.0
  0
SPLINE
  5
8A
330
1F
100
AcDbEntity
  8
Ilustrace
 62
   250
370
    30
100
AcDbSpline
210
0.0
220
0.0
230
1.0
 70
    24
 71
     3
 72
     8
 73
     4
 74
     0
 42
0.0000000001
 43
0.0000000001
 40
0.0
 40
0.0
 40
0.0
 40
0.0
 40
1.0
 40
1.0
 40
1.0
 40
1.0
 10
-27.4631
 20
-31.9287
 30
0.0
 10
-27.4631
 20
-31.9287
 30
0.0
 10
-27.4631
 20
-18.8515
 30
0.0
 10
-27.4631
 20
-18.8515
 30
0.0
  0
SPLINE
  5
8B
330
1F
100
AcDbEntity
  8
Ilustrace
 62
   250
370
    30
100
AcDbSpline
210
0.0
220
0.0
230
1.0
 70
    24
 71
     3
 72
     8
 73
     4
 74
     0
 42
0.0000000001
 43
0.0000000001
 40
0.0
 40
0.0
 40
0.0
 40
0.0
 40
1.0
 40
1.0
 40
1.0
 40
1.0
 10
-28.9161
 20
-18.8515
 30
0.0
 10
-28.9161
 20
-18.8515
 30
0.0
 10
-28.9161
 20
-31.9287
 30
0.0
 10
-28.9161
 20
-31.9287
 30
0.0
  0
SPLINE
  5
8C
330
1F
100
AcDbEntity
  8
Ilustrace
 62
   250
370
    30
100
AcDbSpline
210
0.0
220
0.0
230
1.0
 70
    24
 71
     3
 72
     8
 73
     4
 74
     0
 42
0.0000000001
 43
0.0000000001
 40
0.0
 40
0.0
 40
0.0
 40
0.0
 40
1.0
 40
1.0
 40
1.0
 40
1.0
 10
-27.4631
 20
-31.9287
 30
0.0
 10
-27.4631
 20
-31.9287
 30
0.0
 10
-28.9161
 20
-31.9287
 30
0.0
 10
-28.9161
 20
-31.9287
 30
0.0
  0
SPLINE
  5
8D
330
1F
100
AcDbEntity
  8
Ilustrace
 62
   250
370
    30
100
AcDbSpline
210
0.0
220
0.0
230
1.0
 70
    24
 71
     3
 72
     8
 73
     4
 74
     0
 42
0.0000000001
 43
0.0000000001
 40
0.0
 40
0.0
 40
0.0
 40
0.0
 40
1.0
 40
1.0
 40
1.0
 40
1.0
 10
-27.4631
 20
-18.8515
 30
0.0
 10
-27.4631
 20
-18.8515
 30
0.0
 10
-28.9161
 20
-18.8515
 30
0.0
 10
-28.9161
 20
-18.8515
 30
0.0
  0
SPLINE
  5
8E
330
1F
100
AcDbEntity
  8
Ilustrace
 62
   250
370
    30
100
AcDbSpline
210
0.0
220
0.0
230
1.0
 70
    24
 71
     3
 72
     8
 73
     4
 74
     0
 42
0.0000000001
 43
0.0000000001
 40
0.0
 40
0.0
 40
0.0
 40
0.0
 40
1.0
 40
1.0
 40
1.0
 40
1.0
 10
-27.4631
 20
-15.2191
 30
0.0
 10
-27.4631
 20
-15.2191
 30
0.0
 10
-27.4631
 20
-2.1421
 30
0.0
 10
-27.4631
 20
-2.1421
 30
0.0
  0
SPLINE
  5
8F
330
1F
100
AcDbEntity
  8
Ilustrace
 62
   250
370
    30
100
AcDbSpline
210
0.0
220
0.0
230
1.0
 70
    24
 71
     3
 72
     8
 73
     4
 74
     0
 42
0.0000000001
 43
0.0000000001
 40
0.0
 40
0.0
 40
0.0
 40
0.0
 40
1.0
 40
1.0
 40
1.0
 40
1.0
 10
-28.9161
 20
-2.1421
 30
0.0
 10
-28.9161
 20
-2.1421
 30
0.0
 10
-27.4631
 20
-2.1421
 30
0.0
 10
-27.4631
 20
-2.1421
 30
0.0
  0
SPLINE
  5
90
330
1F
100
AcDbEntity
  8
Ilustrace
 62
   250
370
    30
100
AcDbSpline
210
0.0
220
0.0
230
1.0
 70
    24
 71
     3
 72
     8
 73
     4
 74
     0
 42
0.0000000001
 43
0.0000000001
 40
0.0
 40
0.0
 40
0.0
 40
0.0
 40
1.0
 40
1.0
 40
1.0
 40
1.0
 10
-28.9161
 20
-2.1421
 30
0.0
 10
-28.9161
 20
-2.1421
 30
0.0
 10
-28.9161
 20
-15.2191
 30
0.0
 10
-28.9161
 20
-15.2191
 30
0.0
  0
SPLINE
  5
91
330
1F
100
AcDbEntity
  8
Ilustrace
 62
   250
370
    30
100
AcDbSpline
210
0.0
220
0.0
230
1.0
 70
    24
 71
     3
 72
     8
 73
     4
 74
     0
 42
0.0000000001
 43
0.0000000001
 40
0.0
 40
0.0
 40
0.0
 40
0.0
 40
1.0
 40
1.0
 40
1.0
 40
1.0
 10
-27.4631
 20
-15.2191
 30
0.0
 10
-27.4631
 20
-15.2191
 30
0.0
 10
-28.9161
 20
-15.2191
 30
0.0
 10
-28.9161
 20
-15.2191
 30
0.0
  0
SPLINE
  5
92
330
1F
100
AcDbEntity
  8
Ilustrace
 62
   250
370
    30
100
AcDbSpline
210
0.0
220
0.0
230
1.0
 70
    24
 71
     3
 72
     8
 73
     4
 74
     0
 42
0.0000000001
 43
0.0000000001
 40
0.0
 40
0.0
 40
0.0
 40
0.0
 40
1.0
 40
1.0
 40
1.0
 40
1.0
 10
-24.5571
 20
17.2314
 30
0.0
 10
-24.5571
 20
17.2314
 30
0.0
 10
-24.5571
 20
4.1544
 30
0.0
 10
-24.5571
 20
4.1544
 30
0.0
  0
SPLINE
  5
93
330
1F
100
AcDbEntity
  8
Ilustrace
 62
   250
370
    30
100
AcDbSpline
210
0.0
220
0.0
230
1.0
 70
    24
 71
     3
 72
     8
 73
     4
 74
     0
 42
0.0000000001
 43
0.0000000001
 40
0.0
 40
0.0
 40
0.0
 40
0.0
 40
1.0
 40
1.0
 40
1.0
 40
1.0
 10
-23.104
 20
4.1544
 30
0.0
 10
-23.104
 20
4.1544
 30
0.0
 10
-24.5571
 20
4.1544
 30
0.0
 10
-24.5571
 20
4.1544
 30
0.0
  0
SPLINE
  5
94
330
1F
100
AcDbEntity
  8
Ilustrace
 62
   250
370
    30
100
AcDbSpline
210
0.0
220
0.0
230
1.0
 70
    24
 71
     3
 72
     8
 73
     4
 74
     0
 42
0.0000000001
 43
0.0000000001
 40
0.0
 40
0.0
 40
0.0
 40
0.0
 40
1.0
 40
1.0
 40
1.0
 40
1.0
 10
-23.104
 20
4.1544
 30
0.0
 10
-23.104
 20
4.1544
 30
0.0
 10
-23.104
 20
17.2314
 30
0.0
 10
-23.104
 20
17.2314
 30
0.0
  0
SPLINE
  5
95
330
1F
100
AcDbEntity
  8
Ilustrace
 62
   250
370
    30
100
AcDbSpline
210
0.0
220
0.0
230
1.0
 70
    24
 71
     3
 72
     8
 73
     4
 74
     0
 42
0.0000000001
 43
0.0000000001
 40
0.0
 40
0.0
 40
0.0
 40
0.0
 40
1.0
 40
1.0
 40
1.0
 40
1.0
 10
-24.5571
 20
17.2314
 30
0.0
 10
-24.5571
 20
17.2314
 30
0.0
 10
-23.104
 20
17.2314
 30
0.0
 10
-23.104
 20
17.2314
 30
0.0
  0
SPLINE
  5
96
330
1F
100
AcDbEntity
  8
Ilustrace
 62
   250
370
    30
100
AcDbSpline
210
0.0
220
0.0
230
1.0
 70
    24
 71
     3
 72
     8
 73
     4
 74
     0
 42
0.0000000001
 43
0.0000000001
 40
0.0
 40
0.0
 40
0.0
 40
0.0
 40
1.0
 40
1.0
 40
1.0
 40
1.0
 10
-23.104
 20
-18.8515
 30
0.0
 10
-23.104
 20
-18.8515
 30
0.0
 10
-24.5571
 20
-18.8515
 30
0.0
 10
-24.5571
 20
-18.8515
 30
0.0
  0
SPLINE
  5
97
330
1F
100
AcDbEntity
  8
Ilustrace
 62
   250
370
    30
100
AcDbSpline
210
0.0
220
0.0
230
1.0
 70
    24
 71
     3
 72
     8
 73
     4
 74
     0
 42
0.0000000001
 43
0.0000000001
 40
0.0
 40
0.0
 40
0.0
 40
0.0
 40
1.0
 40
1.0
 40
1.0
 40
1.0
 10
-24.5571
 20
-31.9287
 30
0.0
 10
-24.5571
 20
-31.9287
 30
0.0
 10
-24.5571
 20
-18.8515
 30
0.0
 10
-24.5571
 20
-18.8515
 30
0.0
  0
SPLINE
  5
98
330
1F
100
AcDbEntity
  8
Ilustrace
 62
   250
370
    30
100
AcDbSpline
210
0.0
220
0.0
230
1.0
 70
    24
 71
     3
 72
     8
 73
     4
 74
     0
 42
0.0000000001
 43
0.0000000001
 40
0.0
 40
0.0
 40
0.0
 40
0.0
 40
1.0
 40
1.0
 40
1.0
 40
1.0
 10
-23.104
 20
-18.8515
 30
0.0
 10
-23.104
 20
-18.8515
 30
0.0
 10
-23.104
 20
-31.9287
 30
0.0
 10
-23.104
 20
-31.9287
 30
0.0
  0
SPLINE
  5
99
330
1F
100
AcDbEntity
  8
Ilustrace
 62
   250
370
    30
100
AcDbSpline
210
0.0
220
0.0
230
1.0
 70
    24
 71
     3
 72
     8
 73
     4
 74
     0
 42
0.0000000001
 43
0.0000000001
 40
0.0
 40
0.0
 40
0.0
 40
0.0
 40
1.0
 40
1.0
 40
1.0
 40
1.0
 10
-24.5571
 20
-31.9287
 30
0.0
 10
-24.5571
 20
-31.9287
 30
0.0
 10
-23.104
 20
-31.9287
 30
0.0
 10
-23.104
 20
-31.9287
 30
0.0
  0
SPLINE
  5
9A
330
1F
100
AcDbEntity
  8
Ilustrace
 62
   250
370
    30
100
AcDbSpline
210
0.0
220
0.0
230
1.0
 70
    24
 71
     3
 72
     8
 73
     4
 74
     0
 42
0.0000000001
 43
0.0000000001
 40
0.0
 40
0.0
 40
0.0
 40
0.0
 40
1.0
 40
1.0
 40
1.0
 40
1.0
 10
-23.104
 20
-2.1421
 30
0.0
 10
-23.104
 20
-2.1421
 30
0.0
 10
-24.5571
 20
-2.1421
 30
0.0
 10
-24.5571
 20
-2.1421
 30
0.0
  0
SPLINE
  5
9B
330
1F
100
AcDbEntity
  8
Ilustrace
 62
   250
370
    30
100
AcDbSpline
210
0.0
220
0.0
230
1.0
 70
    24
 71
     3
 72
     8
 73
     4
 74
     0
 42
0.0000000001
 43
0.0000000001
 40
0.0
 40
0.0
 40
0.0
 40
0.0
 40
1.0
 40
1.0
 40
1.0
 40
1.0
 10
-24.5571
 20
-15.2191
 30
0.0
 10
-24.5571
 20
-15.2191
 30
0.0
 10
-24.5571
 20
-2.1421
 30
0.0
 10
-24.5571
 20
-2.1421
 30
0.0
  0
SPLINE
  5
9C
330
1F
100
AcDbEntity
  8
Ilustrace
 62
   250
370
    30
100
AcDbSpline
210
0.0
220
0.0
230
1.0
 70
    24
 71
     3
 72
     8
 73
     4
 74
     0
 42
0.0000000001
 43
0.0000000001
 40
0.0
 40
0.0
 40
0.0
 40
0.0
 40
1.0
 40
1.0
 40
1.0
 40
1.0
 10
-23.104
 20
-2.1421
 30
0.0
 10
-23.104
 20
-2.1421
 30
0.0
 10
-23.104
 20
-15.2191
 30
0.0
 10
-23.104
 20
-15.2191
 30
0.0
  0
SPLINE
  5
9D
330
1F
100
AcDbEntity
  8
Ilustrace
 62
   250
370
    30
100
AcDbSpline
210
0.0
220
0.0
230
1.0
 70
    24
 71
     3
 72
     8
 73
     4
 74
     0
 42
0.0000000001
 43
0.0000000001
 40
0.0
 40
0.0
 40
0.0
 40
0.0
 40
1.0
 40
1.0
 40
1.0
 40
1.0
 10
-24.5571
 20
-15.2191
 30
0.0
 10
-24.5571
 20
-15.2191
 30
0.0
 10
-23.104
 20
-15.2191
 30
0.0
 10
-23.104
 20
-15.2191
 30
0.0
  0
SPLINE
  5
9E
330
1F
100
AcDbEntity
  8
Ilustrace
 62
   250
370
    30
100
AcDbSpline
210
0.0
220
0.0
230
1.0
 70
    24
 71
     3
 72
     8
 73
     4
 74
     0
 42
0.0000000001
 43
0.0000000001
 40
0.0
 40
0.0
 40
0.0
 40
0.0
 40
1.0
 40
1.0
 40
1.0
 40
1.0
 10
-18.7451
 20
-15.2191
 30
0.0
 10
-18.7451
 20
-15.2191
 30
0.0
 10
-20.1981
 20
-15.2191
 30
0.0
 10
-20.1981
 20
-15.2191
 30
0.0
  0
SPLINE
  5
9F
330
1F
100
AcDbEntity
  8
Ilustrace
 62
   250
370
    30
100
AcDbSpline
210
0.0
220
0.0
230
1.0
 70
    24
 71
     3
 72
     8
 73
     4
 74
     0
 42
0.0000000001
 43
0.0000000001
 40
0.0
 40
0.0
 40
0.0
 40
0.0
 40
1.0
 40
1.0
 40
1.0
 40
1.0
 10
-20.1981
 20
-2.1421
 30
0.0
 10
-20.1981
 20
-2.1421
 30
0.0
 10
-20.1981
 20
-15.2191
 30
0.0
 10
-20.1981
 20
-15.2191
 30
0.0
  0
SPLINE
  5
A0
330
1F
100
AcDbEntity
  8
Ilustrace
 62
   250
370
    30
100
AcDbSpline
210
0.0
220
0.0
230
1.0
 70
    24
 71
     3
 72
     8
 73
     4
 74
     0
 42
0.0000000001
 43
0.0000000001
 40
0.0
 40
0.0
 40
0.0
 40
0.0
 40
1.0
 40
1.0
 40
1.0
 40
1.0
 10
-18.7451
 20
-15.2191
 30
0.0
 10
-18.7451
 20
-15.2191
 30
0.0
 10
-18.7451
 20
-2.1421
 30
0.0
 10
-18.7451
 20
-2.1421
 30
0.0
  0
SPLINE
  5
A1
330
1F
100
AcDbEntity
  8
Ilustrace
 62
   250
370
    30
100
AcDbSpline
210
0.0
220
0.0
230
1.0
 70
    24
 71
     3
 72
     8
 73
     4
 74
     0
 42
0.0000000001
 43
0.0000000001
 40
0.0
 40
0.0
 40
0.0
 40
0.0
 40
1.0
 40
1.0
 40
1.0
 40
1.0
 10
-20.1981
 20
-2.1421
 30
0.0
 10
-20.1981
 20
-2.1421
 30
0.0
 10
-18.7451
 20
-2.1421
 30
0.0
 10
-18.7451
 20
-2.1421
 30
0.0
  0
SPLINE
  5
A2
330
1F
100
AcDbEntity
  8
Ilustrace
 62
   250
370
    30
100
AcDbSpline
210
0.0
220
0.0
230
1.0
 70
    24
 71
     3
 72
     8
 73
     4
 74
     0
 42
0.0000000001
 43
0.0000000001
 40
0.0
 40
0.0
 40
0.0
 40
0.0
 40
1.0
 40
1.0
 40
1.0
 40
1.0
 10
-20.1981
 20
17.2314
 30
0.0
 10
-20.1981
 20
17.2314
 30
0.0
 10
-20.1981
 20
4.1544
 30
0.0
 10
-20.1981
 20
4.1544
 30
0.0
  0
SPLINE
  5
A3
330
1F
100
AcDbEntity
  8
Ilustrace
 62
   250
370
    30
100
AcDbSpline
210
0.0
220
0.0
230
1.0
 70
    24
 71
     3
 72
     8
 73
     4
 74
     0
 42
0.0000000001
 43
0.0000000001
 40
0.0
 40
0.0
 40
0.0
 40
0.0
 40
1.0
 40
1.0
 40
1.0
 40
1.0
 10
-18.7451
 20
4.1544
 30
0.0
 10
-18.7451
 20
4.1544
 30
0.0
 10
-20.1981
 20
4.1544
 30
0.0
 10
-20.1981
 20
4.1544
 30
0.0
  0
SPLINE
  5
A4
330
1F
100
AcDbEntity
  8
Ilustrace
 62
   250
370
    30
100
AcDbSpline
210
0.0
220
0.0
230
1.0
 70
    24
 71
     3
 72
     8
 73
     4
 74
     0
 42
0.0000000001
 43
0.0000000001
 40
0.0
 40
0.0
 40
0.0
 40
0.0
 40
1.0
 40
1.0
 40
1.0
 40
1.0
 10
-18.7451
 20
4.1544
 30
0.0
 10
-18.7451
 20
4.1544
 30
0.0
 10
-18.7451
 20
17.2314
 30
0.0
 10
-18.7451
 20
17.2314
 30
0.0
  0
SPLINE
  5
A5
330
1F
100
AcDbEntity
  8
Ilustrace
 62
   250
370
    30
100
AcDbSpline
210
0.0
220
0.0
230
1.0
 70
    24
 71
     3
 72
     8
 73
     4
 74
     0
 42
0.0000000001
 43
0.0000000001
 40
0.0
 40
0.0
 40
0.0
 40
0.0
 40
1.0
 40
1.0
 40
1.0
 40
1.0
 10
-20.1981
 20
17.2314
 30
0.0
 10
-20.1981
 20
17.2314
 30
0.0
 10
-18.7451
 20
17.2314
 30
0.0
 10
-18.7451
 20
17.2314
 30
0.0
  0
SPLINE
  5
A6
330
1F
100
AcDbEntity
  8
Ilustrace
 62
   250
370
    30
100
AcDbSpline
210
0.0
220
0.0
230
1.0
 70
    24
 71
     3
 72
     8
 73
     4
 74
     0
 42
0.0000000001
 43
0.0000000001
 40
0.0
 40
0.0
 40
0.0
 40
0.0
 40
1.0
 40
1.0
 40
1.0
 40
1.0
 10
-18.7451
 20
-31.9287
 30
0.0
 10
-18.7451
 20
-31.9287
 30
0.0
 10
-20.1981
 20
-31.9287
 30
0.0
 10
-20.1981
 20
-31.9287
 30
0.0
  0
SPLINE
  5
A7
330
1F
100
AcDbEntity
  8
Ilustrace
 62
   250
370
    30
100
AcDbSpline
210
0.0
220
0.0
230
1.0
 70
    24
 71
     3
 72
     8
 73
     4
 74
     0
 42
0.0000000001
 43
0.0000000001
 40
0.0
 40
0.0
 40
0.0
 40
0.0
 40
1.0
 40
1.0
 40
1.0
 40
1.0
 10
-20.1981
 20
-18.8515
 30
0.0
 10
-20.1981
 20
-18.8515
 30
0.0
 10
-20.1981
 20
-31.9287
 30
0.0
 10
-20.1981
 20
-31.9287
 30
0.0
  0
SPLINE
  5
A8
330
1F
100
AcDbEntity
  8
Ilustrace
 62
   250
370
    30
100
AcDbSpline
210
0.0
220
0.0
230
1.0
 70
    24
 71
     3
 72
     8
 73
     4
 74
     0
 42
0.0000000001
 43
0.0000000001
 40
0.0
 40
0.0
 40
0.0
 40
0.0
 40
1.0
 40
1.0
 40
1.0
 40
1.0
 10
-18.7451
 20
-31.9287
 30
0.0
 10
-18.7451
 20
-31.9287
 30
0.0
 10
-18.7451
 20
-18.8515
 30
0.0
 10
-18.7451
 20
-18.8515
 30
0.0
  0
SPLINE
  5
A9
330
1F
100
AcDbEntity
  8
Ilustrace
 62
   250
370
    30
100
AcDbSpline
210
0.0
220
0.0
230
1.0
 70
    24
 71
     3
 72
     8
 73
     4
 74
     0
 42
0.0000000001
 43
0.0000000001
 40
0.0
 40
0.0
 40
0.0
 40
0.0
 40
1.0
 40
1.0
 40
1.0
 40
1.0
 10
-20.1981
 20
-18.8515
 30
0.0
 10
-20.1981
 20
-18.8515
 30
0.0
 10
-18.7451
 20
-18.8515
 30
0.0
 10
-18.7451
 20
-18.8515
 30
0.0
  0
SPLINE
  5
AA
330
1F
100
AcDbEntity
  8
Ilustrace
 62
   250
370
    30
100
AcDbSpline
210
0.0
220
0.0
230
1.0
 70
    24
 71
     3
 72
     8
 73
     4
 74
     0
 42
0.0000000001
 43
0.0000000001
 40
0.0
 40
0.0
 40
0.0
 40
0.0
 40
1.0
 40
1.0
 40
1.0
 40
1.0
 10
-14.3861
 20
-18.8515
 30
0.0
 10
-14.3861
 20
-18.8515
 30
0.0
 10
-15.839
 20
-18.8515
 30
0.0
 10
-15.839
 20
-18.8515
 30
0.0
  0
SPLINE
  5
AB
330
1F
100
AcDbEntity
  8
Ilustrace
 62
   250
370
    30
100
AcDbSpline
210
0.0
220
0.0
230
1.0
 70
    24
 71
     3
 72
     8
 73
     4
 74
     0
 42
0.0000000001
 43
0.0000000001
 40
0.0
 40
0.0
 40
0.0
 40
0.0
 40
1.0
 40
1.0
 40
1.0
 40
1.0
 10
-15.839
 20
-31.9287
 30
0.0
 10
-15.839
 20
-31.9287
 30
0.0
 10
-15.839
 20
-18.8515
 30
0.0
 10
-15.839
 20
-18.8515
 30
0.0
  0
SPLINE
  5
AC
330
1F
100
AcDbEntity
  8
Ilustrace
 62
   250
370
    30
100
AcDbSpline
210
0.0
220
0.0
230
1.0
 70
    24
 71
     3
 72
     8
 73
     4
 74
     0
 42
0.0000000001
 43
0.0000000001
 40
0.0
 40
0.0
 40
0.0
 40
0.0
 40
1.0
 40
1.0
 40
1.0
 40
1.0
 10
-14.3861
 20
-18.8515
 30
0.0
 10
-14.3861
 20
-18.8515
 30
0.0
 10
-14.3861
 20
-31.9287
 30
0.0
 10
-14.3861
 20
-31.9287
 30
0.0
  0
SPLINE
  5
AD
330
1F
100
AcDbEntity
  8
Ilustrace
 62
   250
370
    30
100
AcDbSpline
210
0.0
220
0.0
230
1.0
 70
    24
 71
     3
 72
     8
 73
     4
 74
     0
 42
0.0000000001
 43
0.0000000001
 40
0.0
 40
0.0
 40
0.0
 40
0.0
 40
1.0
 40
1.0
 40
1.0
 40
1.0
 10
-15.839
 20
-31.9287
 30
0.0
 10
-15.839
 20
-31.9287
 30
0.0
 10
-14.3861
 20
-31.9287
 30
0.0
 10
-14.3861
 20
-31.9287
 30
0.0
  0
SPLINE
  5
AE
330
1F
100
AcDbEntity
  8
Ilustrace
 62
   250
370
    30
100
AcDbSpline
210
0.0
220
0.0
230
1.0
 70
    24
 71
     3
 72
     8
 73
     4
 74
     0
 42
0.0000000001
 43
0.0000000001
 40
0.0
 40
0.0
 40
0.0
 40
0.0
 40
1.0
 40
1.0
 40
1.0
 40
1.0
 10
-14.3861
 20
-15.2191
 30
0.0
 10
-14.3861
 20
-15.2191
 30
0.0
 10
-15.839
 20
-15.2191
 30
0.0
 10
-15.839
 20
-15.2191
 30
0.0
  0
SPLINE
  5
AF
330
1F
100
AcDbEntity
  8
Ilustrace
 62
   250
370
    30
100
AcDbSpline
210
0.0
220
0.0
230
1.0
 70
    24
 71
     3
 72
     8
 73
     4
 74
     0
 42
0.0000000001
 43
0.0000000001
 40
0.0
 40
0.0
 40
0.0
 40
0.0
 40
1.0
 40
1.0
 40
1.0
 40
1.0
 10
-15.839
 20
-2.1421
 30
0.0
 10
-15.839
 20
-2.1421
 30
0.0
 10
-15.839
 20
-15.2191
 30
0.0
 10
-15.839
 20
-15.2191
 30
0.0
  0
SPLINE
  5
B0
330
1F
100
AcDbEntity
  8
Ilustrace
 62
   250
370
    30
100
AcDbSpline
210
0.0
220
0.0
230
1.0
 70
    24
 71
     3
 72
     8
 73
     4
 74
     0
 42
0.0000000001
 43
0.0000000001
 40
0.0
 40
0.0
 40
0.0
 40
0.0
 40
1.0
 40
1.0
 40
1.0
 40
1.0
 10
-14.3861
 20
-15.2191
 30
0.0
 10
-14.3861
 20
-15.2191
 30
0.0
 10
-14.3861
 20
-2.1421
 30
0.0
 10
-14.3861
 20
-2.1421
 30
0.0
  0
SPLINE
  5
B1
330
1F
100
AcDbEntity
  8
Ilustrace
 62
   250
370
    30
100
AcDbSpline
210
0.0
220
0.0
230
1.0
 70
    24
 71
     3
 72
     8
 73
     4
 74
     0
 42
0.0000000001
 43
0.0000000001
 40
0.0
 40
0.0
 40
0.0
 40
0.0
 40
1.0
 40
1.0
 40
1.0
 40
1.0
 10
-15.839
 20
-2.1421
 30
0.0
 10
-15.839
 20
-2.1421
 30
0.0
 10
-14.3861
 20
-2.1421
 30
0.0
 10
-14.3861
 20
-2.1421
 30
0.0
  0
SPLINE
  5
B2
330
1F
100
AcDbEntity
  8
Ilustrace
 62
   250
370
    30
100
AcDbSpline
210
0.0
220
0.0
230
1.0
 70
    24
 71
     3
 72
     8
 73
     4
 74
     0
 42
0.0000000001
 43
0.0000000001
 40
0.0
 40
0.0
 40
0.0
 40
0.0
 40
1.0
 40
1.0
 40
1.0
 40
1.0
 10
-14.3861
 20
4.1544
 30
0.0
 10
-14.3861
 20
4.1544
 30
0.0
 10
-15.839
 20
4.1544
 30
0.0
 10
-15.839
 20
4.1544
 30
0.0
  0
SPLINE
  5
B3
330
1F
100
AcDbEntity
  8
Ilustrace
 62
   250
370
    30
100
AcDbSpline
210
0.0
220
0.0
230
1.0
 70
    24
 71
     3
 72
     8
 73
     4
 74
     0
 42
0.0000000001
 43
0.0000000001
 40
0.0
 40
0.0
 40
0.0
 40
0.0
 40
1.0
 40
1.0
 40
1.0
 40
1.0
 10
-15.839
 20
17.2314
 30
0.0
 10
-15.839
 20
17.2314
 30
0.0
 10
-15.839
 20
4.1544
 30
0.0
 10
-15.839
 20
4.1544
 30
0.0
  0
SPLINE
  5
B4
330
1F
100
AcDbEntity
  8
Ilustrace
 62
   250
370
    30
100
AcDbSpline
210
0.0
220
0.0
230
1.0
 70
    24
 71
     3
 72
     8
 73
     4
 74
     0
 42
0.0000000001
 43
0.0000000001
 40
0.0
 40
0.0
 40
0.0
 40
0.0
 40
1.0
 40
1.0
 40
1.0
 40
1.0
 10
-14.3861
 20
4.1544
 30
0.0
 10
-14.3861
 20
4.1544
 30
0.0
 10
-14.3861
 20
17.2314
 30
0.0
 10
-14.3861
 20
17.2314
 30
0.0
  0
SPLINE
  5
B5
330
1F
100
AcDbEntity
  8
Ilustrace
 62
   250
370
    30
100
AcDbSpline
210
0.0
220
0.0
230
1.0
 70
    24
 71
     3
 72
     8
 73
     4
 74
     0
 42
0.0000000001
 43
0.0000000001
 40
0.0
 40
0.0
 40
0.0
 40
0.0
 40
1.0
 40
1.0
 40
1.0
 40
1.0
 10
-15.839
 20
17.2314
 30
0.0
 10
-15.839
 20
17.2314
 30
0.0
 10
-14.3861
 20
17.2314
 30
0.0
 10
-14.3861
 20
17.2314
 30
0.0
  0
SPLINE
  5
B6
330
1F
100
AcDbEntity
  8
Ilustrace
 62
   250
370
    30
100
AcDbSpline
210
0.0
220
0.0
230
1.0
 70
    24
 71
     3
 72
     8
 73
     4
 74
     0
 42
0.0000000001
 43
0.0000000001
 40
0.0
 40
0.0
 40
0.0
 40
0.0
 40
1.0
 40
1.0
 40
1.0
 40
1.0
 10
-10.027
 20
4.1544
 30
0.0
 10
-10.027
 20
4.1544
 30
0.0
 10
-11.4799
 20
4.1544
 30
0.0
 10
-11.4799
 20
4.1544
 30
0.0
  0
SPLINE
  5
B7
330
1F
100
AcDbEntity
  8
Ilustrace
 62
   250
370
    30
100
AcDbSpline
210
0.0
220
0.0
230
1.0
 70
    24
 71
     3
 72
     8
 73
     4
 74
     0
 42
0.0000000001
 43
0.0000000001
 40
0.0
 40
0.0
 40
0.0
 40
0.0
 40
1.0
 40
1.0
 40
1.0
 40
1.0
 10
-11.4799
 20
17.2314
 30
0.0
 10
-11.4799
 20
17.2314
 30
0.0
 10
-11.4799
 20
4.1544
 30
0.0
 10
-11.4799
 20
4.1544
 30
0.0
  0
SPLINE
  5
B8
330
1F
100
AcDbEntity
  8
Ilustrace
 62
   250
370
    30
100
AcDbSpline
210
0.0
220
0.0
230
1.0
 70
    24
 71
     3
 72
     8
 73
     4
 74
     0
 42
0.0000000001
 43
0.0000000001
 40
0.0
 40
0.0
 40
0.0
 40
0.0
 40
1.0
 40
1.0
 40
1.0
 40
1.0
 10
-10.027
 20
17.2314
 30
0.0
 10
-10.027
 20
17.2314
 30
0.0
 10
-10.027
 20
4.2517
 30
0.0
 10
-10.027
 20
4.2517
 30
0.0
  0
SPLINE
  5
B9
330
1F
100
AcDbEntity
  8
Ilustrace
 62
   250
370
    30
100
AcDbSpline
210
0.0
220
0.0
230
1.0
 70
    24
 71
     3
 72
     8
 73
     4
 74
     0
 42
0.0000000001
 43
0.0000000001
 40
0.0
 40
0.0
 40
0.0
 40
0.0
 40
1.0
 40
1.0
 40
1.0
 40
1.0
 10
-11.4799
 20
17.2314
 30
0.0
 10
-11.4799
 20
17.2314
 30
0.0
 10
-10.027
 20
17.2314
 30
0.0
 10
-10.027
 20
17.2314
 30
0.0
  0
SPLINE
  5
BA
330
1F
100
AcDbEntity
  8
Ilustrace
 62
   250
370
    30
100
AcDbSpline
210
0.0
220
0.0
230
1.0
 70
    24
 71
     3
 72
     8
 73
     4
 74
     0
 42
0.0000000001
 43
0.0000000001
 40
0.0
 40
0.0
 40
0.0
 40
0.0
 40
1.0
 40
1.0
 40
1.0
 40
1.0
 10
-10.027
 20
-31.9287
 30
0.0
 10
-10.027
 20
-31.9287
 30
0.0
 10
-11.4799
 20
-31.9287
 30
0.0
 10
-11.4799
 20
-31.9287
 30
0.0
  0
SPLINE
  5
BB
330
1F
100
AcDbEntity
  8
Ilustrace
 62
   250
370
    30
100
AcDbSpline
210
0.0
220
0.0
230
1.0
 70
    24
 71
     3
 72
     8
 73
     4
 74
     0
 42
0.0000000001
 43
0.0000000001
 40
0.0
 40
0.0
 40
0.0
 40
0.0
 40
1.0
 40
1.0
 40
1.0
 40
1.0
 10
-11.4799
 20
-18.8515
 30
0.0
 10
-11.4799
 20
-18.8515
 30
0.0
 10
-11.4799
 20
-31.9287
 30
0.0
 10
-11.4799
 20
-31.9287
 30
0.0
  0
SPLINE
  5
BC
330
1F
100
AcDbEntity
  8
Ilustrace
 62
   250
370
    30
100
AcDbSpline
210
0.0
220
0.0
230
1.0
 70
    24
 71
     3
 72
     8
 73
     4
 74
     0
 42
0.0000000001
 43
0.0000000001
 40
0.0
 40
0.0
 40
0.0
 40
0.0
 40
1.0
 40
1.0
 40
1.0
 40
1.0
 10
-10.027
 20
-18.8515
 30
0.0
 10
-10.027
 20
-18.8515
 30
0.0
 10
-10.027
 20
-31.9287
 30
0.0
 10
-10.027
 20
-31.9287
 30
0.0
  0
SPLINE
  5
BD
330
1F
100
AcDbEntity
  8
Ilustrace
 62
   250
370
    30
100
AcDbSpline
210
0.0
220
0.0
230
1.0
 70
    24
 71
     3
 72
     8
 73
     4
 74
     0
 42
0.0000000001
 43
0.0000000001
 40
0.0
 40
0.0
 40
0.0
 40
0.0
 40
1.0
 40
1.0
 40
1.0
 40
1.0
 10
-11.4799
 20
-18.8515
 30
0.0
 10
-11.4799
 20
-18.8515
 30
0.0
 10
-10.027
 20
-18.8515
 30
0.0
 10
-10.027
 20
-18.8515
 30
0.0
  0
SPLINE
  5
BE
330
1F
100
AcDbEntity
  8
Ilustrace
 62
   250
370
    30
100
AcDbSpline
210
0.0
220
0.0
230
1.0
 70
    24
 71
     3
 72
     8
 73
     4
 74
     0
 42
0.0000000001
 43
0.0000000001
 40
0.0
 40
0.0
 40
0.0
 40
0.0
 40
1.0
 40
1.0
 40
1.0
 40
1.0
 10
6.6826
 20
7.0605
 30
0.0
 10
6.6826
 20
7.0605
 30
0.0
 10
-6.3945
 20
7.0605
 30
0.0
 10
-6.3945
 20
7.0605
 30
0.0
  0
SPLINE
  5
BF
330
1F
100
AcDbEntity
  8
Ilustrace
 62
   250
370
    30
100
AcDbSpline
210
0.0
220
0.0
230
1.0
 70
    24
 71
     3
 72
     8
 73
     4
 74
     0
 42
0.0000000001
 43
0.0000000001
 40
0.0
 40
0.0
 40
0.0
 40
0.0
 40
1.0
 40
1.0
 40
1.0
 40
1.0
 10
-6.3945
 20
5.6074
 30
0.0
 10
-6.3945
 20
5.6074
 30
0.0
 10
-6.3945
 20
7.0605
 30
0.0
 10
-6.3945
 20
7.0605
 30
0.0
  0
SPLINE
  5
C0
330
1F
100
AcDbEntity
  8
Ilustrace
 62
   250
370
    30
100
AcDbSpline
210
0.0
220
0.0
230
1.0
 70
    24
 71
     3
 72
     8
 73
     4
 74
     0
 42
0.0000000001
 43
0.0000000001
 40
0.0
 40
0.0
 40
0.0
 40
0.0
 40
1.0
 40
1.0
 40
1.0
 40
1.0
 10
-6.3945
 20
5.6074
 30
0.0
 10
-6.3945
 20
5.6074
 30
0.0
 10
6.6826
 20
5.6074
 30
0.0
 10
6.6826
 20
5.6074
 30
0.0
  0
SPLINE
  5
C1
330
1F
100
AcDbEntity
  8
Ilustrace
 62
   250
370
    30
100
AcDbSpline
210
0.0
220
0.0
230
1.0
 70
    24
 71
     3
 72
     8
 73
     4
 74
     0
 42
0.0000000001
 43
0.0000000001
 40
0.0
 40
0.0
 40
0.0
 40
0.0
 40
1.0
 40
1.0
 40
1.0
 40
1.0
 10
6.6826
 20
7.0605
 30
0.0
 10
6.6826
 20
7.0605
 30
0.0
 10
6.6826
 20
5.6074
 30
0.0
 10
6.6826
 20
5.6074
 30
0.0
  0
SPLINE
  5
C2
330
1F
100
AcDbEntity
  8
Ilustrace
 62
   250
370
    30
100
AcDbSpline
210
0.0
220
0.0
230
1.0
 70
    24
 71
     3
 72
     8
 73
     4
 74
     0
 42
0.0000000001
 43
0.0000000001
 40
0.0
 40
0.0
 40
0.0
 40
0.0
 40
1.0
 40
1.0
 40
1.0
 40
1.0
 10
-6.3945
 20
11.4195
 30
0.0
 10
-6.3945
 20
11.4195
 30
0.0
 10
-6.3945
 20
9.9664
 30
0.0
 10
-6.3945
 20
9.9664
 30
0.0
  0
SPLINE
  5
C3
330
1F
100
AcDbEntity
  8
Ilustrace
 62
   250
370
    30
100
AcDbSpline
210
0.0
220
0.0
230
1.0
 70
    24
 71
     3
 72
     8
 73
     4
 74
     0
 42
0.0000000001
 43
0.0000000001
 40
0.0
 40
0.0
 40
0.0
 40
0.0
 40
1.0
 40
1.0
 40
1.0
 40
1.0
 10
6.6826
 20
9.9664
 30
0.0
 10
6.6826
 20
9.9664
 30
0.0
 10
-6.3945
 20
9.9664
 30
0.0
 10
-6.3945
 20
9.9664
 30
0.0
  0
SPLINE
  5
C4
330
1F
100
AcDbEntity
  8
Ilustrace
 62
   250
370
    30
100
AcDbSpline
210
0.0
220
0.0
230
1.0
 70
    24
 71
     3
 72
     8
 73
     4
 74
     0
 42
0.0000000001
 43
0.0000000001
 40
0.0
 40
0.0
 40
0.0
 40
0.0
 40
1.0
 40
1.0
 40
1.0
 40
1.0
 10
-6.3945
 20
11.4195
 30
0.0
 10
-6.3945
 20
11.4195
 30
0.0
 10
6.6826
 20
11.4195
 30
0.0
 10
6.6826
 20
11.4195
 30
0.0
  0
SPLINE
  5
C5
330
1F
100
AcDbEntity
  8
Ilustrace
 62
   250
370
    30
100
AcDbSpline
210
0.0
220
0.0
230
1.0
 70
    24
 71
     3
 72
     8
 73
     4
 74
     0
 42
0.0000000001
 43
0.0000000001
 40
0.0
 40
0.0
 40
0.0
 40
0.0
 40
1.0
 40
1.0
 40
1.0
 40
1.0
 10
6.6826
 20
9.9664
 30
0.0
 10
6.6826
 20
9.9664
 30
0.0
 10
6.6826
 20
11.4195
 30
0.0
 10
6.6826
 20
11.4195
 30
0.0
  0
SPLINE
  5
C6
330
1F
100
AcDbEntity
  8
Ilustrace
 62
   250
370
    30
100
AcDbSpline
210
0.0
220
0.0
230
1.0
 70
    24
 71
     3
 72
     8
 73
     4
 74
     0
 42
0.0000000001
 43
0.0000000001
 40
0.0
 40
0.0
 40
0.0
 40
0.0
 40
1.0
 40
1.0
 40
1.0
 40
1.0
 10
6.6826
 20
14.3255
 30
0.0
 10
6.6826
 20
14.3255
 30
0.0
 10
-6.3945
 20
14.3255
 30
0.0
 10
-6.3945
 20
14.3255
 30
0.0
  0
SPLINE
  5
C7
330
1F
100
AcDbEntity
  8
Ilustrace
 62
   250
370
    30
100
AcDbSpline
210
0.0
220
0.0
230
1.0
 70
    24
 71
     3
 72
     8
 73
     4
 74
     0
 42
0.0000000001
 43
0.0000000001
 40
0.0
 40
0.0
 40
0.0
 40
0.0
 40
1.0
 40
1.0
 40
1.0
 40
1.0
 10
-6.3945
 20
15.7784
 30
0.0
 10
-6.3945
 20
15.7784
 30
0.0
 10
-6.3945
 20
14.3255
 30
0.0
 10
-6.3945
 20
14.3255
 30
0.0
  0
SPLINE
  5
C8
330
1F
100
AcDbEntity
  8
Ilustrace
 62
   250
370
    30
100
AcDbSpline
210
0.0
220
0.0
230
1.0
 70
    24
 71
     3
 72
     8
 73
     4
 74
     0
 42
0.0000000001
 43
0.0000000001
 40
0.0
 40
0.0
 40
0.0
 40
0.0
 40
1.0
 40
1.0
 40
1.0
 40
1.0
 10
-6.3945
 20
15.7784
 30
0.0
 10
-6.3945
 20
15.7784
 30
0.0
 10
6.6826
 20
15.7784
 30
0.0
 10
6.6826
 20
15.7784
 30
0.0
  0
SPLINE
  5
C9
330
1F
100
AcDbEntity
  8
Ilustrace
 62
   250
370
    30
100
AcDbSpline
210
0.0
220
0.0
230
1.0
 70
    24
 71
     3
 72
     8
 73
     4
 74
     0
 42
0.0000000001
 43
0.0000000001
 40
0.0
 40
0.0
 40
0.0
 40
0.0
 40
1.0
 40
1.0
 40
1.0
 40
1.0
 10
6.6826
 20
14.3255
 30
0.0
 10
6.6826
 20
14.3255
 30
0.0
 10
6.6826
 20
15.7784
 30
0.0
 10
6.6826
 20
15.7784
 30
0.0
  0
SPLINE
  5
CA
330
1F
100
AcDbEntity
  8
Ilustrace
 62
   250
370
    30
100
AcDbSpline
210
0.0
220
0.0
230
1.0
 70
    24
 71
     3
 72
     8
 73
     4
 74
     0
 42
0.0000000001
 43
0.0000000001
 40
0.0
 40
0.0
 40
0.0
 40
0.0
 40
1.0
 40
1.0
 40
1.0
 40
1.0
 10
6.6826
 20
18.6845
 30
0.0
 10
6.6826
 20
18.6845
 30
0.0
 10
-6.3945
 20
18.6845
 30
0.0
 10
-6.3945
 20
18.6845
 30
0.0
  0
SPLINE
  5
CB
330
1F
100
AcDbEntity
  8
Ilustrace
 62
   250
370
    30
100
AcDbSpline
210
0.0
220
0.0
230
1.0
 70
    24
 71
     3
 72
     8
 73
     4
 74
     0
 42
0.0000000001
 43
0.0000000001
 40
0.0
 40
0.0
 40
0.0
 40
0.0
 40
1.0
 40
1.0
 40
1.0
 40
1.0
 10
-6.3945
 20
20.1375
 30
0.0
 10
-6.3945
 20
20.1375
 30
0.0
 10
-6.3945
 20
18.6845
 30
0.0
 10
-6.3945
 20
18.6845
 30
0.0
  0
SPLINE
  5
CC
330
1F
100
AcDbEntity
  8
Ilustrace
 62
   250
370
    30
100
AcDbSpline
210
0.0
220
0.0
230
1.0
 70
    24
 71
     3
 72
     8
 73
     4
 74
     0
 42
0.0000000001
 43
0.0000000001
 40
0.0
 40
0.0
 40
0.0
 40
0.0
 40
1.0
 40
1.0
 40
1.0
 40
1.0
 10
-6.3945
 20
20.1375
 30
0.0
 10
-6.3945
 20
20.1375
 30
0.0
 10
6.6826
 20
20.1375
 30
0.0
 10
6.6826
 20
20.1375
 30
0.0
  0
SPLINE
  5
CD
330
1F
100
AcDbEntity
  8
Ilustrace
 62
   250
370
    30
100
AcDbSpline
210
0.0
220
0.0
230
1.0
 70
    24
 71
     3
 72
     8
 73
     4
 74
     0
 42
0.0000000001
 43
0.0000000001
 40
0.0
 40
0.0
 40
0.0
 40
0.0
 40
1.0
 40
1.0
 40
1.0
 40
1.0
 10
6.6826
 20
18.6845
 30
0.0
 10
6.6826
 20
18.6845
 30
0.0
 10
6.6826
 20
20.1375
 30
0.0
 10
6.6826
 20
20.1375
 30
0.0
  0
SPLINE
  5
CE
330
1F
100
AcDbEntity
  8
Ilustrace
 62
   250
370
    30
100
AcDbSpline
210
0.0
220
0.0
230
1.0
 70
    24
 71
     3
 72
     8
 73
     4
 74
     0
 42
0.0000000001
 43
0.0000000001
 40
0.0
 40
0.0
 40
0.0
 40
0.0
 40
1.0
 40
1.0
 40
1.0
 40
1.0
 10
10.3152
 20
7.0605
 30
0.0
 10
10.3152
 20
7.0605
 30
0.0
 10
10.3152
 20
5.6074
 30
0.0
 10
10.3152
 20
5.6074
 30
0.0
  0
SPLINE
  5
CF
330
1F
100
AcDbEntity
  8
Ilustrace
 62
   250
370
    30
100
AcDbSpline
210
0.0
220
0.0
230
1.0
 70
    24
 71
     3
 72
     8
 73
     4
 74
     0
 42
0.0000000001
 43
0.0000000001
 40
0.0
 40
0.0
 40
0.0
 40
0.0
 40
1.0
 40
1.0
 40
1.0
 40
1.0
 10
23.3922
 20
5.6074
 30
0.0
 10
23.3922
 20
5.6074
 30
0.0
 10
10.3152
 20
5.6074
 30
0.0
 10
10.3152
 20
5.6074
 30
0.0
  0
SPLINE
  5
D0
330
1F
100
AcDbEntity
  8
Ilustrace
 62
   250
370
    30
100
AcDbSpline
210
0.0
220
0.0
230
1.0
 70
    24
 71
     3
 72
     8
 73
     4
 74
     0
 42
0.0000000001
 43
0.0000000001
 40
0.0
 40
0.0
 40
0.0
 40
0.0
 40
1.0
 40
1.0
 40
1.0
 40
1.0
 10
10.3152
 20
7.0605
 30
0.0
 10
10.3152
 20
7.0605
 30
0.0
 10
23.3922
 20
7.0605
 30
0.0
 10
23.3922
 20
7.0605
 30
0.0
  0
SPLINE
  5
D1
330
1F
100
AcDbEntity
  8
Ilustrace
 62
   250
370
    30
100
AcDbSpline
210
0.0
220
0.0
230
1.0
 70
    24
 71
     3
 72
     8
 73
     4
 74
     0
 42
0.0000000001
 43
0.0000000001
 40
0.0
 40
0.0
 40
0.0
 40
0.0
 40
1.0
 40
1.0
 40
1.0
 40
1.0
 10
23.3922
 20
5.6074
 30
0.0
 10
23.3922
 20
5.6074
 30
0.0
 10
23.3922
 20
7.0605
 30
0.0
 10
23.3922
 20
7.0605
 30
0.0
  0
SPLINE
  5
D2
330
1F
100
AcDbEntity
  8
Ilustrace
 62
   250
370
    30
100
AcDbSpline
210
0.0
220
0.0
230
1.0
 70
    24
 71
     3
 72
     8
 73
     4
 74
     0
 42
0.0000000001
 43
0.0000000001
 40
0.0
 40
0.0
 40
0.0
 40
0.0
 40
1.0
 40
1.0
 40
1.0
 40
1.0
 10
23.3922
 20
15.7784
 30
0.0
 10
23.3922
 20
15.7784
 30
0.0
 10
10.3152
 20
15.7784
 30
0.0
 10
10.3152
 20
15.7784
 30
0.0
  0
SPLINE
  5
D3
330
1F
100
AcDbEntity
  8
Ilustrace
 62
   250
370
    30
100
AcDbSpline
210
0.0
220
0.0
230
1.0
 70
    24
 71
     3
 72
     8
 73
     4
 74
     0
 42
0.0000000001
 43
0.0000000001
 40
0.0
 40
0.0
 40
0.0
 40
0.0
 40
1.0
 40
1.0
 40
1.0
 40
1.0
 10
10.3152
 20
14.3255
 30
0.0
 10
10.3152
 20
14.3255
 30
0.0
 10
10.3152
 20
15.7784
 30
0.0
 10
10.3152
 20
15.7784
 30
0.0
  0
SPLINE
  5
D4
330
1F
100
AcDbEntity
  8
Ilustrace
 62
   250
370
    30
100
AcDbSpline
210
0.0
220
0.0
230
1.0
 70
    24
 71
     3
 72
     8
 73
     4
 74
     0
 42
0.0000000001
 43
0.0000000001
 40
0.0
 40
0.0
 40
0.0
 40
0.0
 40
1.0
 40
1.0
 40
1.0
 40
1.0
 10
10.3152
 20
14.3255
 30
0.0
 10
10.3152
 20
14.3255
 30
0.0
 10
23.3922
 20
14.3255
 30
0.0
 10
23.3922
 20
14.3255
 30
0.0
  0
SPLINE
  5
D5
330
1F
100
AcDbEntity
  8
Ilustrace
 62
   250
370
    30
100
AcDbSpline
210
0.0
220
0.0
230
1.0
 70
    24
 71
     3
 72
     8
 73
     4
 74
     0
 42
0.0000000001
 43
0.0000000001
 40
0.0
 40
0.0
 40
0.0
 40
0.0
 40
1.0
 40
1.0
 40
1.0
 40
1.0
 10
23.3922
 20
15.7784
 30
0.0
 10
23.3922
 20
15.7784
 30
0.0
 10
23.3922
 20
14.3255
 30
0.0
 10
23.3922
 20
14.3255
 30
0.0
  0
SPLINE
  5
D6
330
1F
100
AcDbEntity
  8
Ilustrace
 62
   250
370
    30
100
AcDbSpline
210
0.0
220
0.0
230
1.0
 70
    24
 71
     3
 72
     8
 73
     4
 74
     0
 42
0.0000000001
 43
0.0000000001
 40
0.0
 40
0.0
 40
0.0
 40
0.0
 40
1.0
 40
1.0
 40
1.0
 40
1.0
 10
10.3152
 20
2.7014
 30
0.0
 10
10.3152
 20
2.7014
 30
0.0
 10
23.3922
 20
2.7014
 30
0.0
 10
23.3922
 20
2.7014
 30
0.0
  0
SPLINE
  5
D7
330
1F
100
AcDbEntity
  8
Ilustrace
 62
   250
370
    30
100
AcDbSpline
210
0.0
220
0.0
230
1.0
 70
    24
 71
     3
 72
     8
 73
     4
 74
     0
 42
0.0000000001
 43
0.0000000001
 40
0.0
 40
0.0
 40
0.0
 40
0.0
 40
1.0
 40
1.0
 40
1.0
 40
1.0
 10
23.3922
 20
1.2483
 30
0.0
 10
23.3922
 20
1.2483
 30
0.0
 10
23.3922
 20
2.7014
 30
0.0
 10
23.3922
 20
2.7014
 30
0.0
  0
SPLINE
  5
D8
330
1F
100
AcDbEntity
  8
Ilustrace
 62
   250
370
    30
100
AcDbSpline
210
0.0
220
0.0
230
1.0
 70
    24
 71
     3
 72
     8
 73
     4
 74
     0
 42
0.0000000001
 43
0.0000000001
 40
0.0
 40
0.0
 40
0.0
 40
0.0
 40
1.0
 40
1.0
 40
1.0
 40
1.0
 10
10.3152
 20
1.2483
 30
0.0
 10
10.3152
 20
1.2483
 30
0.0
 10
23.3922
 20
1.2483
 30
0.0
 10
23.3922
 20
1.2483
 30
0.0
  0
SPLINE
  5
D9
330
1F
100
AcDbEntity
  8
Ilustrace
 62
   250
370
    30
100
AcDbSpline
210
0.0
220
0.0
230
1.0
 70
    24
 71
     3
 72
     8
 73
     4
 74
     0
 42
0.0000000001
 43
0.0000000001
 40
0.0
 40
0.0
 40
0.0
 40
0.0
 40
1.0
 40
1.0
 40
1.0
 40
1.0
 10
10.3152
 20
2.7014
 30
0.0
 10
10.3152
 20
2.7014
 30
0.0
 10
10.3152
 20
1.2483
 30
0.0
 10
10.3152
 20
1.2483
 30
0.0
  0
SPLINE
  5
DA
330
1F
100
AcDbEntity
  8
Ilustrace
 62
   250
370
    30
100
AcDbSpline
210
0.0
220
0.0
230
1.0
 70
    24
 71
     3
 72
     8
 73
     4
 74
     0
 42
0.0000000001
 43
0.0000000001
 40
0.0
 40
0.0
 40
0.0
 40
0.0
 40
1.0
 40
1.0
 40
1.0
 40
1.0
 10
10.3152
 20
11.4195
 30
0.0
 10
10.3152
 20
11.4195
 30
0.0
 10
10.3152
 20
9.9664
 30
0.0
 10
10.3152
 20
9.9664
 30
0.0
  0
SPLINE
  5
DB
330
1F
100
AcDbEntity
  8
Ilustrace
 62
   250
370
    30
100
AcDbSpline
210
0.0
220
0.0
230
1.0
 70
    24
 71
     3
 72
     8
 73
     4
 74
     0
 42
0.0000000001
 43
0.0000000001
 40
0.0
 40
0.0
 40
0.0
 40
0.0
 40
1.0
 40
1.0
 40
1.0
 40
1.0
 10
10.3152
 20
11.4195
 30
0.0
 10
10.3152
 20
11.4195
 30
0.0
 10
23.3922
 20
11.4195
 30
0.0
 10
23.3922
 20
11.4195
 30
0.0
  0
SPLINE
  5
DC
330
1F
100
AcDbEntity
  8
Ilustrace
 62
   250
370
    30
100
AcDbSpline
210
0.0
220
0.0
230
1.0
 70
    24
 71
     3
 72
     8
 73
     4
 74
     0
 42
0.0000000001
 43
0.0000000001
 40
0.0
 40
0.0
 40
0.0
 40
0.0
 40
1.0
 40
1.0
 40
1.0
 40
1.0
 10
23.3922
 20
9.9664
 30
0.0
 10
23.3922
 20
9.9664
 30
0.0
 10
23.3922
 20
11.4195
 30
0.0
 10
23.3922
 20
11.4195
 30
0.0
  0
SPLINE
  5
DD
330
1F
100
AcDbEntity
  8
Ilustrace
 62
   250
370
    30
100
AcDbSpline
210
0.0
220
0.0
230
1.0
 70
    24
 71
     3
 72
     8
 73
     4
 74
     0
 42
0.0000000001
 43
0.0000000001
 40
0.0
 40
0.0
 40
0.0
 40
0.0
 40
1.0
 40
1.0
 40
1.0
 40
1.0
 10
23.3922
 20
9.9664
 30
0.0
 10
23.3922
 20
9.9664
 30
0.0
 10
10.3152
 20
9.9664
 30
0.0
 10
10.3152
 20
9.9664
 30
0.0
  0
SPLINE
  5
DE
330
1F
100
AcDbEntity
  8
Ilustrace
 62
   250
370
    30
100
AcDbSpline
210
0.0
220
0.0
230
1.0
 70
     8
 71
     3
 72
    12
 73
     8
 74
     0
 42
0.0000000001
 43
0.0000000001
 40
0.0
 40
0.0
 40
0.0
 40
0.0
 40
0.3333333333333333
 40
0.3333333333333333
 40
0.3333333333333333
 40
0.3333333333333333
 40
1.0
 40
1.0
 40
1.0
 40
1.0
 10
-30.8387
 20
22.178
 30
0.0
 10
-30.89
 20
22.2416
 30
0.0
 10
-30.9413
 20
22.303
 30
0.0
 10
-31.007
 20
22.3538
 30
0.0
 10
-31.007
 20
22.3538
 30
0.0
 10
-31.1811
 20
22.4886
 30
0.0
 10
-31.359
 20
22.4381
 30
0.0
 10
-31.58
 20
22.4381
 30
0.0
  0
SPLINE
  5
DF
330
1F
100
AcDbEntity
  8
Ilustrace
 62
   250
370
    30
100
AcDbSpline
210
0.0
220
0.0
230
1.0
 70
    24
 71
     3
 72
    16
 73
    12
 74
     0
 42
0.0000000001
 43
0.0000000001
 40
0.0
 40
0.0
 40
0.0
 40
0.0
 40
0.25
 40
0.25
 40
0.25
 40
0.25
 40
0.5
 40
0.5
 40
0.5
 40
0.5
 40
1.0
 40
1.0
 40
1.0
 40
1.0
 10
10.3152
 20
19.4123
 30
0.0
 10
10.3152
 20
19.4123
 30
0.0
 10
10.7995
 20
19.4123
 30
0.0
 10
10.7995
 20
19.4123
 30
0.0
 10
10.7995
 20
19.4123
 30
0.0
 10
10.7995
 20
19.4123
 30
0.0
 10
13.7308
 20
19.4123
 30
0.0
 10
13.7308
 20
19.4123
 30
0.0
 10
13.7308
 20
19.4123
 30
0.0
 10
13.7308
 20
19.4123
 30
0.0
 10
14.2151
 20
19.4123
 30
0.0
 10
14.2151
 20
19.4123
 30
0.0
  0
SPLINE
  5
E0
330
1F
100
AcDbEntity
  8
Ilustrace
 62
   250
370
    30
100
AcDbSpline
210
0.0
220
0.0
230
1.0
 70
     8
 71
     3
 72
     8
 73
     4
 74
     0
 42
0.0000000001
 43
0.0000000001
 40
0.0
 40
0.0
 40
0.0
 40
0.0
 40
1.0
 40
1.0
 40
1.0
 40
1.0
 10
14.2151
 20
19.4123
 30
0.0
 10
14.2423
 20
19.4129
 30
0.0
 10
14.2643
 20
19.4227
 30
0.0
 10
14.2884
 20
19.4319
 30
0.0
  0
SPLINE
  5
E1
330
1F
100
AcDbEntity
  8
Ilustrace
 62
   250
370
    30
100
AcDbSpline
210
0.0
220
0.0
230
1.0
 70
     8
 71
     3
 72
     8
 73
     4
 74
     0
 42
0.0000000001
 43
0.0000000001
 40
0.0
 40
0.0
 40
0.0
 40
0.0
 40
1.0
 40
1.0
 40
1.0
 40
1.0
 10
14.24
 20
19.4175
 30
0.0
 10
14.5396
 20
19.4569
 30
0.0
 10
14.432
 20
20.0154
 30
0.0
 10
14.432
 20
20.1375
 30
0.0
  0
SPLINE
  5
E2
330
1F
100
AcDbEntity
  8
Ilustrace
 62
   250
370
    30
100
AcDbSpline
210
0.0
220
0.0
230
1.0
 70
    24
 71
     3
 72
    12
 73
     8
 74
     0
 42
0.0000000001
 43
0.0000000001
 40
0.0
 40
0.0
 40
0.0
 40
0.0
 40
0.3333333333333333
 40
0.3333333333333333
 40
0.3333333333333333
 40
0.3333333333333333
 40
1.0
 40
1.0
 40
1.0
 40
1.0
 10
23.3922
 20
19.411
 30
0.0
 10
23.3922
 20
19.411
 30
0.0
 10
22.9079
 20
19.411
 30
0.0
 10
22.9079
 20
19.411
 30
0.0
 10
22.9079
 20
19.411
 30
0.0
 10
22.9079
 20
19.411
 30
0.0
 10
20.0018
 20
19.411
 30
0.0
 10
20.0018
 20
19.411
 30
0.0
  0
SPLINE
  5
E3
330
1F
100
AcDbEntity
  8
Ilustrace
 62
   250
370
    30
100
AcDbSpline
210
0.0
220
0.0
230
1.0
 70
     8
 71
     3
 72
     8
 73
     4
 74
     0
 42
0.0000000001
 43
0.0000000001
 40
0.0
 40
0.0
 40
0.0
 40
0.0
 40
1.0
 40
1.0
 40
1.0
 40
1.0
 10
20.0018
 20
19.411
 30
0.0
 10
19.8186
 20
19.411
 30
0.0
 10
19.2849
 20
19.3011
 30
0.0
 10
19.2753
 20
19.6532
 30
0.0
  0
SPLINE
  5
E4
330
1F
100
AcDbEntity
  8
Ilustrace
 62
   250
370
    30
100
AcDbSpline
210
0.0
220
0.0
230
1.0
 70
    24
 71
     3
 72
    12
 73
     8
 74
     0
 42
0.0000000001
 43
0.0000000001
 40
0.0
 40
0.0
 40
0.0
 40
0.0
 40
0.3333333333333333
 40
0.3333333333333333
 40
0.3333333333333333
 40
0.3333333333333333
 40
1.0
 40
1.0
 40
1.0
 40
1.0
 10
19.2753
 20
19.6532
 30
0.0
 10
19.2753
 20
19.6532
 30
0.0
 10
19.2753
 20
19.8953
 30
0.0
 10
19.2753
 20
19.8953
 30
0.0
 10
19.2753
 20
19.8953
 30
0.0
 10
19.2753
 20
19.8953
 30
0.0
 10
19.2753
 20
20.1375
 30
0.0
 10
19.2753
 20
20.1375
 30
0.0
  0
SPLINE
  5
E5
330
1F
100
AcDbEntity
  8
Ilustrace
 62
   250
370
    30
100
AcDbSpline
210
0.0
220
0.0
230
1.0
 70
     8
 71
     3
 72
     8
 73
     4
 74
     0
 42
0.0000000001
 43
0.0000000001
 40
0.0
 40
0.0
 40
0.0
 40
0.0
 40
1.0
 40
1.0
 40
1.0
 40
1.0
 10
-31.2168
 20
22.4381
 30
0.0
 10
-30.899
 20
22.3732
 30
0.0
 10
-30.7544
 20
22.0682
 30
0.0
 10
-30.5871
 20
21.8084
 30
0.0
  0
SPLINE
  5
E6
330
1F
100
AcDbEntity
  8
Ilustrace
 62
   250
370
    30
100
AcDbSpline
210
0.0
220
0.0
230
1.0
 70
     8
 71
     3
 72
     8
 73
     4
 74
     0
 42
0.0000000001
 43
0.0000000001
 40
0.0
 40
0.0
 40
0.0
 40
0.0
 40
1.0
 40
1.0
 40
1.0
 40
1.0
 10
-31.2168
 20
22.8014
 30
0.0
 10
-31.2168
 20
22.6389
 30
0.0
 10
-31.2688
 20
22.375
 30
0.0
 10
-31.1324
 20
22.2283
 30
0.0
  0
SPLINE
  5
E7
330
1F
100
AcDbEntity
  8
Ilustrace
 62
   250
370
    30
100
AcDbSpline
210
0.0
220
0.0
230
1.0
 70
     8
 71
     3
 72
    16
 73
    12
 74
     0
 42
0.0000000001
 43
0.0000000001
 40
0.0
 40
0.0
 40
0.0
 40
0.0
 40
0.25
 40
0.25
 40
0.25
 40
0.25
 40
0.5
 40
0.5
 40
0.5
 40
0.5
 40
1.0
 40
1.0
 40
1.0
 40
1.0
 10
-31.1324
 20
22.2283
 30
0.0
 10
-31.1324
 20
22.2283
 30
0.0
 10
-31.0325
 20
22.1235
 30
0.0
 10
-31.0325
 20
22.1235
 30
0.0
 10
-31.0325
 20
22.1235
 30
0.0
 10
-31.0325
 20
22.1235
 30
0.0
 10
-30.9019
 20
22.0183
 30
0.0
 10
-30.9019
 20
22.0183
 30
0.0
 10
-30.9019
 20
22.0183
 30
0.0
 10
-30.9019
 20
22.0183
 30
0.0
 10
-30.5872
 20
21.8085
 30
0.0
 10
-30.5872
 20
21.8085
 30
0.0
  0
SPLINE
  5
E8
330
1F
100
AcDbEntity
  8
Ilustrace
 62
   250
370
    30
100
AcDbSpline
210
0.0
220
0.0
230
1.0
 70
     8
 71
     3
 72
    12
 73
     8
 74
     0
 42
0.0000000001
 43
0.0000000001
 40
0.0
 40
0.0
 40
0.0
 40
0.0
 40
0.3333333333333333
 40
0.3333333333333333
 40
0.3333333333333333
 40
0.3333333333333333
 40
1.0
 40
1.0
 40
1.0
 40
1.0
 10
-8.5498
 20
-0.2289
 30
0.0
 10
-8.5498
 20
-0.2289
 30
0.0
 10
-8.2142
 20
-0.4226
 30
0.0
 10
-8.2142
 20
-0.4226
 30
0.0
 10
-8.2142
 20
-0.4226
 30
0.0
 10
-8.2142
 20
-0.4226
 30
0.0
 10
-7.8154
 20
-0.7244
 30
0.0
 10
-7.8154
 20
-0.7244
 30
0.0
  0
SPLINE
  5
E9
330
1F
100
AcDbEntity
  8
Ilustrace
 62
   250
370
    30
100
AcDbSpline
210
0.0
220
0.0
230
1.0
 70
     8
 71
     3
 72
    12
 73
     8
 74
     0
 42
0.0000000001
 43
0.0000000001
 40
0.0
 40
0.0
 40
0.0
 40
0.0
 40
0.3333333333333333
 40
0.3333333333333333
 40
0.3333333333333333
 40
0.3333333333333333
 40
1.0
 40
1.0
 40
1.0
 40
1.0
 10
-7.8154
 20
-0.7244
 30
0.0
 10
-7.4445
 20
-0.9978
 30
0.0
 10
-7.04
 20
-1.2623
 30
0.0
 10
-6.5854
 20
-1.3685
 30
0.0
 10
-6.5854
 20
-1.3685
 30
0.0
 10
-6.2951
 20
-1.4362
 30
0.0
 10
-5.9983
 20
-1.4155
 30
0.0
 10
-5.7022
 20
-1.4155
 30
0.0
  0
SPLINE
  5
EA
330
1F
100
AcDbEntity
  8
Ilustrace
 62
   250
370
    30
100
AcDbSpline
210
0.0
220
0.0
230
1.0
 70
    24
 71
     3
 72
    12
 73
     8
 74
     0
 42
0.0000000001
 43
0.0000000001
 40
0.0
 40
0.0
 40
0.0
 40
0.0
 40
0.3333333333333333
 40
0.3333333333333333
 40
0.3333333333333333
 40
0.3333333333333333
 40
1.0
 40
1.0
 40
1.0
 40
1.0
 10
-5.7022
 20
-1.4155
 30
0.0
 10
-5.7022
 20
-1.4155
 30
0.0
 10
28.2355
 20
-1.4155
 30
0.0
 10
28.2355
 20
-1.4155
 30
0.0
 10
28.2355
 20
-1.4155
 30
0.0
 10
28.2355
 20
-1.4155
 30
0.0
 10
28.72
 20
-1.4155
 30
0.0
 10
28.72
 20
-1.4155
 30
0.0
  0
SPLINE
  5
EB
330
1F
100
AcDbEntity
  8
Ilustrace
 62
   250
370
    30
100
AcDbSpline
210
0.0
220
0.0
230
1.0
 70
    24
 71
     3
 72
    12
 73
     8
 74
     0
 42
0.0000000001
 43
0.0000000001
 40
0.0
 40
0.0
 40
0.0
 40
0.0
 40
0.3333333333333333
 40
0.3333333333333333
 40
0.3333333333333333
 40
0.3333333333333333
 40
1.0
 40
1.0
 40
1.0
 40
1.0
 10
-7.3632
 20
-37.4986
 30
0.0
 10
-7.3632
 20
-37.4986
 30
0.0
 10
-7.3632
 20
-37.0143
 30
0.0
 10
-7.3632
 20
-37.0143
 30
0.0
 10
-7.3632
 20
-37.0143
 30
0.0
 10
-7.3632
 20
-37.0143
 30
0.0
 10
-7.3632
 20
-3.0763
 30
0.0
 10
-7.3632
 20
-3.0763
 30
0.0
  0
SPLINE
  5
EC
330
1F
100
AcDbEntity
  8
Ilustrace
 62
   250
370
    30
100
AcDbSpline
210
0.0
220
0.0
230
1.0
 70
     8
 71
     3
 72
    12
 73
     8
 74
     0
 42
0.0000000001
 43
0.0000000001
 40
0.0
 40
0.0
 40
0.0
 40
0.0
 40
0.3333333333333333
 40
0.3333333333333333
 40
0.3333333333333333
 40
0.3333333333333333
 40
1.0
 40
1.0
 40
1.0
 40
1.0
 10
-7.3632
 20
-3.0763
 30
0.0
 10
-7.3632
 20
-2.7802
 30
0.0
 10
-7.3424
 20
-2.4836
 30
0.0
 10
-7.4102
 20
-2.1932
 30
0.0
 10
-7.4102
 20
-2.1932
 30
0.0
 10
-7.5164
 20
-1.7387
 30
0.0
 10
-7.7807
 20
-1.3341
 30
0.0
 10
-8.0542
 20
-0.9633
 30
0.0
  0
SPLINE
  5
ED
330
1F
100
AcDbEntity
  8
Ilustrace
 62
   250
370
    30
100
AcDbSpline
210
0.0
220
0.0
230
1.0
 70
     8
 71
     3
 72
    12
 73
     8
 74
     0
 42
0.0000000001
 43
0.0000000001
 40
0.0
 40
0.0
 40
0.0
 40
0.0
 40
0.3333333333333333
 40
0.3333333333333333
 40
0.3333333333333333
 40
0.3333333333333333
 40
1.0
 40
1.0
 40
1.0
 40
1.0
 10
-8.0542
 20
-0.9633
 30
0.0
 10
-8.0542
 20
-0.9633
 30
0.0
 10
-8.3559
 20
-0.5645
 30
0.0
 10
-8.3559
 20
-0.5645
 30
0.0
 10
-8.3559
 20
-0.5645
 30
0.0
 10
-8.3559
 20
-0.5645
 30
0.0
 10
-8.5498
 20
-0.2289
 30
0.0
 10
-8.5498
 20
-0.2289
 30
0.0
  0
SPLINE
  5
EE
330
1F
100
AcDbEntity
  8
Ilustrace
 62
   250
370
    30
100
AcDbSpline
210
0.0
220
0.0
230
1.0
 70
     8
 71
     3
 72
    28
 73
    24
 74
     0
 42
0.0000000001
 43
0.0000000001
 40
0.0
 40
0.0
 40
0.0
 40
0.0
 40
0.1428571428571428
 40
0.1428571428571428
 40
0.1428571428571428
 40
0.1428571428571428
 40
0.2857142857142857
 40
0.2857142857142857
 40
0.2857142857142857
 40
0.2857142857142857
 40
0.4285714285714285
 40
0.4285714285714285
 40
0.4285714285714285
 40
0.4285714285714285
 40
0.5714285714285714
 40
0.5714285714285714
 40
0.5714285714285714
 40
0.5714285714285714
 40
0.7142857142857143
 40
0.7142857142857143
 40
0.7142857142857143
 40
0.7142857142857143
 40
1.0
 40
1.0
 40
1.0
 40
1.0
 10
-10.027
 20
-8.6625
 30
0.0
 10
-10.027
 20
-8.6625
 30
0.0
 10
-10.3695
 20
-9.0048
 30
0.0
 10
-10.3695
 20
-9.0048
 30
0.0
 10
-10.3695
 20
-9.0048
 30
0.0
 10
-10.3695
 20
-9.0048
 30
0.0
 10
-10.411
 20
-9.0465
 30
0.0
 10
-10.411
 20
-9.0465
 30
0.0
 10
-10.411
 20
-9.0465
 30
0.0
 10
-10.411
 20
-9.0465
 30
0.0
 10
-10.7535
 20
-9.3888
 30
0.0
 10
-10.7535
 20
-9.3888
 30
0.0
 10
-10.7535
 20
-9.3888
 30
0.0
 10
-10.7535
 20
-9.3888
 30
0.0
 10
-10.7535
 20
-9.8733
 30
0.0
 10
-10.7535
 20
-9.8733
 30
0.0
 10
-10.7535
 20
-9.8733
 30
0.0
 10
-10.7535
 20
-9.8733
 30
0.0
 10
-10.7535
 20
-14.7348
 30
0.0
 10
-10.7535
 20
-14.7348
 30
0.0
 10
-10.7535
 20
-14.7348
 30
0.0
 10
-10.7535
 20
-14.7348
 30
0.0
 10
-10.7535
 20
-15.2191
 30
0.0
 10
-10.7535
 20
-15.2191
 30
0.0
  0
SPLINE
  5
EF
330
1F
100
AcDbEntity
  8
Ilustrace
 62
   250
370
    30
100
AcDbSpline
210
0.0
220
0.0
230
1.0
 70
    24
 71
     3
 72
     8
 73
     4
 74
     0
 42
0.0000000001
 43
0.0000000001
 40
0.0
 40
0.0
 40
0.0
 40
0.0
 40
1.0
 40
1.0
 40
1.0
 40
1.0
 10
-30.5871
 20
21.8084
 30
0.0
 10
-30.5871
 20
21.8084
 30
0.0
 10
-31.0292
 20
21.9934
 30
0.0
 10
-31.0292
 20
21.9934
 30
0.0
  0
SPLINE
  5
F0
330
1F
100
AcDbEntity
  8
Ilustrace
 62
   250
370
    30
100
AcDbSpline
210
0.0
220
0.0
230
1.0
 70
     8
 71
     3
 72
     8
 73
     4
 74
     0
 42
0.0000000001
 43
0.0000000001
 40
0.0
 40
0.0
 40
0.0
 40
0.0
 40
1.0
 40
1.0
 40
1.0
 40
1.0
 10
-31.0292
 20
21.9934
 30
0.0
 10
-31.2026
 20
22.0679
 30
0.0
 10
-31.4424
 20
22.1694
 30
0.0
 10
-31.5462
 20
22.3331
 30
0.0
  0
SPLINE
  5
F1
330
1F
100
AcDbEntity
  8
Ilustrace
 62
   250
370
    30
100
AcDbSpline
210
0.0
220
0.0
230
1.0
 70
    24
 71
     3
 72
     8
 73
     4
 74
     0
 42
0.0000000001
 43
0.0000000001
 40
0.0
 40
0.0
 40
0.0
 40
0.0
 40
1.0
 40
1.0
 40
1.0
 40
1.0
 10
-31.5462
 20
22.3331
 30
0.0
 10
-31.5462
 20
22.3331
 30
0.0
 10
-31.58
 20
22.4381
 30
0.0
 10
-31.58
 20
22.4381
 30
0.0
  0
SPLINE
  5
F2
330
1F
100
AcDbEntity
  8
Ilustrace
 62
   250
370
    30
100
AcDbSpline
210
0.0
220
0.0
230
1.0
 70
     8
 71
     3
 72
    12
 73
     8
 74
     0
 42
0.0000000001
 43
0.0000000001
 40
0.0
 40
0.0
 40
0.0
 40
0.0
 40
0.3333333333333333
 40
0.3333333333333333
 40
0.3333333333333333
 40
0.3333333333333333
 40
1.0
 40
1.0
 40
1.0
 40
1.0
 10
-30.6923
 20
22.066
 30
0.0
 10
-30.7816
 20
22.2699
 30
0.0
 10
-30.8641
 20
22.4935
 30
0.0
 10
-31.007
 20
22.6684
 30
0.0
 10
-31.007
 20
22.6684
 30
0.0
 10
-31.0587
 20
22.7318
 30
0.0
 10
-31.129
 20
22.8005
 30
0.0
 10
-31.2168
 20
22.8014
 30
0.0
  0
SPLINE
  5
F3
330
1F
100
AcDbEntity
  8
Ilustrace
 62
   250
370
    30
100
AcDbSpline
210
0.0
220
0.0
230
1.0
 70
    24
 71
     3
 72
     8
 73
     4
 74
     0
 42
0.0000000001
 43
0.0000000001
 40
0.0
 40
0.0
 40
0.0
 40
0.0
 40
1.0
 40
1.0
 40
1.0
 40
1.0
 10
-30.5871
 20
21.8084
 30
0.0
 10
-30.5871
 20
21.8084
 30
0.0
 10
-30.7637
 20
22.2319
 30
0.0
 10
-30.7637
 20
22.2319
 30
0.0
  0
SPLINE
  5
F4
330
1F
100
AcDbEntity
  8
Ilustrace
 62
   250
370
    30
100
AcDbSpline
210
0.0
220
0.0
230
1.0
 70
     8
 71
     3
 72
     8
 73
     4
 74
     0
 42
0.0000000001
 43
0.0000000001
 40
0.0
 40
0.0
 40
0.0
 40
0.0
 40
1.0
 40
1.0
 40
1.0
 40
1.0
 10
-30.7637
 20
22.2319
 30
0.0
 10
-30.8394
 20
22.4082
 30
0.0
 10
-30.9384
 20
22.6534
 30
0.0
 10
-31.1118
 20
22.7674
 30
0.0
  0
SPLINE
  5
F5
330
1F
100
AcDbEntity
  8
Ilustrace
 62
   250
370
    30
100
AcDbSpline
210
0.0
220
0.0
230
1.0
 70
     8
 71
     3
 72
     8
 73
     4
 74
     0
 42
0.0000000001
 43
0.0000000001
 40
0.0
 40
0.0
 40
0.0
 40
0.0
 40
1.0
 40
1.0
 40
1.0
 40
1.0
 10
-28.2605
 20
-28.125
 30
0.0
 10
-28.4426
 20
-27.9853
 30
0.0
 10
-28.706
 20
-28.054
 30
0.0
 10
-28.9161
 20
-28.054
 30
0.0
  0
SPLINE
  5
F6
330
1F
100
AcDbEntity
  8
Ilustrace
 62
   250
370
    30
100
AcDbSpline
210
0.0
220
0.0
230
1.0
 70
    24
 71
     3
 72
    12
 73
     8
 74
     0
 42
0.0000000001
 43
0.0000000001
 40
0.0
 40
0.0
 40
0.0
 40
0.0
 40
0.3333333333333333
 40
0.3333333333333333
 40
0.3333333333333333
 40
0.3333333333333333
 40
1.0
 40
1.0
 40
1.0
 40
1.0
 10
-28.1896
 20
-31.9287
 30
0.0
 10
-28.1896
 20
-31.9287
 30
0.0
 10
-28.1896
 20
-31.4444
 30
0.0
 10
-28.1896
 20
-31.4444
 30
0.0
 10
-28.1896
 20
-31.4444
 30
0.0
 10
-28.1896
 20
-31.4444
 30
0.0
 10
-28.1896
 20
-28.7805
 30
0.0
 10
-28.1896
 20
-28.7805
 30
0.0
  0
SPLINE
  5
F7
330
1F
100
AcDbEntity
  8
Ilustrace
 62
   250
370
    30
100
AcDbSpline
210
0.0
220
0.0
230
1.0
 70
     8
 71
     3
 72
     8
 73
     4
 74
     0
 42
0.0000000001
 43
0.0000000001
 40
0.0
 40
0.0
 40
0.0
 40
0.0
 40
1.0
 40
1.0
 40
1.0
 40
1.0
 10
-28.1896
 20
-28.7805
 30
0.0
 10
-28.1896
 20
-28.612
 30
0.0
 10
-28.1044
 20
-28.2501
 30
0.0
 10
-28.2895
 20
-28.1003
 30
0.0
  0
SPLINE
  5
F8
330
1F
100
AcDbEntity
  8
Ilustrace
 62
   250
370
    30
100
AcDbSpline
210
0.0
220
0.0
230
1.0
 70
    24
 71
     3
 72
    12
 73
     8
 74
     0
 42
0.0000000001
 43
0.0000000001
 40
0.0
 40
0.0
 40
0.0
 40
0.0
 40
0.3333333333333333
 40
0.3333333333333333
 40
0.3333333333333333
 40
0.3333333333333333
 40
1.0
 40
1.0
 40
1.0
 40
1.0
 10
-28.1896
 20
-18.8515
 30
0.0
 10
-28.1896
 20
-18.8515
 30
0.0
 10
-28.1896
 20
-19.3359
 30
0.0
 10
-28.1896
 20
-19.3359
 30
0.0
 10
-28.1896
 20
-19.3359
 30
0.0
 10
-28.1896
 20
-19.3359
 30
0.0
 10
-28.1896
 20
-22.4841
 30
0.0
 10
-28.1896
 20
-22.4841
 30
0.0
  0
SPLINE
  5
F9
330
1F
100
AcDbEntity
  8
Ilustrace
 62
   250
370
    30
100
AcDbSpline
210
0.0
220
0.0
230
1.0
 70
     8
 71
     3
 72
    12
 73
     8
 74
     0
 42
0.0000000001
 43
0.0000000001
 40
0.0
 40
0.0
 40
0.0
 40
0.0
 40
0.3333333333333333
 40
0.3333333333333333
 40
0.3333333333333333
 40
0.3333333333333333
 40
1.0
 40
1.0
 40
1.0
 40
1.0
 10
-28.1896
 20
-22.4841
 30
0.0
 10
-28.1896
 20
-22.6252
 30
0.0
 10
-28.0974
 20
-23.055
 30
0.0
 10
-28.3107
 20
-23.1781
 30
0.0
 10
-28.3107
 20
-23.1781
 30
0.0
 10
-28.36
 20
-23.2067
 30
0.0
 10
-28.3769
 20
-23.2033
 30
0.0
 10
-28.4318
 20
-23.2106
 30
0.0
  0
SPLINE
  5
FA
330
1F
100
AcDbEntity
  8
Ilustrace
 62
   250
370
    30
100
AcDbSpline
210
0.0
220
0.0
230
1.0
 70
    24
 71
     3
 72
     8
 73
     4
 74
     0
 42
0.0000000001
 43
0.0000000001
 40
0.0
 40
0.0
 40
0.0
 40
0.0
 40
1.0
 40
1.0
 40
1.0
 40
1.0
 10
-28.4318
 20
-23.2106
 30
0.0
 10
-28.4318
 20
-23.2106
 30
0.0
 10
-28.9161
 20
-23.2106
 30
0.0
 10
-28.9161
 20
-23.2106
 30
0.0
  0
SPLINE
  5
FB
330
1F
100
AcDbEntity
  8
Ilustrace
 62
   250
370
    30
100
AcDbSpline
210
0.0
220
0.0
230
1.0
 70
     8
 71
     3
 72
     8
 73
     4
 74
     0
 42
0.0000000001
 43
0.0000000001
 40
0.0
 40
0.0
 40
0.0
 40
0.0
 40
1.0
 40
1.0
 40
1.0
 40
1.0
 10
-28.1962
 20
-6.4509
 30
0.0
 10
-28.2267
 20
-6.2193
 30
0.0
 10
-28.508
 20
-6.2589
 30
0.0
 10
-28.6613
 20
-6.2589
 30
0.0
  0
SPLINE
  5
FC
330
1F
100
AcDbEntity
  8
Ilustrace
 62
   250
370
    30
100
AcDbSpline
210
0.0
220
0.0
230
1.0
 70
    24
 71
     3
 72
     8
 73
     4
 74
     0
 42
0.0000000001
 43
0.0000000001
 40
0.0
 40
0.0
 40
0.0
 40
0.0
 40
1.0
 40
1.0
 40
1.0
 40
1.0
 10
-28.6613
 20
-6.2589
 30
0.0
 10
-28.6613
 20
-6.2589
 30
0.0
 10
-28.9161
 20
-6.2589
 30
0.0
 10
-28.9161
 20
-6.2589
 30
0.0
  0
SPLINE
  5
FD
330
1F
100
AcDbEntity
  8
Ilustrace
 62
   250
370
    30
100
AcDbSpline
210
0.0
220
0.0
230
1.0
 70
    24
 71
     3
 72
    16
 73
    12
 74
     0
 42
0.0000000001
 43
0.0000000001
 40
0.0
 40
0.0
 40
0.0
 40
0.0
 40
0.25
 40
0.25
 40
0.25
 40
0.25
 40
0.5
 40
0.5
 40
0.5
 40
0.5
 40
1.0
 40
1.0
 40
1.0
 40
1.0
 10
-28.191
 20
-15.2191
 30
0.0
 10
-28.191
 20
-15.2191
 30
0.0
 10
-28.191
 20
-14.7348
 30
0.0
 10
-28.191
 20
-14.7348
 30
0.0
 10
-28.191
 20
-14.7348
 30
0.0
 10
-28.191
 20
-14.7348
 30
0.0
 10
-28.191
 20
-6.9601
 30
0.0
 10
-28.191
 20
-6.9601
 30
0.0
 10
-28.191
 20
-6.9601
 30
0.0
 10
-28.191
 20
-6.9601
 30
0.0
 10
-28.191
 20
-6.4758
 30
0.0
 10
-28.191
 20
-6.4758
 30
0.0
  0
SPLINE
  5
FE
330
1F
100
AcDbEntity
  8
Ilustrace
 62
   250
370
    30
100
AcDbSpline
210
0.0
220
0.0
230
1.0
 70
     8
 71
     3
 72
     8
 73
     4
 74
     0
 42
0.0000000001
 43
0.0000000001
 40
0.0
 40
0.0
 40
0.0
 40
0.0
 40
1.0
 40
1.0
 40
1.0
 40
1.0
 10
-28.191
 20
-6.4758
 30
0.0
 10
-28.1915
 20
-6.4484
 30
0.0
 10
-28.2013
 20
-6.4266
 30
0.0
 10
-28.2105
 20
-6.4024
 30
0.0
  0
SPLINE
  5
FF
330
1F
100
AcDbEntity
  8
Ilustrace
 62
   250
370
    30
100
AcDbSpline
210
0.0
220
0.0
230
1.0
 70
     8
 71
     3
 72
    20
 73
    16
 74
     0
 42
0.0000000001
 43
0.0000000001
 40
0.0
 40
0.0
 40
0.0
 40
0.0
 40
0.2
 40
0.2
 40
0.2
 40
0.2
 40
0.4
 40
0.4
 40
0.4
 40
0.4
 40
0.6
 40
0.6
 40
0.6
 40
0.6
 40
1.0
 40
1.0
 40
1.0
 40
1.0
 10
-10.7535
 20
-31.9287
 30
0.0
 10
-10.7535
 20
-31.9287
 30
0.0
 10
-10.7535
 20
-31.4444
 30
0.0
 10
-10.7535
 20
-31.4444
 30
0.0
 10
-10.7535
 20
-31.4444
 30
0.0
 10
-10.7535
 20
-31.4444
 30
0.0
 10
-10.7535
 20
-28.7805
 30
0.0
 10
-10.7535
 20
-28.7805
 30
0.0
 10
-10.7535
 20
-28.7805
 30
0.0
 10
-10.7535
 20
-28.7805
 30
0.0
 10
-10.7535
 20
-28.2962
 30
0.0
 10
-10.7535
 20
-28.2962
 30
0.0
 10
-10.7535
 20
-28.2962
 30
0.0
 10
-10.7535
 20
-28.2962
 30
0.0
 10
-10.7453
 20
-28.2335
 30
0.0
 10
-10.7453
 20
-28.2335
 30
0.0
  0
SPLINE
  5
100
330
1F
100
AcDbEntity
  8
Ilustrace
 62
   250
370
    30
100
AcDbSpline
210
0.0
220
0.0
230
1.0
 70
     8
 71
     3
 72
     8
 73
     4
 74
     0
 42
0.0000000001
 43
0.0000000001
 40
0.0
 40
0.0
 40
0.0
 40
0.0
 40
1.0
 40
1.0
 40
1.0
 40
1.0
 10
-10.7521
 20
-28.2708
 30
0.0
 10
-10.701
 20
-27.9476
 30
0.0
 10
-10.227
 20
-28.054
 30
0.0
 10
-10.027
 20
-28.054
 30
0.0
  0
SPLINE
  5
101
330
1F
100
AcDbEntity
  8
Ilustrace
 62
   250
370
    30
100
AcDbSpline
210
0.0
220
0.0
230
1.0
 70
    24
 71
     3
 72
    16
 73
    12
 74
     0
 42
0.0000000001
 43
0.0000000001
 40
0.0
 40
0.0
 40
0.0
 40
0.0
 40
0.25
 40
0.25
 40
0.25
 40
0.25
 40
0.5
 40
0.5
 40
0.5
 40
0.5
 40
1.0
 40
1.0
 40
1.0
 40
1.0
 10
-10.7535
 20
-18.8515
 30
0.0
 10
-10.7535
 20
-18.8515
 30
0.0
 10
-10.7535
 20
-19.3359
 30
0.0
 10
-10.7535
 20
-19.3359
 30
0.0
 10
-10.7535
 20
-19.3359
 30
0.0
 10
-10.7535
 20
-19.3359
 30
0.0
 10
-10.7535
 20
-22.4841
 30
0.0
 10
-10.7535
 20
-22.4841
 30
0.0
 10
-10.7535
 20
-22.4841
 30
0.0
 10
-10.7535
 20
-22.4841
 30
0.0
 10
-10.7535
 20
-22.9684
 30
0.0
 10
-10.7535
 20
-22.9684
 30
0.0
  0
SPLINE
  5
102
330
1F
100
AcDbEntity
  8
Ilustrace
 62
   250
370
    30
100
AcDbSpline
210
0.0
220
0.0
230
1.0
 70
     8
 71
     3
 72
     8
 73
     4
 74
     0
 42
0.0000000001
 43
0.0000000001
 40
0.0
 40
0.0
 40
0.0
 40
0.0
 40
1.0
 40
1.0
 40
1.0
 40
1.0
 10
-10.7535
 20
-22.9684
 30
0.0
 10
-10.7533
 20
-23.0024
 30
0.0
 10
-10.7447
 20
-23.0353
 30
0.0
 10
-10.7326
 20
-23.0669
 30
0.0
  0
SPLINE
  5
103
330
1F
100
AcDbEntity
  8
Ilustrace
 62
   250
370
    30
100
AcDbSpline
210
0.0
220
0.0
230
1.0
 70
     8
 71
     3
 72
     8
 73
     4
 74
     0
 42
0.0000000001
 43
0.0000000001
 40
0.0
 40
0.0
 40
0.0
 40
0.0
 40
1.0
 40
1.0
 40
1.0
 40
1.0
 10
-10.7469
 20
-23.0185
 30
0.0
 10
-10.7166
 20
-23.2495
 30
0.0
 10
-10.4237
 20
-23.2106
 30
0.0
 10
-10.2691
 20
-23.2106
 30
0.0
  0
SPLINE
  5
104
330
1F
100
AcDbEntity
  8
Ilustrace
 62
   250
370
    30
100
AcDbSpline
210
0.0
220
0.0
230
1.0
 70
    24
 71
     3
 72
     8
 73
     4
 74
     0
 42
0.0000000001
 43
0.0000000001
 40
0.0
 40
0.0
 40
0.0
 40
0.0
 40
1.0
 40
1.0
 40
1.0
 40
1.0
 10
-10.2691
 20
-23.2106
 30
0.0
 10
-10.2691
 20
-23.2106
 30
0.0
 10
-10.027
 20
-23.2106
 30
0.0
 10
-10.027
 20
-23.2106
 30
0.0
  0
SPLINE
  5
105
330
1F
100
AcDbEntity
  8
Ilustrace
 62
   250
370
    30
100
AcDbSpline
210
0.0
220
0.0
230
1.0
 70
    24
 71
     3
 72
    12
 73
     8
 74
     0
 42
0.0000000001
 43
0.0000000001
 40
0.0
 40
0.0
 40
0.0
 40
0.0
 40
0.3333333333333333
 40
0.3333333333333333
 40
0.3333333333333333
 40
0.3333333333333333
 40
1.0
 40
1.0
 40
1.0
 40
1.0
 10
6.6826
 20
19.411
 30
0.0
 10
6.6826
 20
19.411
 30
0.0
 10
6.1984
 20
19.411
 30
0.0
 10
6.1984
 20
19.411
 30
0.0
 10
6.1984
 20
19.411
 30
0.0
 10
6.1984
 20
19.411
 30
0.0
 10
-1.7933
 20
19.411
 30
0.0
 10
-1.7933
 20
19.411
 30
0.0
  0
SPLINE
  5
106
330
1F
100
AcDbEntity
  8
Ilustrace
 62
   250
370
    30
100
AcDbSpline
210
0.0
220
0.0
230
1.0
 70
     8
 71
     3
 72
     8
 73
     4
 74
     0
 42
0.0000000001
 43
0.0000000001
 40
0.0
 40
0.0
 40
0.0
 40
0.0
 40
1.0
 40
1.0
 40
1.0
 40
1.0
 10
-1.7933
 20
19.411
 30
0.0
 10
-1.9243
 20
19.411
 30
0.0
 10
-2.4737
 20
19.3031
 30
0.0
 10
-2.5136
 20
19.6063
 30
0.0
  0
SPLINE
  5
107
330
1F
100
AcDbEntity
  8
Ilustrace
 62
   250
370
    30
100
AcDbSpline
210
0.0
220
0.0
230
1.0
 70
     8
 71
     3
 72
    12
 73
     8
 74
     0
 42
0.0000000001
 43
0.0000000001
 40
0.0
 40
0.0
 40
0.0
 40
0.0
 40
0.3333333333333333
 40
0.3333333333333333
 40
0.3333333333333333
 40
0.3333333333333333
 40
1.0
 40
1.0
 40
1.0
 40
1.0
 10
-2.5198
 20
20.1375
 30
0.0
 10
-2.5198
 20
20.1375
 30
0.0
 10
-2.5198
 20
19.6532
 30
0.0
 10
-2.5198
 20
19.6532
 30
0.0
 10
-2.5198
 20
19.6532
 30
0.0
 10
-2.5198
 20
19.6532
 30
0.0
 10
-2.5036
 20
19.5714
 30
0.0
 10
-2.5036
 20
19.5714
 30
0.0
  0
SPLINE
  5
108
330
1F
100
AcDbEntity
  8
Ilustrace
 62
   250
370
    30
100
AcDbSpline
210
0.0
220
0.0
230
1.0
 70
     8
 71
     3
 72
     8
 73
     4
 74
     0
 42
0.0000000001
 43
0.0000000001
 40
0.0
 40
0.0
 40
0.0
 40
0.0
 40
1.0
 40
1.0
 40
1.0
 40
1.0
 10
14.432
 20
1.2483
 30
0.0
 10
14.432
 20
1.424
 30
0.0
 10
14.542
 20
1.9695
 30
0.0
 10
14.1899
 20
1.9749
 30
0.0
  0
SPLINE
  5
109
330
1F
100
AcDbEntity
  8
Ilustrace
 62
   250
370
    30
100
AcDbSpline
210
0.0
220
0.0
230
1.0
 70
    24
 71
     3
 72
    16
 73
    12
 74
     0
 42
0.0000000001
 43
0.0000000001
 40
0.0
 40
0.0
 40
0.0
 40
0.0
 40
0.25
 40
0.25
 40
0.25
 40
0.25
 40
0.5
 40
0.5
 40
0.5
 40
0.5
 40
1.0
 40
1.0
 40
1.0
 40
1.0
 10
14.1899
 20
1.9749
 30
0.0
 10
14.1899
 20
1.9749
 30
0.0
 10
13.7055
 20
1.9749
 30
0.0
 10
13.7055
 20
1.9749
 30
0.0
 10
13.7055
 20
1.9749
 30
0.0
 10
13.7055
 20
1.9749
 30
0.0
 10
10.7995
 20
1.9749
 30
0.0
 10
10.7995
 20
1.9749
 30
0.0
 10
10.7995
 20
1.9749
 30
0.0
 10
10.7995
 20
1.9749
 30
0.0
 10
10.3152
 20
1.9749
 30
0.0
 10
10.3152
 20
1.9749
 30
0.0
  0
SPLINE
  5
10A
330
1F
100
AcDbEntity
  8
Ilustrace
 62
   250
370
    30
100
AcDbSpline
210
0.0
220
0.0
230
1.0
 70
     8
 71
     3
 72
     8
 73
     4
 74
     0
 42
0.0000000001
 43
0.0000000001
 40
0.0
 40
0.0
 40
0.0
 40
0.0
 40
1.0
 40
1.0
 40
1.0
 40
1.0
 10
19.2753
 20
1.2483
 30
0.0
 10
19.2753
 20
1.424
 30
0.0
 10
19.1654
 20
1.9695
 30
0.0
 10
19.5175
 20
1.9749
 30
0.0
  0
SPLINE
  5
10B
330
1F
100
AcDbEntity
  8
Ilustrace
 62
   250
370
    30
100
AcDbSpline
210
0.0
220
0.0
230
1.0
 70
    24
 71
     3
 72
    16
 73
    12
 74
     0
 42
0.0000000001
 43
0.0000000001
 40
0.0
 40
0.0
 40
0.0
 40
0.0
 40
0.25
 40
0.25
 40
0.25
 40
0.25
 40
0.5
 40
0.5
 40
0.5
 40
0.5
 40
1.0
 40
1.0
 40
1.0
 40
1.0
 10
19.5175
 20
1.9749
 30
0.0
 10
19.5175
 20
1.9749
 30
0.0
 10
20.0018
 20
1.9749
 30
0.0
 10
20.0018
 20
1.9749
 30
0.0
 10
20.0018
 20
1.9749
 30
0.0
 10
20.0018
 20
1.9749
 30
0.0
 10
22.9079
 20
1.9749
 30
0.0
 10
22.9079
 20
1.9749
 30
0.0
 10
22.9079
 20
1.9749
 30
0.0
 10
22.9079
 20
1.9749
 30
0.0
 10
23.3922
 20
1.9749
 30
0.0
 10
23.3922
 20
1.9749
 30
0.0
  0
SPLINE
  5
10C
330
1F
100
AcDbEntity
  8
Ilustrace
 62
   250
370
    15
100
AcDbSpline
210
0.0
220
0.0
230
1.0
 70
    24
 71
     3
 72
     8
 73
     4
 74
     0
 42
0.0000000001
 43
0.0000000001
 40
0.0
 40
0.0
 40
0.0
 40
0.0
 40
1.0
 40
1.0
 40
1.0
 40
1.0
 10
28.6991
 20
21.7448
 30
0.0
 10
28.6991
 20
21.7448
 30
0.0
 10
-30.5851
 20
21.7448
 30
0.0
 10
-30.5851
 20
21.7448
 30
0.0
  0
SPLINE
  5
10D
330
1F
100
AcDbEntity
  8
Ilustrace
 62
   250
370
    15
100
AcDbSpline
210
0.0
220
0.0
230
1.0
 70
    24
 71
     3
 72
     8
 73
     4
 74
     0
 42
0.0000000001
 43
0.0000000001
 40
0.0
 40
0.0
 40
0.0
 40
0.0
 40
1.0
 40
1.0
 40
1.0
 40
1.0
 10
-30.5873
 20
-37.5636
 30
0.0
 10
-30.5873
 20
-37.5636
 30
0.0
 10
-30.5873
 20
21.7206
 30
0.0
 10
-30.5873
 20
21.7206
 30
0.0
  0
SPLINE
  5
10E
330
1F
100
AcDbEntity
  8
Ilustrace
 62
   250
370
    15
100
AcDbSpline
210
0.0
220
0.0
230
1.0
 70
    24
 71
     3
 72
     8
 73
     4
 74
     0
 42
0.0000000001
 43
0.0000000001
 40
0.0
 40
0.0
 40
0.0
 40
0.0
 40
1.0
 40
1.0
 40
1.0
 40
1.0
 10
-8.6025
 20
-0.2043
 30
0.0
 10
-8.6025
 20
-0.2043
 30
0.0
 10
28.7317
 20
-0.2043
 30
0.0
 10
28.7317
 20
-0.2043
 30
0.0
  0
SPLINE
  5
10F
330
1F
100
AcDbEntity
  8
Ilustrace
 62
   250
370
    15
100
AcDbSpline
210
0.0
220
0.0
230
1.0
 70
    24
 71
     3
 72
     8
 73
     4
 74
     0
 42
0.0000000001
 43
0.0000000001
 40
0.0
 40
0.0
 40
0.0
 40
0.0
 40
1.0
 40
1.0
 40
1.0
 40
1.0
 10
-8.6547
 20
-37.5687
 30
0.0
 10
-8.6547
 20
-37.5687
 30
0.0
 10
-8.6547
 20
-0.2345
 30
0.0
 10
-8.6547
 20
-0.2345
 30
0.0
  0
SPLINE
  5
110
330
1F
100
AcDbEntity
  8
Ilustrace
 62
   254
100
AcDbSpline
210
0.0
220
0.0
230
1.0
 70
    11
 71
     3
 72
    84
 73
    80
 74
     0
 42
0.0000000001
 43
0.0000000001
 40
0.0
 40
0.0
 40
0.0
 40
0.0
 40
0.0476190476190476
 40
0.0476190476190476
 40
0.0476190476190476
 40
0.0476190476190476
 40
0.0952380952380952
 40
0.0952380952380952
 40
0.0952380952380952
 40
0.0952380952380952
 40
0.1428571428571428
 40
0.1428571428571428
 40
0.1428571428571428
 40
0.1428571428571428
 40
0.1904761904761905
 40
0.1904761904761905
 40
0.1904761904761905
 40
0.1904761904761905
 40
0.2380952380952381
 40
0.2380952380952381
 40
0.2380952380952381
 40
0.2380952380952381
 40
0.2857142857142857
 40
0.2857142857142857
 40
0.2857142857142857
 40
0.2857142857142857
 40
0.3333333333333333
 40
0.3333333333333333
 40
0.3333333333333333
 40
0.3333333333333333
 40
0.3809523809523809
 40
0.3809523809523809
 40
0.3809523809523809
 40
0.3809523809523809
 40
0.4285714285714285
 40
0.4285714285714285
 40
0.4285714285714285
 40
0.4285714285714285
 40
0.4761904761904762
 40
0.4761904761904762
 40
0.4761904761904762
 40
0.4761904761904762
 40
0.5238095238095238
 40
0.5238095238095238
 40
0.5238095238095238
 40
0.5238095238095238
 40
0.5714285714285714
 40
0.5714285714285714
 40
0.5714285714285714
 40
0.5714285714285714
 40
0.6190476190476191
 40
0.6190476190476191
 40
0.6190476190476191
 40
0.6190476190476191
 40
0.6666666666666666
 40
0.6666666666666666
 40
0.6666666666666666
 40
0.6666666666666666
 40
0.7142857142857143
 40
0.7142857142857143
 40
0.7142857142857143
 40
0.7142857142857143
 40
0.7619047619047619
 40
0.7619047619047619
 40
0.7619047619047619
 40
0.7619047619047619
 40
0.8095238095238095
 40
0.8095238095238095
 40
0.8095238095238095
 40
0.8095238095238095
 40
0.8571428571428571
 40
0.8571428571428571
 40
0.8571428571428571
 40
0.8571428571428571
 40
0.9047619047619048
 40
0.9047619047619048
 40
0.9047619047619048
 40
0.9047619047619048
 40
1.0
 40
1.0
 40
1.0
 40
1.0
 10
-7.3154
 20
30.5182
 30
0.0
 10
-7.3154
 20
30.5182
 30
0.0
 10
-7.332
 20
31.4774
 30
0.0
 10
-7.332
 20
31.4774
 30
0.0
 10
-7.332
 20
31.4774
 30
0.0
 10
-7.332
 20
31.4774
 30
0.0
 10
-2.5363
 20
31.4609
 30
0.0
 10
-2.5363
 20
31.4609
 30
0.0
 10
-2.5363
 20
31.4609
 30
0.0
 10
-2.5363
 20
31.4609
 30
0.0
 10
-2.5694
 20
30.5349
 30
0.0
 10
-2.5694
 20
30.5349
 30
0.0
 10
-2.5694
 20
30.5349
 30
0.0
 10
-2.5694
 20
30.5349
 30
0.0
 10
14.4139
 20
30.5184
 30
0.0
 10
14.4139
 20
30.5184
 30
0.0
 10
14.4139
 20
30.5184
 30
0.0
 10
14.4139
 20
30.5184
 30
0.0
 10
14.403
 20
31.5437
 30
0.0
 10
14.403
 20
31.5437
 30
0.0
 10
14.403
 20
31.5437
 30
0.0
 10
14.403
 20
31.5437
 30
0.0
 10
19.2427
 20
31.5106
 30
0.0
 10
19.2427
 20
31.5106
 30
0.0
 10
19.2427
 20
31.5106
 30
0.0
 10
19.2427
 20
31.5106
 30
0.0
 10
19.2647
 20
30.4964
 30
0.0
 10
19.2647
 20
30.4964
 30
0.0
 10
19.2647
 20
30.4964
 30
0.0
 10
19.2647
 20
30.4964
 30
0.0
 10
28.6684
 20
30.5845
 30
0.0
 10
28.6684
 20
30.5845
 30
0.0
 10
28.6684
 20
30.5845
 30
0.0
 10
28.6684
 20
30.5845
 30
0.0
 10
28.6904
 20
35.3912
 30
0.0
 10
28.6904
 20
35.3912
 30
0.0
 10
28.6904
 20
35.3912
 30
0.0
 10
28.6904
 20
35.3912
 30
0.0
 10
-30.5875
 20
35.4022
 30
0.0
 10
-30.5875
 20
35.4022
 30
0.0
 10
-30.5875
 20
35.4022
 30
0.0
 10
-30.5875
 20
35.4022
 30
0.0
 10
-31.0946
 20
35.2919
 30
0.0
 10
-31.0946
 20
35.2919
 30
0.0
 10
-31.0946
 20
35.2919
 30
0.0
 10
-31.0946
 20
35.2919
 30
0.0
 10
-31.2931
 20
35.0494
 30
0.0
 10
-31.2931
 20
35.0494
 30
0.0
 10
-31.2931
 20
35.0494
 30
0.0
 10
-31.2931
 20
35.0494
 30
0.0
 10
-31.4474
 20
34.7958
 30
0.0
 10
-31.4474
 20
34.7958
 30
0.0
 10
-31.4474
 20
34.7958
 30
0.0
 10
-31.4474
 20
34.7958
 30
0.0
 10
-31.5907
 20
34.3549
 30
0.0
 10
-31.5907
 20
34.3549
 30
0.0
 10
-31.5907
 20
34.3549
 30
0.0
 10
-31.5907
 20
34.3549
 30
0.0
 10
-31.5246
 20
31.4995
 30
0.0
 10
-31.5246
 20
31.4995
 30
0.0
 10
-31.5246
 20
31.4995
 30
0.0
 10
-31.5246
 20
31.4995
 30
0.0
 10
-31.3813
 20
31.0696
 30
0.0
 10
-31.3813
 20
31.0696
 30
0.0
 10
-31.3813
 20
31.0696
 30
0.0
 10
-31.3813
 20
31.0696
 30
0.0
 10
-31.1057
 20
30.6837
 30
0.0
 10
-31.1057
 20
30.6837
 30
0.0
 10
-31.1057
 20
30.6837
 30
0.0
 10
-31.1057
 20
30.6837
 30
0.0
 10
-30.7529
 20
30.5845
 30
0.0
 10
-30.7529
 20
30.5845
 30
0.0
 10
-30.7529
 20
30.5845
 30
0.0
 10
-30.7529
 20
30.5845
 30
0.0
 10
-30.2127
 20
30.5294
 30
0.0
 10
-30.2127
 20
30.5294
 30
0.0
 10
-30.2127
 20
30.5294
 30
0.0
 10
-30.2127
 20
30.5294
 30
0.0
 10
-7.3154
 20
30.5182
 30
0.0
 10
-7.3154
 20
30.5182
 30
0.0
  0
SPLINE
  5
111
330
1F
100
AcDbEntity
  8
Ilustrace
 62
   254
100
AcDbSpline
210
0.0
220
0.0
230
1.0
 70
    11
 71
     3
 72
    20
 73
    16
 74
     0
 42
0.0000000001
 43
0.0000000001
 40
0.0
 40
0.0
 40
0.0
 40
0.0
 40
0.2
 40
0.2
 40
0.2
 40
0.2
 40
0.4
 40
0.4
 40
0.4
 40
0.4
 40
0.6
 40
0.6
 40
0.6
 40
0.6
 40
1.0
 40
1.0
 40
1.0
 40
1.0
 10
22.8791
 20
33.2421
 30
0.0
 10
23.1504
 20
33.2421
 30
0.0
 10
23.3698
 20
33.0113
 30
0.0
 10
23.3698
 20
32.7267
 30
0.0
 10
23.3698
 20
32.7267
 30
0.0
 10
23.3698
 20
32.4421
 30
0.0
 10
23.1504
 20
32.2113
 30
0.0
 10
22.8791
 20
32.2113
 30
0.0
 10
22.8791
 20
32.2113
 30
0.0
 10
22.608
 20
32.2113
 30
0.0
 10
22.3886
 20
32.4421
 30
0.0
 10
22.3886
 20
32.7267
 30
0.0
 10
22.3886
 20
32.7267
 30
0.0
 10
22.3886
 20
33.0113
 30
0.0
 10
22.608
 20
33.2421
 30
0.0
 10
22.8791
 20
33.2421
 30
0.0
  0
SPLINE
  5
112
330
1F
100
AcDbEntity
  8
Ilustrace
 62
   254
100
AcDbSpline
210
0.0
220
0.0
230
1.0
 70
    11
 71
     3
 72
    20
 73
    16
 74
     0
 42
0.0000000001
 43
0.0000000001
 40
0.0
 40
0.0
 40
0.0
 40
0.0
 40
0.2
 40
0.2
 40
0.2
 40
0.2
 40
0.4
 40
0.4
 40
0.4
 40
0.4
 40
0.6
 40
0.6
 40
0.6
 40
0.6
 40
1.0
 40
1.0
 40
1.0
 40
1.0
 10
3.5646
 20
33.187
 30
0.0
 10
3.8359
 20
33.187
 30
0.0
 10
4.0553
 20
32.9562
 30
0.0
 10
4.0553
 20
32.6716
 30
0.0
 10
4.0553
 20
32.6716
 30
0.0
 10
4.0553
 20
32.387
 30
0.0
 10
3.8359
 20
32.1562
 30
0.0
 10
3.5646
 20
32.1562
 30
0.0
 10
3.5646
 20
32.1562
 30
0.0
 10
3.2935
 20
32.1562
 30
0.0
 10
3.0741
 20
32.387
 30
0.0
 10
3.0741
 20
32.6716
 30
0.0
 10
3.0741
 20
32.6716
 30
0.0
 10
3.0741
 20
32.9562
 30
0.0
 10
3.2935
 20
33.187
 30
0.0
 10
3.5646
 20
33.187
 30
0.0
  0
SPLINE
  5
113
330
1F
100
AcDbEntity
  8
Ilustrace
 62
   254
100
AcDbSpline
210
0.0
220
0.0
230
1.0
 70
    11
 71
     3
 72
    20
 73
    16
 74
     0
 42
0.0000000001
 43
0.0000000001
 40
0.0
 40
0.0
 40
0.0
 40
0.0
 40
0.2
 40
0.2
 40
0.2
 40
0.2
 40
0.4
 40
0.4
 40
0.4
 40
0.4
 40
0.6
 40
0.6
 40
0.6
 40
0.6
 40
1.0
 40
1.0
 40
1.0
 40
1.0
 10
-25.5396
 20
33.2627
 30
0.0
 10
-25.2683
 20
33.2627
 30
0.0
 10
-25.0489
 20
33.0319
 30
0.0
 10
-25.0489
 20
32.7473
 30
0.0
 10
-25.0489
 20
32.7473
 30
0.0
 10
-25.0489
 20
32.4627
 30
0.0
 10
-25.2683
 20
32.2319
 30
0.0
 10
-25.5396
 20
32.2319
 30
0.0
 10
-25.5396
 20
32.2319
 30
0.0
 10
-25.8107
 20
32.2319
 30
0.0
 10
-26.0301
 20
32.4627
 30
0.0
 10
-26.0301
 20
32.7473
 30
0.0
 10
-26.0301
 20
32.7473
 30
0.0
 10
-26.0301
 20
33.0319
 30
0.0
 10
-25.8107
 20
33.2627
 30
0.0
 10
-25.5396
 20
33.2627
 30
0.0
  0
SPLINE
  5
114
330
1F
100
AcDbEntity
  8
Ilustrace
 62
   250
370
    30
100
AcDbSpline
210
0.0
220
0.0
230
1.0
 70
    24
 71
     3
 72
     8
 73
     4
 74
     0
 42
0.0000000001
 43
0.0000000001
 40
0.0
 40
0.0
 40
0.0
 40
0.0
 40
1.0
 40
1.0
 40
1.0
 40
1.0
 10
-28.2035
 20
30.9096
 30
0.0
 10
-28.2035
 20
30.9096
 30
0.0
 10
-28.2035
 20
30.5464
 30
0.0
 10
-28.2035
 20
30.5464
 30
0.0
  0
SPLINE
  5
115
330
1F
100
AcDbEntity
  8
Ilustrace
 62
   250
370
    30
100
AcDbSpline
210
0.0
220
0.0
230
1.0
 70
    24
 71
     3
 72
     8
 73
     4
 74
     0
 42
0.0000000001
 43
0.0000000001
 40
0.0
 40
0.0
 40
0.0
 40
0.0
 40
1.0
 40
1.0
 40
1.0
 40
1.0
 10
-2.5364
 20
30.5464
 30
0.0
 10
-2.5364
 20
30.5464
 30
0.0
 10
-2.5364
 20
31.5391
 30
0.0
 10
-2.5364
 20
31.5391
 30
0.0
  0
SPLINE
  5
116
330
1F
100
AcDbEntity
  8
Ilustrace
 62
   250
370
    30
100
AcDbSpline
210
0.0
220
0.0
230
1.0
 70
    24
 71
     3
 72
     8
 73
     4
 74
     0
 42
0.0000000001
 43
0.0000000001
 40
0.0
 40
0.0
 40
0.0
 40
0.0
 40
1.0
 40
1.0
 40
1.0
 40
1.0
 10
-2.5364
 20
30.5464
 30
0.0
 10
-2.5364
 20
30.5464
 30
0.0
 10
14.4135
 20
30.5464
 30
0.0
 10
14.4135
 20
30.5464
 30
0.0
  0
SPLINE
  5
117
330
1F
100
AcDbEntity
  8
Ilustrace
 62
   250
370
    30
100
AcDbSpline
210
0.0
220
0.0
230
1.0
 70
    24
 71
     3
 72
     8
 73
     4
 74
     0
 42
0.0000000001
 43
0.0000000001
 40
0.0
 40
0.0
 40
0.0
 40
0.0
 40
1.0
 40
1.0
 40
1.0
 40
1.0
 10
14.4135
 20
31.5391
 30
0.0
 10
14.4135
 20
31.5391
 30
0.0
 10
19.2562
 20
31.5391
 30
0.0
 10
19.2562
 20
31.5391
 30
0.0
  0
SPLINE
  5
118
330
1F
100
AcDbEntity
  8
Ilustrace
 62
   250
370
    30
100
AcDbSpline
210
0.0
220
0.0
230
1.0
 70
    24
 71
     3
 72
     8
 73
     4
 74
     0
 42
0.0000000001
 43
0.0000000001
 40
0.0
 40
0.0
 40
0.0
 40
0.0
 40
1.0
 40
1.0
 40
1.0
 40
1.0
 10
19.2562
 20
30.5464
 30
0.0
 10
19.2562
 20
30.5464
 30
0.0
 10
28.6999
 20
30.5464
 30
0.0
 10
28.6999
 20
30.5464
 30
0.0
  0
SPLINE
  5
119
330
1F
100
AcDbEntity
  8
Ilustrace
 62
   250
370
    30
100
AcDbSpline
210
0.0
220
0.0
230
1.0
 70
    24
 71
     3
 72
     8
 73
     4
 74
     0
 42
0.0000000001
 43
0.0000000001
 40
0.0
 40
0.0
 40
0.0
 40
0.0
 40
1.0
 40
1.0
 40
1.0
 40
1.0
 10
28.6999
 20
30.5492
 30
0.0
 10
28.6999
 20
30.5492
 30
0.0
 10
28.6999
 20
31.5391
 30
0.0
 10
28.6999
 20
31.5391
 30
0.0
  0
SPLINE
  5
11A
330
1F
100
AcDbEntity
  8
Ilustrace
 62
   250
370
    30
100
AcDbSpline
210
0.0
220
0.0
230
1.0
 70
    24
 71
     3
 72
     8
 73
     4
 74
     0
 42
0.0000000001
 43
0.0000000001
 40
0.0
 40
0.0
 40
0.0
 40
0.0
 40
1.0
 40
1.0
 40
1.0
 40
1.0
 10
28.6999
 20
35.3892
 30
0.0
 10
28.6999
 20
35.3892
 30
0.0
 10
28.6999
 20
30.5464
 30
0.0
 10
28.6999
 20
30.5464
 30
0.0
  0
SPLINE
  5
11B
330
1F
100
AcDbEntity
  8
Ilustrace
 62
   250
370
    30
100
AcDbSpline
210
0.0
220
0.0
230
1.0
 70
    24
 71
     3
 72
     8
 73
     4
 74
     0
 42
0.0000000001
 43
0.0000000001
 40
0.0
 40
0.0
 40
0.0
 40
0.0
 40
1.0
 40
1.0
 40
1.0
 40
1.0
 10
28.6999
 20
34.3964
 30
0.0
 10
28.6999
 20
34.3964
 30
0.0
 10
28.6999
 20
35.2909
 30
0.0
 10
28.6999
 20
35.2909
 30
0.0
  0
SPLINE
  5
11C
330
1F
100
AcDbEntity
  8
Ilustrace
 62
   250
370
    30
100
AcDbSpline
210
0.0
220
0.0
230
1.0
 70
    24
 71
     3
 72
     8
 73
     4
 74
     0
 42
0.0000000001
 43
0.0000000001
 40
0.0
 40
0.0
 40
0.0
 40
0.0
 40
1.0
 40
1.0
 40
1.0
 40
1.0
 10
-8.372
 20
35.3892
 30
0.0
 10
-8.372
 20
35.3892
 30
0.0
 10
28.6999
 20
35.3892
 30
0.0
 10
28.6999
 20
35.3892
 30
0.0
  0
SPLINE
  5
11D
330
1F
100
AcDbEntity
  8
Ilustrace
 62
   250
370
    30
100
AcDbSpline
210
0.0
220
0.0
230
1.0
 70
    24
 71
     3
 72
     8
 73
     4
 74
     0
 42
0.0000000001
 43
0.0000000001
 40
0.0
 40
0.0
 40
0.0
 40
0.0
 40
1.0
 40
1.0
 40
1.0
 40
1.0
 10
-7.3793
 20
30.5464
 30
0.0
 10
-7.3793
 20
30.5464
 30
0.0
 10
-30.0597
 20
30.5464
 30
0.0
 10
-30.0597
 20
30.5464
 30
0.0
  0
SPLINE
  5
11E
330
1F
100
AcDbEntity
  8
Ilustrace
 62
   250
370
    30
100
AcDbSpline
210
0.0
220
0.0
230
1.0
 70
    24
 71
     3
 72
     8
 73
     4
 74
     0
 42
0.0000000001
 43
0.0000000001
 40
0.0
 40
0.0
 40
0.0
 40
0.0
 40
1.0
 40
1.0
 40
1.0
 40
1.0
 10
-10.7693
 20
30.5464
 30
0.0
 10
-10.7693
 20
30.5464
 30
0.0
 10
-10.7693
 20
30.9096
 30
0.0
 10
-10.7693
 20
30.9096
 30
0.0
  0
SPLINE
  5
11F
330
1F
100
AcDbEntity
  8
Ilustrace
 62
   250
370
    30
100
AcDbSpline
210
0.0
220
0.0
230
1.0
 70
    24
 71
     3
 72
     8
 73
     4
 74
     0
 42
0.0000000001
 43
0.0000000001
 40
0.0
 40
0.0
 40
0.0
 40
0.0
 40
1.0
 40
1.0
 40
1.0
 40
1.0
 10
-2.421
 20
31.5391
 30
0.0
 10
-2.421
 20
31.5391
 30
0.0
 10
-7.3793
 20
31.5391
 30
0.0
 10
-7.3793
 20
31.5391
 30
0.0
  0
SPLINE
  5
120
330
1F
100
AcDbEntity
  8
Ilustrace
 62
   250
370
    30
100
AcDbSpline
210
0.0
220
0.0
230
1.0
 70
    24
 71
     3
 72
     8
 73
     4
 74
     0
 42
0.0000000001
 43
0.0000000001
 40
0.0
 40
0.0
 40
0.0
 40
0.0
 40
1.0
 40
1.0
 40
1.0
 40
1.0
 10
-8.372
 20
30.5464
 30
0.0
 10
-8.372
 20
30.5464
 30
0.0
 10
-7.3793
 20
30.5464
 30
0.0
 10
-7.3793
 20
30.5464
 30
0.0
  0
SPLINE
  5
121
330
1F
100
AcDbEntity
  8
Ilustrace
 62
   250
370
    30
100
AcDbSpline
210
0.0
220
0.0
230
1.0
 70
    24
 71
     3
 72
     8
 73
     4
 74
     0
 42
0.0000000001
 43
0.0000000001
 40
0.0
 40
0.0
 40
0.0
 40
0.0
 40
1.0
 40
1.0
 40
1.0
 40
1.0
 10
-7.3793
 20
30.9096
 30
0.0
 10
-7.3793
 20
30.9096
 30
0.0
 10
-7.3793
 20
30.9182
 30
0.0
 10
-7.3793
 20
30.9182
 30
0.0
  0
SPLINE
  5
122
330
1F
100
AcDbEntity
  8
Ilustrace
 62
   250
370
    30
100
AcDbSpline
210
0.0
220
0.0
230
1.0
 70
    24
 71
     3
 72
     8
 73
     4
 74
     0
 42
0.0000000001
 43
0.0000000001
 40
0.0
 40
0.0
 40
0.0
 40
0.0
 40
1.0
 40
1.0
 40
1.0
 40
1.0
 10
-7.3793
 20
30.9096
 30
0.0
 10
-7.3793
 20
30.9096
 30
0.0
 10
-7.3793
 20
30.9288
 30
0.0
 10
-7.3793
 20
30.9288
 30
0.0
  0
SPLINE
  5
123
330
1F
100
AcDbEntity
  8
Ilustrace
 62
   250
370
    30
100
AcDbSpline
210
0.0
220
0.0
230
1.0
 70
    24
 71
     3
 72
     8
 73
     4
 74
     0
 42
0.0000000001
 43
0.0000000001
 40
0.0
 40
0.0
 40
0.0
 40
0.0
 40
1.0
 40
1.0
 40
1.0
 40
1.0
 10
-7.3793
 20
30.9096
 30
0.0
 10
-7.3793
 20
30.9096
 30
0.0
 10
-7.3793
 20
30.9436
 30
0.0
 10
-7.3793
 20
30.9436
 30
0.0
  0
SPLINE
  5
124
330
1F
100
AcDbEntity
  8
Ilustrace
 62
   250
370
    30
100
AcDbSpline
210
0.0
220
0.0
230
1.0
 70
    24
 71
     3
 72
     8
 73
     4
 74
     0
 42
0.0000000001
 43
0.0000000001
 40
0.0
 40
0.0
 40
0.0
 40
0.0
 40
1.0
 40
1.0
 40
1.0
 40
1.0
 10
-7.3793
 20
30.9117
 30
0.0
 10
-7.3793
 20
30.9117
 30
0.0
 10
-7.3793
 20
31.5391
 30
0.0
 10
-7.3793
 20
31.5391
 30
0.0
  0
SPLINE
  5
125
330
1F
100
AcDbEntity
  8
Ilustrace
 62
   250
370
    30
100
AcDbSpline
210
0.0
220
0.0
230
1.0
 70
    24
 71
     3
 72
     8
 73
     4
 74
     0
 42
0.0000000001
 43
0.0000000001
 40
0.0
 40
0.0
 40
0.0
 40
0.0
 40
1.0
 40
1.0
 40
1.0
 40
1.0
 10
-7.3793
 20
31.094
 30
0.0
 10
-7.3793
 20
31.094
 30
0.0
 10
-7.3793
 20
30.5464
 30
0.0
 10
-7.3793
 20
30.5464
 30
0.0
  0
SPLINE
  5
126
330
1F
100
AcDbEntity
  8
Ilustrace
 62
   250
370
    30
100
AcDbSpline
210
0.0
220
0.0
230
1.0
 70
    24
 71
     3
 72
     8
 73
     4
 74
     0
 42
0.0000000001
 43
0.0000000001
 40
0.0
 40
0.0
 40
0.0
 40
0.0
 40
1.0
 40
1.0
 40
1.0
 40
1.0
 10
-7.5962
 20
30.9096
 30
0.0
 10
-7.5962
 20
30.9096
 30
0.0
 10
-7.4594
 20
30.9096
 30
0.0
 10
-7.4594
 20
30.9096
 30
0.0
  0
SPLINE
  5
127
330
1F
100
AcDbEntity
  8
Ilustrace
 62
   250
370
    30
100
AcDbSpline
210
0.0
220
0.0
230
1.0
 70
    24
 71
     3
 72
     8
 73
     4
 74
     0
 42
0.0000000001
 43
0.0000000001
 40
0.0
 40
0.0
 40
0.0
 40
0.0
 40
1.0
 40
1.0
 40
1.0
 40
1.0
 10
-7.3793
 20
30.9096
 30
0.0
 10
-7.3793
 20
30.9096
 30
0.0
 10
-7.605
 20
30.9096
 30
0.0
 10
-7.605
 20
30.9096
 30
0.0
  0
SPLINE
  5
128
330
1F
100
AcDbEntity
  8
Ilustrace
 62
   250
370
    30
100
AcDbSpline
210
0.0
220
0.0
230
1.0
 70
    24
 71
     3
 72
     8
 73
     4
 74
     0
 42
0.0000000001
 43
0.0000000001
 40
0.0
 40
0.0
 40
0.0
 40
0.0
 40
1.0
 40
1.0
 40
1.0
 40
1.0
 10
19.2562
 20
30.5464
 30
0.0
 10
19.2562
 20
30.5464
 30
0.0
 10
19.2562
 20
30.763
 30
0.0
 10
19.2562
 20
30.763
 30
0.0
  0
SPLINE
  5
129
330
1F
100
AcDbEntity
  8
Ilustrace
 62
   250
370
    30
100
AcDbSpline
210
0.0
220
0.0
230
1.0
 70
    24
 71
     3
 72
     8
 73
     4
 74
     0
 42
0.0000000001
 43
0.0000000001
 40
0.0
 40
0.0
 40
0.0
 40
0.0
 40
1.0
 40
1.0
 40
1.0
 40
1.0
 10
19.2562
 20
30.5492
 30
0.0
 10
19.2562
 20
30.5492
 30
0.0
 10
19.2562
 20
31.5391
 30
0.0
 10
19.2562
 20
31.5391
 30
0.0
  0
SPLINE
  5
12A
330
1F
100
AcDbEntity
  8
Ilustrace
 62
   250
370
    30
100
AcDbSpline
210
0.0
220
0.0
230
1.0
 70
    24
 71
     3
 72
     8
 73
     4
 74
     0
 42
0.0000000001
 43
0.0000000001
 40
0.0
 40
0.0
 40
0.0
 40
0.0
 40
1.0
 40
1.0
 40
1.0
 40
1.0
 10
14.4135
 20
30.5464
 30
0.0
 10
14.4135
 20
30.5464
 30
0.0
 10
14.4135
 20
31.5391
 30
0.0
 10
14.4135
 20
31.5391
 30
0.0
  0
SPLINE
  5
12B
330
1F
100
AcDbEntity
  8
Ilustrace
 62
   250
370
    30
100
AcDbSpline
210
0.0
220
0.0
230
1.0
 70
    24
 71
     3
 72
     8
 73
     4
 74
     0
 42
0.0000000001
 43
0.0000000001
 40
0.0
 40
0.0
 40
0.0
 40
0.0
 40
1.0
 40
1.0
 40
1.0
 40
1.0
 10
14.4135
 20
31.1084
 30
0.0
 10
14.4135
 20
31.1084
 30
0.0
 10
14.4135
 20
30.5492
 30
0.0
 10
14.4135
 20
30.5492
 30
0.0
  0
SPLINE
  5
12C
330
1F
100
AcDbEntity
  8
Ilustrace
 62
   250
370
    30
100
AcDbSpline
210
0.0
220
0.0
230
1.0
 70
    24
 71
     3
 72
     8
 73
     4
 74
     0
 42
0.0000000001
 43
0.0000000001
 40
0.0
 40
0.0
 40
0.0
 40
0.0
 40
1.0
 40
1.0
 40
1.0
 40
1.0
 10
-2.5364
 20
30.9096
 30
0.0
 10
-2.5364
 20
30.9096
 30
0.0
 10
-2.5364
 20
30.9182
 30
0.0
 10
-2.5364
 20
30.9182
 30
0.0
  0
SPLINE
  5
12D
330
1F
100
AcDbEntity
  8
Ilustrace
 62
   250
370
    30
100
AcDbSpline
210
0.0
220
0.0
230
1.0
 70
    24
 71
     3
 72
     8
 73
     4
 74
     0
 42
0.0000000001
 43
0.0000000001
 40
0.0
 40
0.0
 40
0.0
 40
0.0
 40
1.0
 40
1.0
 40
1.0
 40
1.0
 10
-2.5364
 20
30.9096
 30
0.0
 10
-2.5364
 20
30.9096
 30
0.0
 10
-2.4902
 20
30.9096
 30
0.0
 10
-2.4902
 20
30.9096
 30
0.0
  0
SPLINE
  5
12E
330
1F
100
AcDbEntity
  8
Ilustrace
 62
   250
370
    30
100
AcDbSpline
210
0.0
220
0.0
230
1.0
 70
    24
 71
     3
 72
     8
 73
     4
 74
     0
 42
0.0000000001
 43
0.0000000001
 40
0.0
 40
0.0
 40
0.0
 40
0.0
 40
1.0
 40
1.0
 40
1.0
 40
1.0
 10
-2.5364
 20
30.5464
 30
0.0
 10
-2.5364
 20
30.5464
 30
0.0
 10
-1.804
 20
30.5464
 30
0.0
 10
-1.804
 20
30.5464
 30
0.0
  0
SPLINE
  5
12F
330
1F
100
AcDbEntity
  8
Ilustrace
 62
   250
370
    30
100
AcDbSpline
210
0.0
220
0.0
230
1.0
 70
    24
 71
     3
 72
     8
 73
     4
 74
     0
 42
0.0000000001
 43
0.0000000001
 40
0.0
 40
0.0
 40
0.0
 40
0.0
 40
1.0
 40
1.0
 40
1.0
 40
1.0
 10
-2.5364
 20
30.9096
 30
0.0
 10
-2.5364
 20
30.9096
 30
0.0
 10
-2.5364
 20
30.9436
 30
0.0
 10
-2.5364
 20
30.9436
 30
0.0
  0
SPLINE
  5
130
330
1F
100
AcDbEntity
  8
Ilustrace
 62
   250
370
    30
100
AcDbSpline
210
0.0
220
0.0
230
1.0
 70
    24
 71
     3
 72
     8
 73
     4
 74
     0
 42
0.0000000001
 43
0.0000000001
 40
0.0
 40
0.0
 40
0.0
 40
0.0
 40
1.0
 40
1.0
 40
1.0
 40
1.0
 10
-2.5364
 20
30.9096
 30
0.0
 10
-2.5364
 20
30.9096
 30
0.0
 10
-2.4623
 20
30.9096
 30
0.0
 10
-2.4623
 20
30.9096
 30
0.0
  0
SPLINE
  5
131
330
1F
100
AcDbEntity
  8
Ilustrace
 62
   250
370
    30
100
AcDbSpline
210
0.0
220
0.0
230
1.0
 70
    24
 71
     3
 72
     8
 73
     4
 74
     0
 42
0.0000000001
 43
0.0000000001
 40
0.0
 40
0.0
 40
0.0
 40
0.0
 40
1.0
 40
1.0
 40
1.0
 40
1.0
 10
-2.5364
 20
30.9096
 30
0.0
 10
-2.5364
 20
30.9096
 30
0.0
 10
-2.5364
 20
30.9288
 30
0.0
 10
-2.5364
 20
30.9288
 30
0.0
  0
SPLINE
  5
132
330
1F
100
AcDbEntity
  8
Ilustrace
 62
   250
370
    30
100
AcDbSpline
210
0.0
220
0.0
230
1.0
 70
    24
 71
     3
 72
     8
 73
     4
 74
     0
 42
0.0000000001
 43
0.0000000001
 40
0.0
 40
0.0
 40
0.0
 40
0.0
 40
1.0
 40
1.0
 40
1.0
 40
1.0
 10
-2.5364
 20
30.5464
 30
0.0
 10
-2.5364
 20
30.5464
 30
0.0
 10
-1.804
 20
30.5464
 30
0.0
 10
-1.804
 20
30.5464
 30
0.0
  0
SPLINE
  5
133
330
1F
100
AcDbEntity
  8
Ilustrace
 62
   250
370
    30
100
AcDbSpline
210
0.0
220
0.0
230
1.0
 70
    24
 71
     3
 72
     8
 73
     4
 74
     0
 42
0.0000000001
 43
0.0000000001
 40
0.0
 40
0.0
 40
0.0
 40
0.0
 40
1.0
 40
1.0
 40
1.0
 40
1.0
 10
-31.0502
 20
31.0993
 30
0.0
 10
-31.0502
 20
31.0993
 30
0.0
 10
-31.1061
 20
31.1645
 30
0.0
 10
-31.1061
 20
31.1645
 30
0.0
  0
SPLINE
  5
134
330
1F
100
AcDbEntity
  8
Ilustrace
 62
   250
370
    30
100
AcDbSpline
210
0.0
220
0.0
230
1.0
 70
    24
 71
     3
 72
     8
 73
     4
 74
     0
 42
0.0000000001
 43
0.0000000001
 40
0.0
 40
0.0
 40
0.0
 40
0.0
 40
1.0
 40
1.0
 40
1.0
 40
1.0
 10
-31.0566
 20
31.1054
 30
0.0
 10
-31.0566
 20
31.1054
 30
0.0
 10
-31.0686
 20
31.1183
 30
0.0
 10
-31.0686
 20
31.1183
 30
0.0
  0
SPLINE
  5
135
330
1F
100
AcDbEntity
  8
Ilustrace
 62
   250
370
    30
100
AcDbSpline
210
0.0
220
0.0
230
1.0
 70
    24
 71
     3
 72
     8
 73
     4
 74
     0
 42
0.0000000001
 43
0.0000000001
 40
0.0
 40
0.0
 40
0.0
 40
0.0
 40
1.0
 40
1.0
 40
1.0
 40
1.0
 10
-27.6626
 20
30.9096
 30
0.0
 10
-27.6626
 20
30.9096
 30
0.0
 10
-27.6626
 20
30.5464
 30
0.0
 10
-27.6626
 20
30.5464
 30
0.0
  0
SPLINE
  5
136
330
1F
100
AcDbEntity
  8
Ilustrace
 62
   250
370
    30
100
AcDbSpline
210
0.0
220
0.0
230
1.0
 70
    24
 71
     3
 72
     8
 73
     4
 74
     0
 42
0.0000000001
 43
0.0000000001
 40
0.0
 40
0.0
 40
0.0
 40
0.0
 40
1.0
 40
1.0
 40
1.0
 40
1.0
 10
-7.8952
 20
31.129
 30
0.0
 10
-7.8952
 20
31.129
 30
0.0
 10
-7.9422
 20
31.0795
 30
0.0
 10
-7.9422
 20
31.0795
 30
0.0
  0
SPLINE
  5
137
330
1F
100
AcDbEntity
  8
Ilustrace
 62
   250
370
    30
100
AcDbSpline
210
0.0
220
0.0
230
1.0
 70
    24
 71
     3
 72
     8
 73
     4
 74
     0
 42
0.0000000001
 43
0.0000000001
 40
0.0
 40
0.0
 40
0.0
 40
0.0
 40
1.0
 40
1.0
 40
1.0
 40
1.0
 10
-7.8502
 20
31.1875
 30
0.0
 10
-7.8502
 20
31.1875
 30
0.0
 10
-7.9235
 20
31.0982
 30
0.0
 10
-7.9235
 20
31.0982
 30
0.0
  0
SPLINE
  5
138
330
1F
100
AcDbEntity
  8
Ilustrace
 62
   250
370
    30
100
AcDbSpline
210
0.0
220
0.0
230
1.0
 70
    24
 71
     3
 72
     8
 73
     4
 74
     0
 42
0.0000000001
 43
0.0000000001
 40
0.0
 40
0.0
 40
0.0
 40
0.0
 40
1.0
 40
1.0
 40
1.0
 40
1.0
 10
-7.8541
 20
31.1823
 30
0.0
 10
-7.8541
 20
31.1823
 30
0.0
 10
-7.8839
 20
31.1423
 30
0.0
 10
-7.8839
 20
31.1423
 30
0.0
  0
SPLINE
  5
139
330
1F
100
AcDbEntity
  8
Ilustrace
 62
   250
370
    30
100
AcDbSpline
210
0.0
220
0.0
230
1.0
 70
    24
 71
     3
 72
    12
 73
     8
 74
     0
 42
0.0000000001
 43
0.0000000001
 40
0.0
 40
0.0
 40
0.0
 40
0.0
 40
0.3333333333333333
 40
0.3333333333333333
 40
0.3333333333333333
 40
0.3333333333333333
 40
1.0
 40
1.0
 40
1.0
 40
1.0
 10
-27.6626
 20
30.5464
 30
0.0
 10
-27.6626
 20
30.5464
 30
0.0
 10
-27.1782
 20
30.5464
 30
0.0
 10
-27.1782
 20
30.5464
 30
0.0
 10
-27.1782
 20
30.5464
 30
0.0
 10
-27.1782
 20
30.5464
 30
0.0
 10
-8.8563
 20
30.5464
 30
0.0
 10
-8.8563
 20
30.5464
 30
0.0
  0
SPLINE
  5
13A
330
1F
100
AcDbEntity
  8
Ilustrace
 62
   250
370
    30
100
AcDbSpline
210
0.0
220
0.0
230
1.0
 70
     8
 71
     3
 72
    16
 73
    12
 74
     0
 42
0.0000000001
 43
0.0000000001
 40
0.0
 40
0.0
 40
0.0
 40
0.0
 40
0.25
 40
0.25
 40
0.25
 40
0.25
 40
0.5
 40
0.5
 40
0.5
 40
0.5
 40
1.0
 40
1.0
 40
1.0
 40
1.0
 10
-8.8563
 20
30.5464
 30
0.0
 10
-8.5796
 20
30.5464
 30
0.0
 10
-8.2761
 20
30.5104
 30
0.0
 10
-8.0093
 20
30.615
 30
0.0
 10
-8.0093
 20
30.615
 30
0.0
 10
-7.7186
 20
30.7292
 30
0.0
 10
-7.4944
 20
30.9789
 30
0.0
 10
-7.413
 20
31.2822
 30
0.0
 10
-7.413
 20
31.2822
 30
0.0
 10
-7.3582
 20
31.4872
 30
0.0
 10
-7.3793
 20
31.849
 30
0.0
 10
-7.3793
 20
32.0234
 30
0.0
  0
SPLINE
  5
13B
330
1F
100
AcDbEntity
  8
Ilustrace
 62
   250
370
    30
100
AcDbSpline
210
0.0
220
0.0
230
1.0
 70
    24
 71
     3
 72
     8
 73
     4
 74
     0
 42
0.0000000001
 43
0.0000000001
 40
0.0
 40
0.0
 40
0.0
 40
0.0
 40
1.0
 40
1.0
 40
1.0
 40
1.0
 10
-7.3793
 20
32.0234
 30
0.0
 10
-7.3793
 20
32.0234
 30
0.0
 10
-7.3793
 20
33.9121
 30
0.0
 10
-7.3793
 20
33.9121
 30
0.0
  0
SPLINE
  5
13C
330
1F
100
AcDbEntity
  8
Ilustrace
 62
   250
370
    30
100
AcDbSpline
210
0.0
220
0.0
230
1.0
 70
     8
 71
     3
 72
    16
 73
    12
 74
     0
 42
0.0000000001
 43
0.0000000001
 40
0.0
 40
0.0
 40
0.0
 40
0.0
 40
0.25
 40
0.25
 40
0.25
 40
0.25
 40
0.5
 40
0.5
 40
0.5
 40
0.5
 40
1.0
 40
1.0
 40
1.0
 40
1.0
 10
-7.3793
 20
33.9121
 30
0.0
 10
-7.3793
 20
34.0885
 30
0.0
 10
-7.3603
 20
34.3444
 30
0.0
 10
-7.3904
 20
34.5443
 30
0.0
 10
-7.3904
 20
34.5443
 30
0.0
 10
-7.4506
 20
34.9438
 30
0.0
 10
-7.7574
 20
35.2744
 30
0.0
 10
-8.1512
 20
35.3643
 30
0.0
 10
-8.1512
 20
35.3643
 30
0.0
 10
-8.3738
 20
35.4151
 30
0.0
 10
-8.6455
 20
35.3892
 30
0.0
 10
-8.8563
 20
35.3892
 30
0.0
  0
SPLINE
  5
13D
330
1F
100
AcDbEntity
  8
Ilustrace
 62
   250
370
    30
100
AcDbSpline
210
0.0
220
0.0
230
1.0
 70
    24
 71
     3
 72
    12
 73
     8
 74
     0
 42
0.0000000001
 43
0.0000000001
 40
0.0
 40
0.0
 40
0.0
 40
0.0
 40
0.3333333333333333
 40
0.3333333333333333
 40
0.3333333333333333
 40
0.3333333333333333
 40
1.0
 40
1.0
 40
1.0
 40
1.0
 10
-8.8563
 20
35.3892
 30
0.0
 10
-8.8563
 20
35.3892
 30
0.0
 10
-30.1164
 20
35.3892
 30
0.0
 10
-30.1164
 20
35.3892
 30
0.0
 10
-30.1164
 20
35.3892
 30
0.0
 10
-30.1164
 20
35.3892
 30
0.0
 10
-30.6008
 20
35.3892
 30
0.0
 10
-30.6008
 20
35.3892
 30
0.0
  0
SPLINE
  5
13E
330
1F
100
AcDbEntity
  8
Ilustrace
 62
   250
370
    30
100
AcDbSpline
210
0.0
220
0.0
230
1.0
 70
     8
 71
     3
 72
    12
 73
     8
 74
     0
 42
0.0000000001
 43
0.0000000001
 40
0.0
 40
0.0
 40
0.0
 40
0.0
 40
0.3333333333333333
 40
0.3333333333333333
 40
0.3333333333333333
 40
0.3333333333333333
 40
1.0
 40
1.0
 40
1.0
 40
1.0
 10
-30.6008
 20
35.3892
 30
0.0
 10
-31.06
 20
35.3721
 30
0.0
 10
-31.4639
 20
35.076
 30
0.0
 10
-31.5686
 20
34.6174
 30
0.0
 10
-31.5686
 20
34.6174
 30
0.0
 10
-31.6194
 20
34.3947
 30
0.0
 10
-31.5935
 20
34.1229
 30
0.0
 10
-31.5935
 20
33.9121
 30
0.0
  0
SPLINE
  5
13F
330
1F
100
AcDbEntity
  8
Ilustrace
 62
   250
370
    30
100
AcDbSpline
210
0.0
220
0.0
230
1.0
 70
    24
 71
     3
 72
     8
 73
     4
 74
     0
 42
0.0000000001
 43
0.0000000001
 40
0.0
 40
0.0
 40
0.0
 40
0.0
 40
1.0
 40
1.0
 40
1.0
 40
1.0
 10
-31.5935
 20
33.9121
 30
0.0
 10
-31.5935
 20
33.9121
 30
0.0
 10
-31.5935
 20
32.0234
 30
0.0
 10
-31.5935
 20
32.0234
 30
0.0
  0
SPLINE
  5
140
330
1F
100
AcDbEntity
  8
Ilustrace
 62
   250
370
    30
100
AcDbSpline
210
0.0
220
0.0
230
1.0
 70
     8
 71
     3
 72
     8
 73
     4
 74
     0
 42
0.0000000001
 43
0.0000000001
 40
0.0
 40
0.0
 40
0.0
 40
0.0
 40
1.0
 40
1.0
 40
1.0
 40
1.0
 10
-31.5935
 20
32.0234
 30
0.0
 10
-31.5935
 20
31.9645
 30
0.0
 10
-31.6159
 20
31.4185
 30
0.0
 10
-31.5577
 20
31.2774
 30
0.0
  0
SPLINE
  5
141
330
1F
100
AcDbEntity
  8
Ilustrace
 62
   250
370
    30
100
AcDbSpline
210
0.0
220
0.0
230
1.0
 70
     8
 71
     3
 72
     8
 73
     4
 74
     0
 42
0.0000000001
 43
0.0000000001
 40
0.0
 40
0.0
 40
0.0
 40
0.0
 40
1.0
 40
1.0
 40
1.0
 40
1.0
 10
-31.2303
 20
31.5391
 30
0.0
 10
-31.0708
 20
31.3302
 30
0.0
 10
-30.9155
 20
31.1135
 30
0.0
 10
-30.732
 20
30.9239
 30
0.0
  0
SPLINE
  5
142
330
1F
100
AcDbEntity
  8
Ilustrace
 62
   250
370
    30
100
AcDbSpline
210
0.0
220
0.0
230
1.0
 70
    24
 71
     3
 72
    12
 73
     8
 74
     0
 42
0.0000000001
 43
0.0000000001
 40
0.0
 40
0.0
 40
0.0
 40
0.0
 40
0.3333333333333333
 40
0.3333333333333333
 40
0.3333333333333333
 40
0.3333333333333333
 40
1.0
 40
1.0
 40
1.0
 40
1.0
 10
-28.4456
 20
30.9096
 30
0.0
 10
-28.4456
 20
30.9096
 30
0.0
 10
-27.9614
 20
30.9096
 30
0.0
 10
-27.9614
 20
30.9096
 30
0.0
 10
-27.9614
 20
30.9096
 30
0.0
 10
-27.9614
 20
30.9096
 30
0.0
 10
-8.8563
 20
30.9096
 30
0.0
 10
-8.8563
 20
30.9096
 30
0.0
  0
SPLINE
  5
143
330
1F
100
AcDbEntity
  8
Ilustrace
 62
   250
370
    30
100
AcDbSpline
210
0.0
220
0.0
230
1.0
 70
     8
 71
     3
 72
    16
 73
    12
 74
     0
 42
0.0000000001
 43
0.0000000001
 40
0.0
 40
0.0
 40
0.0
 40
0.0
 40
0.25
 40
0.25
 40
0.25
 40
0.25
 40
0.5
 40
0.5
 40
0.5
 40
0.5
 40
1.0
 40
1.0
 40
1.0
 40
1.0
 10
-8.8563
 20
30.9096
 30
0.0
 10
-8.6732
 20
30.9096
 30
0.0
 10
-8.3744
 20
30.8727
 30
0.0
 10
-8.1677
 20
30.9436
 30
0.0
 10
-8.1677
 20
30.9436
 30
0.0
 10
-8.102
 20
30.9663
 30
0.0
 10
-8.0401
 20
30.9998
 30
0.0
 10
-7.9855
 20
31.0423
 30
0.0
 10
-7.9855
 20
31.0423
 30
0.0
 10
-7.6756
 20
31.2834
 30
0.0
 10
-7.7424
 20
31.6734
 30
0.0
 10
-7.7424
 20
32.0234
 30
0.0
  0
SPLINE
  5
144
330
1F
100
AcDbEntity
  8
Ilustrace
 62
   250
370
    30
100
AcDbSpline
210
0.0
220
0.0
230
1.0
 70
    24
 71
     3
 72
     8
 73
     4
 74
     0
 42
0.0000000001
 43
0.0000000001
 40
0.0
 40
0.0
 40
0.0
 40
0.0
 40
1.0
 40
1.0
 40
1.0
 40
1.0
 10
-7.7424
 20
32.0234
 30
0.0
 10
-7.7424
 20
32.0234
 30
0.0
 10
-7.7424
 20
33.9121
 30
0.0
 10
-7.7424
 20
33.9121
 30
0.0
  0
SPLINE
  5
145
330
1F
100
AcDbEntity
  8
Ilustrace
 62
   250
370
    30
100
AcDbSpline
210
0.0
220
0.0
230
1.0
 70
     8
 71
     3
 72
    16
 73
    12
 74
     0
 42
0.0000000001
 43
0.0000000001
 40
0.0
 40
0.0
 40
0.0
 40
0.0
 40
0.25
 40
0.25
 40
0.25
 40
0.25
 40
0.5
 40
0.5
 40
0.5
 40
0.5
 40
1.0
 40
1.0
 40
1.0
 40
1.0
 10
-7.7424
 20
33.9121
 30
0.0
 10
-7.7424
 20
34.2623
 30
0.0
 10
-7.6756
 20
34.652
 30
0.0
 10
-7.9855
 20
34.8933
 30
0.0
 10
-7.9855
 20
34.8933
 30
0.0
 10
-8.0266
 20
34.9253
 30
0.0
 10
-8.0716
 20
34.9521
 30
0.0
 10
-8.1192
 20
34.973
 30
0.0
 10
-8.1192
 20
34.973
 30
0.0
 10
-8.1828
 20
35.0009
 30
0.0
 10
-8.2509
 20
35.0182
 30
0.0
 10
-8.3201
 20
35.0239
 30
0.0
  0
SPLINE
  5
146
330
1F
100
AcDbEntity
  8
Ilustrace
 62
   250
370
    30
100
AcDbSpline
210
0.0
220
0.0
230
1.0
 70
     8
 71
     3
 72
    24
 73
    20
 74
     0
 42
0.0000000001
 43
0.0000000001
 40
0.0
 40
0.0
 40
0.0
 40
0.0
 40
0.1666666666666667
 40
0.1666666666666667
 40
0.1666666666666667
 40
0.1666666666666667
 40
0.3333333333333333
 40
0.3333333333333333
 40
0.3333333333333333
 40
0.3333333333333333
 40
0.5
 40
0.5
 40
0.5
 40
0.5
 40
0.6666666666666666
 40
0.6666666666666666
 40
0.6666666666666666
 40
0.6666666666666666
 40
1.0
 40
1.0
 40
1.0
 40
1.0
 10
-8.3201
 20
35.0239
 30
0.0
 10
-8.3201
 20
35.0239
 30
0.0
 10
-8.372
 20
35.0259
 30
0.0
 10
-8.372
 20
35.0259
 30
0.0
 10
-8.372
 20
35.0259
 30
0.0
 10
-8.372
 20
35.0259
 30
0.0
 10
-8.8563
 20
35.0259
 30
0.0
 10
-8.8563
 20
35.0259
 30
0.0
 10
-8.8563
 20
35.0259
 30
0.0
 10
-8.8563
 20
35.0259
 30
0.0
 10
-30.1164
 20
35.0259
 30
0.0
 10
-30.1164
 20
35.0259
 30
0.0
 10
-30.1164
 20
35.0259
 30
0.0
 10
-30.1164
 20
35.0259
 30
0.0
 10
-30.6008
 20
35.0259
 30
0.0
 10
-30.6008
 20
35.0259
 30
0.0
 10
-30.6008
 20
35.0259
 30
0.0
 10
-30.6008
 20
35.0259
 30
0.0
 10
-30.7637
 20
35.0045
 30
0.0
 10
-30.7637
 20
35.0045
 30
0.0
  0
SPLINE
  5
147
330
1F
100
AcDbEntity
  8
Ilustrace
 62
   250
370
    30
100
AcDbSpline
210
0.0
220
0.0
230
1.0
 70
     8
 71
     3
 72
     8
 73
     4
 74
     0
 42
0.0000000001
 43
0.0000000001
 40
0.0
 40
0.0
 40
0.0
 40
0.0
 40
1.0
 40
1.0
 40
1.0
 40
1.0
 10
-30.7637
 20
35.0045
 30
0.0
 10
-30.9804
 20
34.9465
 30
0.0
 10
-31.1511
 20
34.7737
 30
0.0
 10
-31.2091
 20
34.5574
 30
0.0
  0
SPLINE
  5
148
330
1F
100
AcDbEntity
  8
Ilustrace
 62
   250
370
    30
100
AcDbSpline
210
0.0
220
0.0
230
1.0
 70
    24
 71
     3
 72
     8
 73
     4
 74
     0
 42
0.0000000001
 43
0.0000000001
 40
0.0
 40
0.0
 40
0.0
 40
0.0
 40
1.0
 40
1.0
 40
1.0
 40
1.0
 10
-31.2091
 20
34.5574
 30
0.0
 10
-31.2091
 20
34.5574
 30
0.0
 10
-31.2303
 20
34.3964
 30
0.0
 10
-31.2303
 20
34.3964
 30
0.0
  0
SPLINE
  5
149
330
1F
100
AcDbEntity
  8
Ilustrace
 62
   250
370
    30
100
AcDbSpline
210
0.0
220
0.0
230
1.0
 70
     8
 71
     3
 72
     8
 73
     4
 74
     0
 42
0.0000000001
 43
0.0000000001
 40
0.0
 40
0.0
 40
0.0
 40
0.0
 40
1.0
 40
1.0
 40
1.0
 40
1.0
 10
-7.5401
 20
34.9378
 30
0.0
 10
-6.9156
 20
34.7792
 30
0.0
 10
-6.3377
 20
34.4743
 30
0.0
 10
-5.7834
 20
34.1542
 30
0.0
  0
SPLINE
  5
14A
330
1F
100
AcDbEntity
  8
Ilustrace
 62
   250
370
    30
100
AcDbSpline
210
0.0
220
0.0
230
1.0
 70
     8
 71
     3
 72
    28
 73
    24
 74
     0
 42
0.0000000001
 43
0.0000000001
 40
0.0
 40
0.0
 40
0.0
 40
0.0
 40
0.1428571428571428
 40
0.1428571428571428
 40
0.1428571428571428
 40
0.1428571428571428
 40
0.2857142857142857
 40
0.2857142857142857
 40
0.2857142857142857
 40
0.2857142857142857
 40
0.4285714285714285
 40
0.4285714285714285
 40
0.4285714285714285
 40
0.4285714285714285
 40
0.5714285714285714
 40
0.5714285714285714
 40
0.5714285714285714
 40
0.5714285714285714
 40
0.7142857142857143
 40
0.7142857142857143
 40
0.7142857142857143
 40
0.7142857142857143
 40
1.0
 40
1.0
 40
1.0
 40
1.0
 10
-5.7834
 20
34.1542
 30
0.0
 10
-5.7834
 20
34.1542
 30
0.0
 10
-5.7443
 20
34.1318
 30
0.0
 10
-5.7443
 20
34.1318
 30
0.0
 10
-5.7443
 20
34.1318
 30
0.0
 10
-5.7443
 20
34.1318
 30
0.0
 10
-5.3249
 20
33.8896
 30
0.0
 10
-5.3249
 20
33.8896
 30
0.0
 10
-5.3249
 20
33.8896
 30
0.0
 10
-5.3249
 20
33.8896
 30
0.0
 10
-4.9825
 20
33.5471
 30
0.0
 10
-4.9825
 20
33.5471
 30
0.0
 10
-4.9825
 20
33.5471
 30
0.0
 10
-4.9825
 20
33.5471
 30
0.0
 10
-3.317
 20
31.8816
 30
0.0
 10
-3.317
 20
31.8816
 30
0.0
 10
-3.317
 20
31.8816
 30
0.0
 10
-3.317
 20
31.8816
 30
0.0
 10
-2.9746
 20
31.5391
 30
0.0
 10
-2.9746
 20
31.5391
 30
0.0
 10
-2.9746
 20
31.5391
 30
0.0
 10
-2.9746
 20
31.5391
 30
0.0
 10
-2.5364
 20
31.5391
 30
0.0
 10
-2.5364
 20
31.5391
 30
0.0
  0
SPLINE
  5
14B
330
1F
100
AcDbEntity
  8
Ilustrace
 62
   250
370
    30
100
AcDbSpline
210
0.0
220
0.0
230
1.0
 70
     8
 71
     3
 72
    12
 73
     8
 74
     0
 42
0.0000000001
 43
0.0000000001
 40
0.0
 40
0.0
 40
0.0
 40
0.0
 40
0.3333333333333333
 40
0.3333333333333333
 40
0.3333333333333333
 40
0.3333333333333333
 40
1.0
 40
1.0
 40
1.0
 40
1.0
 10
-30.6008
 20
30.9096
 30
0.0
 10
-30.7438
 20
30.9285
 30
0.0
 10
-30.7872
 20
30.9198
 30
0.0
 10
-30.9155
 20
30.994
 30
0.0
 10
-30.9155
 20
30.994
 30
0.0
 10
-31.2962
 20
31.2137
 30
0.0
 10
-31.2303
 20
31.6489
 30
0.0
 10
-31.2303
 20
32.0234
 30
0.0
  0
SPLINE
  5
14C
330
1F
100
AcDbEntity
  8
Ilustrace
 62
   250
370
    30
100
AcDbSpline
210
0.0
220
0.0
230
1.0
 70
    24
 71
     3
 72
     8
 73
     4
 74
     0
 42
0.0000000001
 43
0.0000000001
 40
0.0
 40
0.0
 40
0.0
 40
0.0
 40
1.0
 40
1.0
 40
1.0
 40
1.0
 10
-31.2303
 20
32.0234
 30
0.0
 10
-31.2303
 20
32.0234
 30
0.0
 10
-31.2303
 20
33.9121
 30
0.0
 10
-31.2303
 20
33.9121
 30
0.0
  0
SPLINE
  5
14D
330
1F
100
AcDbEntity
  8
Ilustrace
 62
   250
370
    30
100
AcDbSpline
210
0.0
220
0.0
230
1.0
 70
     8
 71
     3
 72
    16
 73
    12
 74
     0
 42
0.0000000001
 43
0.0000000001
 40
0.0
 40
0.0
 40
0.0
 40
0.0
 40
0.25
 40
0.25
 40
0.25
 40
0.25
 40
0.5
 40
0.5
 40
0.5
 40
0.5
 40
1.0
 40
1.0
 40
1.0
 40
1.0
 10
-31.2303
 20
33.9121
 30
0.0
 10
-31.2303
 20
34.2801
 30
0.0
 10
-31.2973
 20
34.6935
 30
0.0
 10
-30.945
 20
34.9235
 30
0.0
 10
-30.945
 20
34.9235
 30
0.0
 10
-30.887
 20
34.9615
 30
0.0
 10
-30.8226
 20
34.9896
 30
0.0
 10
-30.7553
 20
35.0067
 30
0.0
 10
-30.7553
 20
35.0067
 30
0.0
 10
-30.5622
 20
35.0557
 30
0.0
 10
-30.2693
 20
35.0259
 30
0.0
 10
-30.1164
 20
35.0259
 30
0.0
  0
SPLINE
  5
14E
330
1F
100
AcDbEntity
  8
Ilustrace
 62
   250
370
    30
100
AcDbSpline
210
0.0
220
0.0
230
1.0
 70
    24
 71
     3
 72
     8
 73
     4
 74
     0
 42
0.0000000001
 43
0.0000000001
 40
0.0
 40
0.0
 40
0.0
 40
0.0
 40
1.0
 40
1.0
 40
1.0
 40
1.0
 10
-30.1164
 20
35.0259
 30
0.0
 10
-30.1164
 20
35.0259
 30
0.0
 10
-8.8563
 20
35.0259
 30
0.0
 10
-8.8563
 20
35.0259
 30
0.0
  0
SPLINE
  5
14F
330
1F
100
AcDbEntity
  8
Ilustrace
 62
   250
370
    30
100
AcDbSpline
210
0.0
220
0.0
230
1.0
 70
     8
 71
     3
 72
    12
 73
     8
 74
     0
 42
0.0000000001
 43
0.0000000001
 40
0.0
 40
0.0
 40
0.0
 40
0.0
 40
0.3333333333333333
 40
0.3333333333333333
 40
0.3333333333333333
 40
0.3333333333333333
 40
1.0
 40
1.0
 40
1.0
 40
1.0
 10
-8.8563
 20
35.0259
 30
0.0
 10
-8.4818
 20
35.0259
 30
0.0
 10
-8.0467
 20
35.0919
 30
0.0
 10
-7.8268
 20
34.7111
 30
0.0
 10
-7.8268
 20
34.7111
 30
0.0
 10
-7.7529
 20
34.5829
 30
0.0
 10
-7.7613
 20
34.5395
 30
0.0
 10
-7.7424
 20
34.3964
 30
0.0
  0
SPLINE
  5
150
330
1F
100
AcDbEntity
  8
Ilustrace
 62
   250
370
    30
100
AcDbSpline
210
0.0
220
0.0
230
1.0
 70
     8
 71
     3
 72
     8
 73
     4
 74
     0
 42
0.0000000001
 43
0.0000000001
 40
0.0
 40
0.0
 40
0.0
 40
0.0
 40
1.0
 40
1.0
 40
1.0
 40
1.0
 10
-31.2879
 20
30.8234
 30
0.0
 10
-31.4917
 20
31.0138
 30
0.0
 10
-31.5833
 20
31.2683
 30
0.0
 10
-31.5935
 20
31.5391
 30
0.0
  0
SPLINE
  5
151
330
1F
100
AcDbEntity
  8
Ilustrace
 62
   250
370
    30
100
AcDbSpline
210
0.0
220
0.0
230
1.0
 70
    24
 71
     3
 72
     8
 73
     4
 74
     0
 42
0.0000000001
 43
0.0000000001
 40
0.0
 40
0.0
 40
0.0
 40
0.0
 40
1.0
 40
1.0
 40
1.0
 40
1.0
 10
-30.8523
 20
30.5796
 30
0.0
 10
-30.8523
 20
30.5796
 30
0.0
 10
-31.0971
 20
30.6794
 30
0.0
 10
-31.0971
 20
30.6794
 30
0.0
  0
SPLINE
  5
152
330
1F
100
AcDbEntity
  8
Ilustrace
 62
   250
370
    30
100
AcDbSpline
210
0.0
220
0.0
230
1.0
 70
     8
 71
     3
 72
     8
 73
     4
 74
     0
 42
0.0000000001
 43
0.0000000001
 40
0.0
 40
0.0
 40
0.0
 40
0.0
 40
1.0
 40
1.0
 40
1.0
 40
1.0
 10
-31.0971
 20
30.6794
 30
0.0
 10
-31.2374
 20
30.7438
 30
0.0
 10
-31.396
 20
30.9024
 30
0.0
 10
-31.4605
 20
31.0428
 30
0.0
  0
SPLINE
  5
153
330
1F
100
AcDbEntity
  8
Ilustrace
 62
   250
370
    30
100
AcDbSpline
210
0.0
220
0.0
230
1.0
 70
    24
 71
     3
 72
     8
 73
     4
 74
     0
 42
0.0000000001
 43
0.0000000001
 40
0.0
 40
0.0
 40
0.0
 40
0.0
 40
1.0
 40
1.0
 40
1.0
 40
1.0
 10
-31.4605
 20
31.0428
 30
0.0
 10
-31.4605
 20
31.0428
 30
0.0
 10
-31.5603
 20
31.2876
 30
0.0
 10
-31.5603
 20
31.2876
 30
0.0
  0
SPLINE
  5
154
330
1F
100
AcDbEntity
  8
Ilustrace
 62
   250
370
    30
100
AcDbSpline
210
0.0
220
0.0
230
1.0
 70
    24
 71
     3
 72
    12
 73
     8
 74
     0
 42
0.0000000001
 43
0.0000000001
 40
0.0
 40
0.0
 40
0.0
 40
0.0
 40
0.3333333333333333
 40
0.3333333333333333
 40
0.3333333333333333
 40
0.3333333333333333
 40
1.0
 40
1.0
 40
1.0
 40
1.0
 10
-28.2035
 20
30.5464
 30
0.0
 10
-28.2035
 20
30.5464
 30
0.0
 10
-28.6878
 20
30.5464
 30
0.0
 10
-28.6878
 20
30.5464
 30
0.0
 10
-28.6878
 20
30.5464
 30
0.0
 10
-28.6878
 20
30.5464
 30
0.0
 10
-30.1164
 20
30.5464
 30
0.0
 10
-30.1164
 20
30.5464
 30
0.0
  0
SPLINE
  5
155
330
1F
100
AcDbEntity
  8
Ilustrace
 62
   250
370
    30
100
AcDbSpline
210
0.0
220
0.0
230
1.0
 70
     8
 71
     3
 72
     8
 73
     4
 74
     0
 42
0.0000000001
 43
0.0000000001
 40
0.0
 40
0.0
 40
0.0
 40
0.0
 40
1.0
 40
1.0
 40
1.0
 40
1.0
 10
-30.1164
 20
30.5464
 30
0.0
 10
-30.4007
 20
30.5464
 30
0.0
 10
-30.8322
 20
30.4915
 30
0.0
 10
-31.0971
 20
30.6794
 30
0.0
  0
SPLINE
  5
156
330
1F
100
AcDbEntity
  8
Ilustrace
 62
   250
370
    30
100
AcDbSpline
210
0.0
220
0.0
230
1.0
 70
    24
 71
     3
 72
     8
 73
     4
 74
     0
 42
0.0000000001
 43
0.0000000001
 40
0.0
 40
0.0
 40
0.0
 40
0.0
 40
1.0
 40
1.0
 40
1.0
 40
1.0
 10
-31.0971
 20
30.6794
 30
0.0
 10
-31.0971
 20
30.6794
 30
0.0
 10
-31.306
 20
30.8414
 30
0.0
 10
-31.306
 20
30.8414
 30
0.0
  0
SPLINE
  5
157
330
1F
100
AcDbEntity
  8
Ilustrace
 62
   250
370
    30
100
AcDbSpline
210
0.0
220
0.0
230
1.0
 70
    24
 71
     3
 72
    12
 73
     8
 74
     0
 42
0.0000000001
 43
0.0000000001
 40
0.0
 40
0.0
 40
0.0
 40
0.0
 40
0.3333333333333333
 40
0.3333333333333333
 40
0.3333333333333333
 40
0.3333333333333333
 40
1.0
 40
1.0
 40
1.0
 40
1.0
 10
-28.3472
 20
30.9096
 30
0.0
 10
-28.3472
 20
30.9096
 30
0.0
 10
-28.8315
 20
30.9096
 30
0.0
 10
-28.8315
 20
30.9096
 30
0.0
 10
-28.8315
 20
30.9096
 30
0.0
 10
-28.8315
 20
30.9096
 30
0.0
 10
-30.1164
 20
30.9096
 30
0.0
 10
-30.1164
 20
30.9096
 30
0.0
  0
SPLINE
  5
158
330
1F
100
AcDbEntity
  8
Ilustrace
 62
   250
370
    30
100
AcDbSpline
210
0.0
220
0.0
230
1.0
 70
     8
 71
     3
 72
    16
 73
    12
 74
     0
 42
0.0000000001
 43
0.0000000001
 40
0.0
 40
0.0
 40
0.0
 40
0.0
 40
0.25
 40
0.25
 40
0.25
 40
0.25
 40
0.5
 40
0.5
 40
0.5
 40
0.5
 40
1.0
 40
1.0
 40
1.0
 40
1.0
 10
-30.1164
 20
30.9096
 30
0.0
 10
-30.4666
 20
30.9096
 30
0.0
 10
-30.8563
 20
30.8427
 30
0.0
 10
-31.0975
 20
31.1524
 30
0.0
 10
-31.0975
 20
31.1524
 30
0.0
 10
-31.1401
 20
31.2072
 30
0.0
 10
-31.1737
 20
31.2692
 30
0.0
 10
-31.1962
 20
31.3347
 30
0.0
 10
-31.1962
 20
31.3347
 30
0.0
 10
-31.2192
 20
31.4017
 30
0.0
 10
-31.2274
 20
31.4689
 30
0.0
 10
-31.2303
 20
31.5391
 30
0.0
  0
SPLINE
  5
159
330
1F
100
AcDbEntity
  8
Ilustrace
 62
   250
370
    30
100
AcDbSpline
210
0.0
220
0.0
230
1.0
 70
    24
 71
     3
 72
     8
 73
     4
 74
     0
 42
0.0000000001
 43
0.0000000001
 40
0.0
 40
0.0
 40
0.0
 40
0.0
 40
1.0
 40
1.0
 40
1.0
 40
1.0
 10
-25.8845
 20
32.3859
 30
0.0
 10
-25.8845
 20
32.3859
 30
0.0
 10
-25.9594
 20
32.4835
 30
0.0
 10
-25.9594
 20
32.4835
 30
0.0
  0
SPLINE
  5
15A
330
1F
100
AcDbEntity
  8
Ilustrace
 62
   250
370
    30
100
AcDbSpline
210
0.0
220
0.0
230
1.0
 70
     8
 71
     3
 72
     8
 73
     4
 74
     0
 42
0.0000000001
 43
0.0000000001
 40
0.0
 40
0.0
 40
0.0
 40
0.0
 40
1.0
 40
1.0
 40
1.0
 40
1.0
 10
-25.9594
 20
32.4835
 30
0.0
 10
-26.0527
 20
32.6468
 30
0.0
 10
-26.0279
 20
32.8011
 30
0.0
 10
-25.9604
 20
32.9654
 30
0.0
  0
SPLINE
  5
15B
330
1F
100
AcDbEntity
  8
Ilustrace
 62
   250
370
    30
100
AcDbSpline
210
0.0
220
0.0
230
1.0
 70
     8
 71
     3
 72
    16
 73
    12
 74
     0
 42
0.0000000001
 43
0.0000000001
 40
0.0
 40
0.0
 40
0.0
 40
0.0
 40
0.25
 40
0.25
 40
0.25
 40
0.25
 40
0.5
 40
0.5
 40
0.5
 40
0.5
 40
1.0
 40
1.0
 40
1.0
 40
1.0
 10
-25.9604
 20
32.4859
 30
0.0
 10
-26.0119
 20
32.6116
 30
0.0
 10
-26.0113
 20
32.5819
 30
0.0
 10
-26.0223
 20
32.7109
 30
0.0
 10
-26.0223
 20
32.7109
 30
0.0
 10
-26.0404
 20
32.9218
 30
0.0
 10
-25.8854
 20
33.1226
 30
0.0
 10
-25.6897
 20
33.1863
 30
0.0
 10
-25.6897
 20
33.1863
 30
0.0
 10
-25.6149
 20
33.2105
 30
0.0
 10
-25.5574
 20
33.2055
 30
0.0
 10
-25.4749
 20
33.2055
 30
0.0
  0
SPLINE
  5
15C
330
1F
100
AcDbEntity
  8
Ilustrace
 62
   250
370
    30
100
AcDbSpline
210
0.0
220
0.0
230
1.0
 70
     8
 71
     3
 72
    20
 73
    16
 74
     0
 42
0.0000000001
 43
0.0000000001
 40
0.0
 40
0.0
 40
0.0
 40
0.0
 40
0.2
 40
0.2
 40
0.2
 40
0.2
 40
0.4
 40
0.4
 40
0.4
 40
0.4
 40
0.6
 40
0.6
 40
0.6
 40
0.6
 40
1.0
 40
1.0
 40
1.0
 40
1.0
 10
-25.1954
 20
32.3859
 30
0.0
 10
-25.1275
 20
32.4745
 30
0.0
 10
-25.102
 20
32.49
 30
0.0
 10
-25.072
 20
32.6018
 30
0.0
 10
-25.072
 20
32.6018
 30
0.0
 10
-25.0165
 20
32.809
 30
0.0
 10
-25.1114
 20
33.0377
 30
0.0
 10
-25.2977
 20
33.1451
 30
0.0
 10
-25.2977
 20
33.1451
 30
0.0
 10
-25.3969
 20
33.2022
 30
0.0
 10
-25.4294
 20
33.1954
 30
0.0
 10
-25.54
 20
33.2099
 30
0.0
 10
-25.54
 20
33.2099
 30
0.0
 10
-25.6856
 20
33.1908
 30
0.0
 10
-25.7641
 20
33.1589
 30
0.0
 10
-25.8805
 20
33.0696
 30
0.0
  0
SPLINE
  5
15D
330
1F
100
AcDbEntity
  8
Ilustrace
 62
   250
370
    30
100
AcDbSpline
210
0.0
220
0.0
230
1.0
 70
     8
 71
     3
 72
    24
 73
    20
 74
     0
 42
0.0000000001
 43
0.0000000001
 40
0.0
 40
0.0
 40
0.0
 40
0.0
 40
0.1666666666666667
 40
0.1666666666666667
 40
0.1666666666666667
 40
0.1666666666666667
 40
0.3333333333333333
 40
0.3333333333333333
 40
0.3333333333333333
 40
0.3333333333333333
 40
0.5
 40
0.5
 40
0.5
 40
0.5
 40
0.6666666666666666
 40
0.6666666666666666
 40
0.6666666666666666
 40
0.6666666666666666
 40
1.0
 40
1.0
 40
1.0
 40
1.0
 10
-26.0223
 20
32.7109
 30
0.0
 10
-26.0223
 20
32.6575
 30
0.0
 10
-26.0121
 20
32.6056
 30
0.0
 10
-25.9934
 20
32.5555
 30
0.0
 10
-25.9934
 20
32.5555
 30
0.0
 10
-25.8254
 20
32.1079
 30
0.0
 10
-25.1489
 20
32.1687
 30
0.0
 10
-25.0634
 20
32.6393
 30
0.0
 10
-25.0634
 20
32.6393
 30
0.0
 10
-25.0504
 20
32.7105
 30
0.0
 10
-25.0538
 20
32.7847
 30
0.0
 10
-25.0731
 20
32.8545
 30
0.0
 10
-25.0731
 20
32.8545
 30
0.0
 10
-25.0962
 20
32.9385
 30
0.0
 10
-25.1423
 20
33.0155
 30
0.0
 10
-25.2053
 20
33.0757
 30
0.0
 10
-25.2053
 20
33.0757
 30
0.0
 10
-25.27
 20
33.1376
 30
0.0
 10
-25.3468
 20
33.1743
 30
0.0
 10
-25.4322
 20
33.1978
 30
0.0
  0
SPLINE
  5
15E
330
1F
100
AcDbEntity
  8
Ilustrace
 62
   250
370
    30
100
AcDbSpline
210
0.0
220
0.0
230
1.0
 70
     8
 71
     3
 72
     8
 73
     4
 74
     0
 42
0.0000000001
 43
0.0000000001
 40
0.0
 40
0.0
 40
0.0
 40
0.0
 40
1.0
 40
1.0
 40
1.0
 40
1.0
 10
-2.5364
 20
30.9886
 30
0.0
 10
-2.3794
 20
30.827
 30
0.0
 10
-2.2195
 20
30.6553
 30
0.0
 10
-1.9991
 20
30.5803
 30
0.0
  0
SPLINE
  5
15F
330
1F
100
AcDbEntity
  8
Ilustrace
 62
   250
370
    30
100
AcDbSpline
210
0.0
220
0.0
230
1.0
 70
    24
 71
     3
 72
     8
 73
     4
 74
     0
 42
0.0000000001
 43
0.0000000001
 40
0.0
 40
0.0
 40
0.0
 40
0.0
 40
1.0
 40
1.0
 40
1.0
 40
1.0
 10
-1.9991
 20
30.5803
 30
0.0
 10
-1.9991
 20
30.5803
 30
0.0
 10
-1.804
 20
30.5464
 30
0.0
 10
-1.804
 20
30.5464
 30
0.0
  0
SPLINE
  5
160
330
1F
100
AcDbEntity
  8
Ilustrace
 62
   250
370
    30
100
AcDbSpline
210
0.0
220
0.0
230
1.0
 70
     8
 71
     3
 72
    16
 73
    12
 74
     0
 42
0.0000000001
 43
0.0000000001
 40
0.0
 40
0.0
 40
0.0
 40
0.0
 40
0.25
 40
0.25
 40
0.25
 40
0.25
 40
0.5
 40
0.5
 40
0.5
 40
0.5
 40
1.0
 40
1.0
 40
1.0
 40
1.0
 10
-31.2303
 20
34.3964
 30
0.0
 10
-31.2303
 20
34.3964
 30
0.0
 10
-31.1253
 20
34.6534
 30
0.0
 10
-31.1253
 20
34.6534
 30
0.0
 10
-31.1253
 20
34.6534
 30
0.0
 10
-31.1253
 20
34.6534
 30
0.0
 10
-31.0414
 20
34.845
 30
0.0
 10
-31.0414
 20
34.845
 30
0.0
 10
-31.0414
 20
34.845
 30
0.0
 10
-31.0414
 20
34.845
 30
0.0
 10
-30.9187
 20
34.9391
 30
0.0
 10
-30.9187
 20
34.9391
 30
0.0
  0
SPLINE
  5
161
330
1F
100
AcDbEntity
  8
Ilustrace
 62
   250
370
    30
100
AcDbSpline
210
0.0
220
0.0
230
1.0
 70
    24
 71
     3
 72
     8
 73
     4
 74
     0
 42
0.0000000001
 43
0.0000000001
 40
0.0
 40
0.0
 40
0.0
 40
0.0
 40
1.0
 40
1.0
 40
1.0
 40
1.0
 10
-30.6008
 20
35.0259
 30
0.0
 10
-30.6008
 20
35.0259
 30
0.0
 10
-30.7057
 20
35.0044
 30
0.0
 10
-30.7057
 20
35.0044
 30
0.0
  0
SPLINE
  5
162
330
1F
100
AcDbEntity
  8
Ilustrace
 62
   250
370
    30
100
AcDbSpline
210
0.0
220
0.0
230
1.0
 70
     8
 71
     3
 72
     8
 73
     4
 74
     0
 42
0.0000000001
 43
0.0000000001
 40
0.0
 40
0.0
 40
0.0
 40
0.0
 40
1.0
 40
1.0
 40
1.0
 40
1.0
 10
-30.7057
 20
35.0044
 30
0.0
 10
-30.9478
 20
34.9072
 30
0.0
 10
-31.0984
 20
34.6013
 30
0.0
 10
-31.2303
 20
34.3964
 30
0.0
  0
SPLINE
  5
163
330
1F
100
AcDbEntity
  8
Ilustrace
 62
   250
370
    30
100
AcDbSpline
210
0.0
220
0.0
230
1.0
 70
     8
 71
     3
 72
     8
 73
     4
 74
     0
 42
0.0000000001
 43
0.0000000001
 40
0.0
 40
0.0
 40
0.0
 40
0.0
 40
1.0
 40
1.0
 40
1.0
 40
1.0
 10
-30.6957
 20
31.1252
 30
0.0
 10
-30.8852
 20
31.2495
 30
0.0
 10
-31.056
 20
31.3943
 30
0.0
 10
-31.2303
 20
31.5391
 30
0.0
  0
SPLINE
  5
164
330
1F
100
AcDbEntity
  8
Ilustrace
 62
   250
370
    30
100
AcDbSpline
210
0.0
220
0.0
230
1.0
 70
     8
 71
     3
 72
    12
 73
     8
 74
     0
 42
0.0000000001
 43
0.0000000001
 40
0.0
 40
0.0
 40
0.0
 40
0.0
 40
0.3333333333333333
 40
0.3333333333333333
 40
0.3333333333333333
 40
0.3333333333333333
 40
1.0
 40
1.0
 40
1.0
 40
1.0
 10
-30.0597
 20
30.9096
 30
0.0
 10
-30.2396
 20
30.9294
 30
0.0
 10
-30.2264
 20
30.9171
 30
0.0
 10
-30.3718
 20
30.964
 30
0.0
 10
-30.3718
 20
30.964
 30
0.0
 10
-30.6221
 20
31.0447
 30
0.0
 10
-30.8314
 20
31.2177
 30
0.0
 10
-31.0352
 20
31.3763
 30
0.0
  0
SPLINE
  5
165
330
1F
100
AcDbEntity
  8
Ilustrace
 62
   250
370
    30
100
AcDbSpline
210
0.0
220
0.0
230
1.0
 70
     8
 71
     3
 72
    12
 73
     8
 74
     0
 42
0.0000000001
 43
0.0000000001
 40
0.0
 40
0.0
 40
0.0
 40
0.0
 40
0.3333333333333333
 40
0.3333333333333333
 40
0.3333333333333333
 40
0.3333333333333333
 40
1.0
 40
1.0
 40
1.0
 40
1.0
 10
-6.2029
 20
34.3964
 30
0.0
 10
-6.6254
 20
34.7177
 30
0.0
 10
-7.0522
 20
35.0652
 30
0.0
 10
-7.5545
 20
35.2562
 30
0.0
 10
-7.5545
 20
35.2562
 30
0.0
 10
-7.8627
 20
35.3734
 30
0.0
 10
-7.9089
 20
35.3569
 30
0.0
 10
-8.2303
 20
35.3892
 30
0.0
  0
SPLINE
  5
166
330
1F
100
AcDbEntity
  8
Ilustrace
 62
   250
370
    30
100
AcDbSpline
210
0.0
220
0.0
230
1.0
 70
     8
 71
     3
 72
    24
 73
    20
 74
     0
 42
0.0000000001
 43
0.0000000001
 40
0.0
 40
0.0
 40
0.0
 40
0.0
 40
0.1666666666666667
 40
0.1666666666666667
 40
0.1666666666666667
 40
0.1666666666666667
 40
0.3333333333333333
 40
0.3333333333333333
 40
0.3333333333333333
 40
0.3333333333333333
 40
0.5
 40
0.5
 40
0.5
 40
0.5
 40
0.6666666666666666
 40
0.6666666666666666
 40
0.6666666666666666
 40
0.6666666666666666
 40
1.0
 40
1.0
 40
1.0
 40
1.0
 10
3.1726
 20
33.0653
 30
0.0
 10
3.0812
 20
32.9464
 30
0.0
 10
3.0258
 20
32.8363
 30
0.0
 10
3.0348
 20
32.6822
 30
0.0
 10
3.0348
 20
32.6822
 30
0.0
 10
3.0546
 20
32.3387
 30
0.0
 10
3.4533
 20
32.1412
 30
0.0
 10
3.7466
 20
32.2993
 30
0.0
 10
3.7466
 20
32.2993
 30
0.0
 10
4.031
 20
32.4523
 30
0.0
 10
4.0855
 20
32.8522
 30
0.0
 10
3.8519
 20
33.0757
 30
0.0
 10
3.8519
 20
33.0757
 30
0.0
 10
3.7538
 20
33.1693
 30
0.0
 10
3.6287
 20
33.2094
 30
0.0
 10
3.4954
 20
33.2094
 30
0.0
 10
3.4954
 20
33.2094
 30
0.0
 10
3.25
 20
33.1874
 30
0.0
 10
3.0348
 20
32.9985
 30
0.0
 10
3.0348
 20
32.7405
 30
0.0
  0
SPLINE
  5
167
330
1F
100
AcDbEntity
  8
Ilustrace
 62
   250
370
    30
100
AcDbSpline
210
0.0
220
0.0
230
1.0
 70
     8
 71
     3
 72
    40
 73
    36
 74
     0
 42
0.0000000001
 43
0.0000000001
 40
0.0
 40
0.0
 40
0.0
 40
0.0
 40
0.1
 40
0.1
 40
0.1
 40
0.1
 40
0.2
 40
0.2
 40
0.2
 40
0.2
 40
0.3
 40
0.3
 40
0.3
 40
0.3
 40
0.4
 40
0.4
 40
0.4
 40
0.4
 40
0.5
 40
0.5
 40
0.5
 40
0.5
 40
0.6
 40
0.6
 40
0.6
 40
0.6
 40
0.7
 40
0.7
 40
0.7
 40
0.7
 40
0.8
 40
0.8
 40
0.8
 40
0.8
 40
1.0
 40
1.0
 40
1.0
 40
1.0
 10
23.2329
 20
32.3859
 30
0.0
 10
23.3212
 20
32.5009
 30
0.0
 10
23.3053
 20
32.4627
 30
0.0
 10
23.3564
 20
32.6018
 30
0.0
 10
23.3564
 20
32.6018
 30
0.0
 10
23.4378
 20
32.8241
 30
0.0
 10
23.2819
 20
33.084
 30
0.0
 10
23.0788
 20
33.1709
 30
0.0
 10
23.0788
 20
33.1709
 30
0.0
 10
22.9916
 20
33.2082
 30
0.0
 10
22.9197
 20
33.2055
 30
0.0
 10
22.8233
 20
33.2055
 30
0.0
 10
22.8233
 20
33.2055
 30
0.0
 10
22.7069
 20
33.1843
 30
0.0
 10
22.6026
 20
33.1348
 30
0.0
 10
22.5236
 20
33.0443
 30
0.0
 10
22.5236
 20
33.0443
 30
0.0
 10
22.3336
 20
32.8268
 30
0.0
 10
22.381
 20
32.4804
 30
0.0
 10
22.6215
 20
32.3216
 30
0.0
 10
22.6215
 20
32.3216
 30
0.0
 10
22.725
 20
32.2532
 30
0.0
 10
22.8306
 20
32.2403
 30
0.0
 10
22.9534
 20
32.2458
 30
0.0
 10
22.9534
 20
32.2458
 30
0.0
 10
23.2414
 20
32.2586
 30
0.0
 10
23.4256
 20
32.5912
 30
0.0
 10
23.3564
 20
32.8495
 30
0.0
 10
23.3564
 20
32.8495
 30
0.0
 10
23.2944
 20
33.0805
 30
0.0
 10
23.1086
 20
33.1809
 30
0.0
 10
22.8884
 20
33.2099
 30
0.0
 10
22.8884
 20
33.2099
 30
0.0
 10
22.7427
 20
33.1908
 30
0.0
 10
22.6642
 20
33.1589
 30
0.0
 10
22.5479
 20
33.0696
 30
0.0
  0
SPLINE
  5
168
330
1F
100
AcDbEntity
  8
Ilustrace
 62
   250
370
    15
100
AcDbSpline
210
0.0
220
0.0
230
1.0
 70
    24
 71
     3
 72
     8
 73
     4
 74
     0
 42
0.0000000001
 43
0.0000000001
 40
0.0
 40
0.0
 40
0.0
 40
0.0
 40
1.0
 40
1.0
 40
1.0
 40
1.0
 10
33.7543
 20
35.456
 30
0.0
 10
33.7543
 20
35.456
 30
0.0
 10
29.0691
 20
35.456
 30
0.0
 10
29.0691
 20
35.456
 30
0.0
  0
SPLINE
  5
169
330
1F
100
AcDbEntity
  8
Ilustrace
 62
   250
370
    15
100
AcDbSpline
210
0.0
220
0.0
230
1.0
 70
    24
 71
     3
 72
     8
 73
     4
 74
     0
 42
0.0000000001
 43
0.0000000001
 40
0.0
 40
0.0
 40
0.0
 40
0.0
 40
1.0
 40
1.0
 40
1.0
 40
1.0
 10
33.6882
 20
30.584
 30
0.0
 10
33.6882
 20
30.584
 30
0.0
 10
28.9697
 20
30.584
 30
0.0
 10
28.9697
 20
30.584
 30
0.0
  0
SPLINE
  5
16A
330
1F
100
AcDbEntity
  8
Ilustrace
 62
   250
370
    15
100
AcDbSpline
210
0.0
220
0.0
230
1.0
 70
    24
 71
     3
 72
     8
 73
     4
 74
     0
 42
0.0000000001
 43
0.0000000001
 40
0.0
 40
0.0
 40
0.0
 40
0.0
 40
1.0
 40
1.0
 40
1.0
 40
1.0
 10
37.2111
 20
-1.4904
 30
0.0
 10
37.2111
 20
-1.4904
 30
0.0
 10
29.2681
 20
-1.4904
 30
0.0
 10
29.2681
 20
-1.4904
 30
0.0
  0
SPLINE
  5
16B
330
1F
100
AcDbEntity
  8
Ilustrace
 62
   250
100
AcDbSpline
210
0.0
220
0.0
230
1.0
 70
    11
 71
     3
 72
   124
 73
   120
 74
     0
 42
0.0000000001
 43
0.0000000001
 40
0.0
 40
0.0
 40
0.0
 40
0.0
 40
0.032258064516129
 40
0.032258064516129
 40
0.032258064516129
 40
0.032258064516129
 40
0.0645161290322581
 40
0.0645161290322581
 40
0.0645161290322581
 40
0.0645161290322581
 40
0.0967741935483871
 40
0.0967741935483871
 40
0.0967741935483871
 40
0.0967741935483871
 40
0.1290322580645161
 40
0.1290322580645161
 40
0.1290322580645161
 40
0.1290322580645161
 40
0.1612903225806452
 40
0.1612903225806452
 40
0.1612903225806452
 40
0.1612903225806452
 40
0.1935483870967742
 40
0.1935483870967742
 40
0.1935483870967742
 40
0.1935483870967742
 40
0.2258064516129032
 40
0.2258064516129032
 40
0.2258064516129032
 40
0.2258064516129032
 40
0.2580645161290323
 40
0.2580645161290323
 40
0.2580645161290323
 40
0.2580645161290323
 40
0.2903225806451613
 40
0.2903225806451613
 40
0.2903225806451613
 40
0.2903225806451613
 40
0.3225806451612903
 40
0.3225806451612903
 40
0.3225806451612903
 40
0.3225806451612903
 40
0.3548387096774194
 40
0.3548387096774194
 40
0.3548387096774194
 40
0.3548387096774194
 40
0.3870967741935484
 40
0.3870967741935484
 40
0.3870967741935484
 40
0.3870967741935484
 40
0.4193548387096774
 40
0.4193548387096774
 40
0.4193548387096774
 40
0.4193548387096774
 40
0.4516129032258064
 40
0.4516129032258064
 40
0.4516129032258064
 40
0.4516129032258064
 40
0.4838709677419355
 40
0.4838709677419355
 40
0.4838709677419355
 40
0.4838709677419355
 40
0.5161290322580645
 40
0.5161290322580645
 40
0.5161290322580645
 40
0.5161290322580645
 40
0.5483870967741935
 40
0.5483870967741935
 40
0.5483870967741935
 40
0.5483870967741935
 40
0.5806451612903226
 40
0.5806451612903226
 40
0.5806451612903226
 40
0.5806451612903226
 40
0.6129032258064516
 40
0.6129032258064516
 40
0.6129032258064516
 40
0.6129032258064516
 40
0.6451612903225806
 40
0.6451612903225806
 40
0.6451612903225806
 40
0.6451612903225806
 40
0.6774193548387096
 40
0.6774193548387096
 40
0.6774193548387096
 40
0.6774193548387096
 40
0.7096774193548387
 40
0.7096774193548387
 40
0.7096774193548387
 40
0.7096774193548387
 40
0.7419354838709677
 40
0.7419354838709677
 40
0.7419354838709677
 40
0.7419354838709677
 40
0.7741935483870968
 40
0.7741935483870968
 40
0.7741935483870968
 40
0.7741935483870968
 40
0.8064516129032258
 40
0.8064516129032258
 40
0.8064516129032258
 40
0.8064516129032258
 40
0.8387096774193549
 40
0.8387096774193549
 40
0.8387096774193549
 40
0.8387096774193549
 40
0.8709677419354839
 40
0.8709677419354839
 40
0.8709677419354839
 40
0.8709677419354839
 40
0.9032258064516129
 40
0.9032258064516129
 40
0.9032258064516129
 40
0.9032258064516129
 40
0.9354838709677419
 40
0.9354838709677419
 40
0.9354838709677419
 40
0.9354838709677419
 40
1.0
 40
1.0
 40
1.0
 40
1.0
 10
32.7933
 20
33.0212
 30
0.0
 10
32.7933
 20
33.0212
 30
0.0
 10
32.5101
 20
33.0212
 30
0.0
 10
32.5101
 20
33.0212
 30
0.0
 10
32.5101
 20
33.0212
 30
0.0
 10
32.5101
 20
33.0212
 30
0.0
 10
32.5101
 20
32.1177
 30
0.0
 10
32.5101
 20
32.1177
 30
0.0
 10
32.5101
 20
32.1177
 30
0.0
 10
32.5101
 20
32.1177
 30
0.0
 10
32.5022
 20
32.1177
 30
0.0
 10
32.5022
 20
32.1177
 30
0.0
 10
32.5022
 20
32.1177
 30
0.0
 10
32.5022
 20
32.1177
 30
0.0
 10
32.3161
 20
32.2761
 30
0.0
 10
32.3161
 20
32.2761
 30
0.0
 10
32.3161
 20
32.2761
 30
0.0
 10
32.1886
 20
32.3827
 30
0.0
 10
32.0677
 20
32.4789
 30
0.0
 10
31.9538
 20
32.5642
 30
0.0
 10
31.9538
 20
32.5642
 30
0.0
 10
31.8401
 20
32.6496
 30
0.0
 10
31.7289
 20
32.7226
 30
0.0
 10
31.6215
 20
32.7832
 30
0.0
 10
31.6215
 20
32.7832
 30
0.0
 10
31.514
 20
32.8441
 30
0.0
 10
31.4061
 20
32.8902
 30
0.0
 10
31.2974
 20
32.9228
 30
0.0
 10
31.2974
 20
32.9228
 30
0.0
 10
31.1894
 20
32.9549
 30
0.0
 10
31.0775
 20
32.971
 30
0.0
 10
30.9619
 20
32.9714
 30
0.0
 10
30.9619
 20
32.9714
 30
0.0
 10
30.8706
 20
32.9714
 30
0.0
 10
30.7814
 20
32.9601
 30
0.0
 10
30.6948
 20
32.9363
 30
0.0
 10
30.6948
 20
32.9363
 30
0.0
 10
30.608
 20
32.9124
 30
0.0
 10
30.5298
 20
32.8753
 30
0.0
 10
30.4601
 20
32.8255
 30
0.0
 10
30.4601
 20
32.8255
 30
0.0
 10
30.3894
 20
32.7759
 30
0.0
 10
30.3338
 20
32.7117
 30
0.0
 10
30.2925
 20
32.6337
 30
0.0
 10
30.2925
 20
32.6337
 30
0.0
 10
30.2504
 20
32.5555
 30
0.0
 10
30.2291
 20
32.4624
 30
0.0
 10
30.2285
 20
32.3538
 30
0.0
 10
30.2285
 20
32.3538
 30
0.0
 10
30.2291
 20
32.2771
 30
0.0
 10
30.2402
 20
32.2043
 30
0.0
 10
30.2628
 20
32.1348
 30
0.0
 10
30.2628
 20
32.1348
 30
0.0
 10
30.2854
 20
32.0655
 30
0.0
 10
30.3157
 20
32.0014
 30
0.0
 10
30.3546
 20
31.9424
 30
0.0
 10
30.3546
 20
31.9424
 30
0.0
 10
30.3928
 20
31.884
 30
0.0
 10
30.436
 20
31.8317
 30
0.0
 10
30.4846
 20
31.7856
 30
0.0
 10
30.4846
 20
31.7856
 30
0.0
 10
30.4846
 20
31.7856
 30
0.0
 10
30.7251
 20
31.8725
 30
0.0
 10
30.7251
 20
31.8725
 30
0.0
 10
30.7251
 20
31.8725
 30
0.0
 10
30.6921
 20
31.9037
 30
0.0
 10
30.6591
 20
31.9408
 30
0.0
 10
30.6268
 20
31.9843
 30
0.0
 10
30.6268
 20
31.9843
 30
0.0
 10
30.5938
 20
32.0278
 30
0.0
 10
30.5673
 20
32.0758
 30
0.0
 10
30.5454
 20
32.1292
 30
0.0
 10
30.5454
 20
32.1292
 30
0.0
 10
30.5241
 20
32.1824
 30
0.0
 10
30.5124
 20
32.2398
 30
0.0
 10
30.5117
 20
32.301
 30
0.0
 10
30.5117
 20
32.301
 30
0.0
 10
30.5124
 20
32.376
 30
0.0
 10
30.5259
 20
32.4391
 30
0.0
 10
30.5524
 20
32.4903
 30
0.0
 10
30.5524
 20
32.4903
 30
0.0
 10
30.5797
 20
32.541
 30
0.0
 10
30.6159
 20
32.5819
 30
0.0
 10
30.6618
 20
32.6124
 30
0.0
 10
30.6618
 20
32.6124
 30
0.0
 10
30.7083
 20
32.643
 30
0.0
 10
30.7606
 20
32.6652
 30
0.0
 10
30.8195
 20
32.6786
 30
0.0
 10
30.8195
 20
32.6786
 30
0.0
 10
30.8785
 20
32.6921
 30
0.0
 10
30.9398
 20
32.6988
 30
0.0
 10
31.0045
 20
32.6982
 30
0.0
 10
31.0045
 20
32.6982
 30
0.0
 10
31.0989
 20
32.6982
 30
0.0
 10
31.1921
 20
32.6833
 30
0.0
 10
31.2845
 20
32.6533
 30
0.0
 10
31.2845
 20
32.6533
 30
0.0
 10
31.3776
 20
32.6233
 30
0.0
 10
31.4746
 20
32.5777
 30
0.0
 10
31.5768
 20
32.5162
 30
0.0
 10
31.5768
 20
32.5162
 30
0.0
 10
31.679
 20
32.4546
 30
0.0
 10
31.791
 20
32.3764
 30
0.0
 10
31.9125
 20
32.2819
 30
0.0
 10
31.9125
 20
32.2819
 30
0.0
 10
32.0341
 20
32.1876
 30
0.0
 10
32.1712
 20
32.0758
 30
0.0
 10
32.3238
 20
31.9472
 30
0.0
 10
32.3238
 20
31.9472
 30
0.0
 10
32.3238
 20
31.9472
 30
0.0
 10
32.5838
 20
31.7329
 30
0.0
 10
32.5838
 20
31.7329
 30
0.0
 10
32.5838
 20
31.7329
 30
0.0
 10
32.5838
 20
31.7329
 30
0.0
 10
32.7933
 20
31.7329
 30
0.0
 10
32.7933
 20
31.7329
 30
0.0
 10
32.7933
 20
31.7329
 30
0.0
 10
32.7933
 20
31.7329
 30
0.0
 10
32.7933
 20
33.0212
 30
0.0
 10
32.7933
 20
33.0212
 30
0.0
  0
SPLINE
  5
16C
330
1F
100
AcDbEntity
  8
Ilustrace
 62
   250
100
AcDbSpline
210
0.0
220
0.0
230
1.0
 70
    11
 71
     3
 72
    56
 73
    52
 74
     0
 42
0.0000000001
 43
0.0000000001
 40
0.0
 40
0.0
 40
0.0
 40
0.0
 40
0.0714285714285714
 40
0.0714285714285714
 40
0.0714285714285714
 40
0.0714285714285714
 40
0.1428571428571428
 40
0.1428571428571428
 40
0.1428571428571428
 40
0.1428571428571428
 40
0.2142857142857143
 40
0.2142857142857143
 40
0.2142857142857143
 40
0.2142857142857143
 40
0.2857142857142857
 40
0.2857142857142857
 40
0.2857142857142857
 40
0.2857142857142857
 40
0.3571428571428572
 40
0.3571428571428572
 40
0.3571428571428572
 40
0.3571428571428572
 40
0.4285714285714285
 40
0.4285714285714285
 40
0.4285714285714285
 40
0.4285714285714285
 40
0.5
 40
0.5
 40
0.5
 40
0.5
 40
0.5714285714285714
 40
0.5714285714285714
 40
0.5714285714285714
 40
0.5714285714285714
 40
0.6428571428571429
 40
0.6428571428571429
 40
0.6428571428571429
 40
0.6428571428571429
 40
0.7142857142857143
 40
0.7142857142857143
 40
0.7142857142857143
 40
0.7142857142857143
 40
0.7857142857142857
 40
0.7857142857142857
 40
0.7857142857142857
 40
0.7857142857142857
 40
0.8571428571428571
 40
0.8571428571428571
 40
0.8571428571428571
 40
0.8571428571428571
 40
1.0
 40
1.0
 40
1.0
 40
1.0
 10
30.2285
 20
34.002
 30
0.0
 10
30.2285
 20
33.8991
 30
0.0
 10
30.2569
 20
33.8049
 30
0.0
 10
30.3139
 20
33.7191
 30
0.0
 10
30.3139
 20
33.7191
 30
0.0
 10
30.3707
 20
33.6331
 30
0.0
 10
30.4541
 20
33.5592
 30
0.0
 10
30.5653
 20
33.4961
 30
0.0
 10
30.5653
 20
33.4961
 30
0.0
 10
30.6767
 20
33.433
 30
0.0
 10
30.8137
 20
33.3843
 30
0.0
 10
30.9767
 20
33.3496
 30
0.0
 10
30.9767
 20
33.3496
 30
0.0
 10
31.1396
 20
33.3155
 30
0.0
 10
31.3272
 20
33.298
 30
0.0
 10
31.5401
 20
33.2974
 30
0.0
 10
31.5401
 20
33.2974
 30
0.0
 10
31.8188
 20
33.3005
 30
0.0
 10
32.0541
 20
33.33
 30
0.0
 10
32.2468
 20
33.3863
 30
0.0
 10
32.2468
 20
33.3863
 30
0.0
 10
32.4396
 20
33.4427
 30
0.0
 10
32.5856
 20
33.5209
 30
0.0
 10
32.6853
 20
33.6202
 30
0.0
 10
32.6853
 20
33.6202
 30
0.0
 10
32.7849
 20
33.7195
 30
0.0
 10
32.8353
 20
33.8354
 30
0.0
 10
32.836
 20
33.9678
 30
0.0
 10
32.836
 20
33.9678
 30
0.0
 10
32.8353
 20
34.1163
 30
0.0
 10
32.7836
 20
34.2426
 30
0.0
 10
32.6814
 20
34.347
 30
0.0
 10
32.6814
 20
34.347
 30
0.0
 10
32.5792
 20
34.4516
 30
0.0
 10
32.4292
 20
34.5313
 30
0.0
 10
32.2312
 20
34.5861
 30
0.0
 10
32.2312
 20
34.5861
 30
0.0
 10
32.0334
 20
34.6414
 30
0.0
 10
31.7915
 20
34.6689
 30
0.0
 10
31.5051
 20
34.6694
 30
0.0
 10
31.5051
 20
34.6694
 30
0.0
 10
31.2366
 20
34.6689
 30
0.0
 10
31.007
 20
34.6425
 30
0.0
 10
30.8169
 20
34.5902
 30
0.0
 10
30.8169
 20
34.5902
 30
0.0
 10
30.6268
 20
34.538
 30
0.0
 10
30.4814
 20
34.462
 30
0.0
 10
30.3811
 20
34.3627
 30
0.0
 10
30.3811
 20
34.3627
 30
0.0
 10
30.2802
 20
34.2633
 30
0.0
 10
30.2291
 20
34.1433
 30
0.0
 10
30.2285
 20
34.002
 30
0.0
  0
SPLINE
  5
16D
330
1F
100
AcDbEntity
  8
Ilustrace
 62
   250
100
AcDbSpline
210
0.0
220
0.0
230
1.0
 70
    11
 71
     3
 72
    56
 73
    52
 74
     0
 42
0.0000000001
 43
0.0000000001
 40
0.0
 40
0.0
 40
0.0
 40
0.0
 40
0.0714285714285714
 40
0.0714285714285714
 40
0.0714285714285714
 40
0.0714285714285714
 40
0.1428571428571428
 40
0.1428571428571428
 40
0.1428571428571428
 40
0.1428571428571428
 40
0.2142857142857143
 40
0.2142857142857143
 40
0.2142857142857143
 40
0.2142857142857143
 40
0.2857142857142857
 40
0.2857142857142857
 40
0.2857142857142857
 40
0.2857142857142857
 40
0.3571428571428572
 40
0.3571428571428572
 40
0.3571428571428572
 40
0.3571428571428572
 40
0.4285714285714285
 40
0.4285714285714285
 40
0.4285714285714285
 40
0.4285714285714285
 40
0.5
 40
0.5
 40
0.5
 40
0.5
 40
0.5714285714285714
 40
0.5714285714285714
 40
0.5714285714285714
 40
0.5714285714285714
 40
0.6428571428571429
 40
0.6428571428571429
 40
0.6428571428571429
 40
0.6428571428571429
 40
0.7142857142857143
 40
0.7142857142857143
 40
0.7142857142857143
 40
0.7142857142857143
 40
0.7857142857142857
 40
0.7857142857142857
 40
0.7857142857142857
 40
0.7857142857142857
 40
0.8571428571428571
 40
0.8571428571428571
 40
0.8571428571428571
 40
0.8571428571428571
 40
1.0
 40
1.0
 40
1.0
 40
1.0
 10
30.4923
 20
33.9833
 30
0.0
 10
30.4929
 20
34.0548
 30
0.0
 10
30.5169
 20
34.1163
 30
0.0
 10
30.5653
 20
34.1681
 30
0.0
 10
30.5653
 20
34.1681
 30
0.0
 10
30.6139
 20
34.2198
 30
0.0
 10
30.6832
 20
34.2622
 30
0.0
 10
30.7735
 20
34.2954
 30
0.0
 10
30.7735
 20
34.2954
 30
0.0
 10
30.8636
 20
34.3285
 30
0.0
 10
30.9723
 20
34.3534
 30
0.0
 10
31.0976
 20
34.3694
 30
0.0
 10
31.0976
 20
34.3694
 30
0.0
 10
31.2237
 20
34.3853
 30
0.0
 10
31.3647
 20
34.3931
 30
0.0
 10
31.5205
 20
34.3931
 30
0.0
 10
31.5205
 20
34.3931
 30
0.0
 10
31.7366
 20
34.3931
 30
0.0
 10
31.9228
 20
34.3782
 30
0.0
 10
32.0793
 20
34.3482
 30
0.0
 10
32.0793
 20
34.3482
 30
0.0
 10
32.2364
 20
34.3186
 30
0.0
 10
32.3575
 20
34.2732
 30
0.0
 10
32.4429
 20
34.2126
 30
0.0
 10
32.4429
 20
34.2126
 30
0.0
 10
32.5282
 20
34.1521
 30
0.0
 10
32.5709
 20
34.0754
 30
0.0
 10
32.5722
 20
33.9833
 30
0.0
 10
32.5722
 20
33.9833
 30
0.0
 10
32.5715
 20
33.9001
 30
0.0
 10
32.5315
 20
33.8282
 30
0.0
 10
32.4511
 20
33.7667
 30
0.0
 10
32.4511
 20
33.7667
 30
0.0
 10
32.3709
 20
33.7056
 30
0.0
 10
32.2546
 20
33.6585
 30
0.0
 10
32.1019
 20
33.6248
 30
0.0
 10
32.1019
 20
33.6248
 30
0.0
 10
31.9488
 20
33.5912
 30
0.0
 10
31.7632
 20
33.5741
 30
0.0
 10
31.5438
 20
33.5736
 30
0.0
 10
31.5438
 20
33.5736
 30
0.0
 10
31.3143
 20
33.5741
 30
0.0
 10
31.1222
 20
33.5922
 30
0.0
 10
30.9656
 20
33.6275
 30
0.0
 10
30.9656
 20
33.6275
 30
0.0
 10
30.8098
 20
33.6627
 30
0.0
 10
30.6921
 20
33.7107
 30
0.0
 10
30.612
 20
33.7723
 30
0.0
 10
30.612
 20
33.7723
 30
0.0
 10
30.5323
 20
33.8338
 30
0.0
 10
30.4923
 20
33.9043
 30
0.0
 10
30.4923
 20
33.9833
 30
0.0
  0
SPLINE
  5
16E
330
1F
100
AcDbEntity
  8
Ilustrace
 62
   250
370
    15
100
AcDbSpline
210
0.0
220
0.0
230
1.0
 70
    24
 71
     3
 72
     8
 73
     4
 74
     0
 42
0.0000000001
 43
0.0000000001
 40
0.0
 40
0.0
 40
0.0
 40
0.0
 40
1.0
 40
1.0
 40
1.0
 40
1.0
 10
33.4038
 20
37.5687
 30
0.0
 10
33.4038
 20
37.5687
 30
0.0
 10
33.4038
 20
28.639
 30
0.0
 10
33.4038
 20
28.639
 30
0.0
  0
SPLINE
  5
16F
330
1F
100
AcDbEntity
  8
Ilustrace
 62
   250
370
    15
100
AcDbSpline
210
0.0
220
0.0
230
1.0
 70
    24
 71
     3
 72
     8
 73
     4
 74
     0
 42
0.0000000001
 43
0.0000000001
 40
0.0
 40
0.0
 40
0.0
 40
0.0
 40
1.0
 40
1.0
 40
1.0
 40
1.0
 10
36.9839
 20
22.3783
 30
0.0
 10
36.9839
 20
22.3783
 30
0.0
 10
36.9839
 20
-0.7413
 30
0.0
 10
36.9839
 20
-0.7413
 30
0.0
  0
SPLINE
  5
170
330
1F
100
AcDbEntity
  8
Ilustrace
 62
   250
370
     9
100
AcDbSpline
210
0.0
220
0.0
230
1.0
 70
    11
 71
     3
 72
    32
 73
    28
 74
     0
 42
0.0000000001
 43
0.0000000001
 40
0.0
 40
0.0
 40
0.0
 40
0.0
 40
0.125
 40
0.125
 40
0.125
 40
0.125
 40
0.25
 40
0.25
 40
0.25
 40
0.25
 40
0.375
 40
0.375
 40
0.375
 40
0.375
 40
0.5
 40
0.5
 40
0.5
 40
0.5
 40
0.625
 40
0.625
 40
0.625
 40
0.625
 40
0.75
 40
0.75
 40
0.75
 40
0.75
 40
1.0
 40
1.0
 40
1.0
 40
1.0
 10
33.8401
 20
29.3024
 30
0.0
 10
33.8401
 20
29.3024
 30
0.0
 10
33.8401
 20
29.3024
 30
0.0
 10
33.8401
 20
29.3024
 30
0.0
 10
33.8401
 20
29.3024
 30
0.0
 10
33.8401
 20
29.3024
 30
0.0
 10
33.8401
 20
29.3024
 30
0.0
 10
33.8401
 20
29.3024
 30
0.0
 10
33.8401
 20
29.3024
 30
0.0
 10
33.8401
 20
29.3024
 30
0.0
 10
33.3967
 20
30.5752
 30
0.0
 10
33.3967
 20
30.5752
 30
0.0
 10
33.3967
 20
30.5752
 30
0.0
 10
33.3967
 20
30.5752
 30
0.0
 10
32.9533
 20
29.3024
 30
0.0
 10
32.9533
 20
29.3024
 30
0.0
 10
32.9533
 20
29.3024
 30
0.0
 10
32.9533
 20
29.3024
 30
0.0
 10
32.9533
 20
29.3024
 30
0.0
 10
32.9533
 20
29.3024
 30
0.0
 10
32.9533
 20
29.3024
 30
0.0
 10
32.9533
 20
29.3024
 30
0.0
 10
32.9533
 20
29.3024
 30
0.0
 10
32.9533
 20
29.3024
 30
0.0
 10
32.9533
 20
29.3024
 30
0.0
 10
32.9533
 20
29.3024
 30
0.0
 10
33.8401
 20
29.3024
 30
0.0
 10
33.8401
 20
29.3024
 30
0.0
  0
SPLINE
  5
171
330
1F
100
AcDbEntity
  8
Ilustrace
 62
   250
370
     9
100
AcDbSpline
210
0.0
220
0.0
230
1.0
 70
    11
 71
     3
 72
    32
 73
    28
 74
     0
 42
0.0000000001
 43
0.0000000001
 40
0.0
 40
0.0
 40
0.0
 40
0.0
 40
0.125
 40
0.125
 40
0.125
 40
0.125
 40
0.25
 40
0.25
 40
0.25
 40
0.25
 40
0.375
 40
0.375
 40
0.375
 40
0.375
 40
0.5
 40
0.5
 40
0.5
 40
0.5
 40
0.625
 40
0.625
 40
0.625
 40
0.625
 40
0.75
 40
0.75
 40
0.75
 40
0.75
 40
1.0
 40
1.0
 40
1.0
 40
1.0
 10
37.4091
 20
21.6023
 30
0.0
 10
37.4091
 20
21.6023
 30
0.0
 10
37.4091
 20
21.6023
 30
0.0
 10
37.4091
 20
21.6023
 30
0.0
 10
37.4091
 20
21.6023
 30
0.0
 10
37.4091
 20
21.6023
 30
0.0
 10
37.4091
 20
21.6023
 30
0.0
 10
37.4091
 20
21.6023
 30
0.0
 10
37.4091
 20
21.6023
 30
0.0
 10
37.4091
 20
21.6023
 30
0.0
 10
36.9657
 20
22.8751
 30
0.0
 10
36.9657
 20
22.8751
 30
0.0
 10
36.9657
 20
22.8751
 30
0.0
 10
36.9657
 20
22.8751
 30
0.0
 10
36.5223
 20
21.6023
 30
0.0
 10
36.5223
 20
21.6023
 30
0.0
 10
36.5223
 20
21.6023
 30
0.0
 10
36.5223
 20
21.6023
 30
0.0
 10
36.5223
 20
21.6023
 30
0.0
 10
36.5223
 20
21.6023
 30
0.0
 10
36.5223
 20
21.6023
 30
0.0
 10
36.5223
 20
21.6023
 30
0.0
 10
36.5223
 20
21.6023
 30
0.0
 10
36.5223
 20
21.6023
 30
0.0
 10
36.5223
 20
21.6023
 30
0.0
 10
36.5223
 20
21.6023
 30
0.0
 10
37.4091
 20
21.6023
 30
0.0
 10
37.4091
 20
21.6023
 30
0.0
  0
SPLINE
  5
172
330
1F
100
AcDbEntity
  8
Ilustrace
 62
   250
370
     9
100
AcDbSpline
210
0.0
220
0.0
230
1.0
 70
    11
 71
     3
 72
    32
 73
    28
 74
     0
 42
0.0000000001
 43
0.0000000001
 40
0.0
 40
0.0
 40
0.0
 40
0.0
 40
0.125
 40
0.125
 40
0.125
 40
0.125
 40
0.25
 40
0.25
 40
0.25
 40
0.25
 40
0.375
 40
0.375
 40
0.375
 40
0.375
 40
0.5
 40
0.5
 40
0.5
 40
0.5
 40
0.625
 40
0.625
 40
0.625
 40
0.625
 40
0.75
 40
0.75
 40
0.75
 40
0.75
 40
1.0
 40
1.0
 40
1.0
 40
1.0
 10
33.8545
 20
36.8252
 30
0.0
 10
33.8545
 20
36.8252
 30
0.0
 10
33.8545
 20
36.8252
 30
0.0
 10
33.8545
 20
36.8252
 30
0.0
 10
33.8545
 20
36.8252
 30
0.0
 10
33.8545
 20
36.8252
 30
0.0
 10
33.8545
 20
36.8252
 30
0.0
 10
33.8545
 20
36.8252
 30
0.0
 10
33.8545
 20
36.8252
 30
0.0
 10
33.8545
 20
36.8252
 30
0.0
 10
33.4111
 20
35.5524
 30
0.0
 10
33.4111
 20
35.5524
 30
0.0
 10
33.4111
 20
35.5524
 30
0.0
 10
33.4111
 20
35.5524
 30
0.0
 10
32.9677
 20
36.8252
 30
0.0
 10
32.9677
 20
36.8252
 30
0.0
 10
32.9677
 20
36.8252
 30
0.0
 10
32.9677
 20
36.8252
 30
0.0
 10
32.9677
 20
36.8252
 30
0.0
 10
32.9677
 20
36.8252
 30
0.0
 10
32.9677
 20
36.8252
 30
0.0
 10
32.9677
 20
36.8252
 30
0.0
 10
32.9677
 20
36.8252
 30
0.0
 10
32.9677
 20
36.8252
 30
0.0
 10
32.9677
 20
36.8252
 30
0.0
 10
32.9677
 20
36.8252
 30
0.0
 10
33.8545
 20
36.8252
 30
0.0
 10
33.8545
 20
36.8252
 30
0.0
  0
SPLINE
  5
173
330
1F
100
AcDbEntity
  8
Ilustrace
 62
   250
370
     9
100
AcDbSpline
210
0.0
220
0.0
230
1.0
 70
    11
 71
     3
 72
    32
 73
    28
 74
     0
 42
0.0000000001
 43
0.0000000001
 40
0.0
 40
0.0
 40
0.0
 40
0.0
 40
0.125
 40
0.125
 40
0.125
 40
0.125
 40
0.25
 40
0.25
 40
0.25
 40
0.25
 40
0.375
 40
0.375
 40
0.375
 40
0.375
 40
0.5
 40
0.5
 40
0.5
 40
0.5
 40
0.625
 40
0.625
 40
0.625
 40
0.625
 40
0.75
 40
0.75
 40
0.75
 40
0.75
 40
1.0
 40
1.0
 40
1.0
 40
1.0
 10
37.4235
 20
-0.1384
 30
0.0
 10
37.4235
 20
-0.1384
 30
0.0
 10
37.4235
 20
-0.1384
 30
0.0
 10
37.4235
 20
-0.1384
 30
0.0
 10
37.4235
 20
-0.1384
 30
0.0
 10
37.4235
 20
-0.1384
 30
0.0
 10
37.4235
 20
-0.1384
 30
0.0
 10
37.4235
 20
-0.1384
 30
0.0
 10
37.4235
 20
-0.1384
 30
0.0
 10
37.4235
 20
-0.1384
 30
0.0
 10
36.9801
 20
-1.4112
 30
0.0
 10
36.9801
 20
-1.4112
 30
0.0
 10
36.9801
 20
-1.4112
 30
0.0
 10
36.9801
 20
-1.4112
 30
0.0
 10
36.5367
 20
-0.1384
 30
0.0
 10
36.5367
 20
-0.1384
 30
0.0
 10
36.5367
 20
-0.1384
 30
0.0
 10
36.5367
 20
-0.1384
 30
0.0
 10
36.5367
 20
-0.1384
 30
0.0
 10
36.5367
 20
-0.1384
 30
0.0
 10
36.5367
 20
-0.1384
 30
0.0
 10
36.5367
 20
-0.1384
 30
0.0
 10
36.5367
 20
-0.1384
 30
0.0
 10
36.5367
 20
-0.1384
 30
0.0
 10
36.5367
 20
-0.1384
 30
0.0
 10
36.5367
 20
-0.1384
 30
0.0
 10
37.4235
 20
-0.1384
 30
0.0
 10
37.4235
 20
-0.1384
 30
0.0
  0
SPLINE
  5
174
330
1F
100
AcDbEntity
  8
Ilustrace
 62
   250
370
    15
100
AcDbSpline
210
0.0
220
0.0
230
1.0
 70
    24
 71
     3
 72
     8
 73
     4
 74
     0
 42
0.0000000001
 43
0.0000000001
 40
0.0
 40
0.0
 40
0.0
 40
0.0
 40
1.0
 40
1.0
 40
1.0
 40
1.0
 10
29.4058
 20
22.8697
 30
0.0
 10
29.4058
 20
22.8697
 30
0.0
 10
37.5883
 20
22.8697
 30
0.0
 10
37.5883
 20
22.8697
 30
0.0
  0
SPLINE
  5
175
330
1F
100
AcDbEntity
  8
Ilustrace
 62
   250
100
AcDbSpline
210
0.0
220
0.0
230
1.0
 70
    11
 71
     3
 72
    36
 73
    32
 74
     0
 42
0.0000000001
 43
0.0000000001
 40
0.0
 40
0.0
 40
0.0
 40
0.0
 40
0.1111111111111111
 40
0.1111111111111111
 40
0.1111111111111111
 40
0.1111111111111111
 40
0.2222222222222222
 40
0.2222222222222222
 40
0.2222222222222222
 40
0.2222222222222222
 40
0.3333333333333333
 40
0.3333333333333333
 40
0.3333333333333333
 40
0.3333333333333333
 40
0.4444444444444444
 40
0.4444444444444444
 40
0.4444444444444444
 40
0.4444444444444444
 40
0.5555555555555556
 40
0.5555555555555556
 40
0.5555555555555556
 40
0.5555555555555556
 40
0.6666666666666666
 40
0.6666666666666666
 40
0.6666666666666666
 40
0.6666666666666666
 40
0.7777777777777778
 40
0.7777777777777778
 40
0.7777777777777778
 40
0.7777777777777778
 40
1.0
 40
1.0
 40
1.0
 40
1.0
 10
36.5707
 20
9.2067
 30
0.0
 10
36.5707
 20
9.2067
 30
0.0
 10
36.5707
 20
9.4706
 30
0.0
 10
36.5707
 20
9.4706
 30
0.0
 10
36.5707
 20
9.4706
 30
0.0
 10
36.5707
 20
9.4706
 30
0.0
 10
34.0485
 20
9.4706
 30
0.0
 10
34.0485
 20
9.4706
 30
0.0
 10
34.0485
 20
9.4706
 30
0.0
 10
34.0485
 20
9.4706
 30
0.0
 10
34.0485
 20
9.2378
 30
0.0
 10
34.0485
 20
9.2378
 30
0.0
 10
34.0485
 20
9.2378
 30
0.0
 10
34.0485
 20
9.2378
 30
0.0
 10
34.3434
 20
8.7969
 30
0.0
 10
34.3434
 20
8.7969
 30
0.0
 10
34.3434
 20
8.7969
 30
0.0
 10
34.3434
 20
8.7969
 30
0.0
 10
34.6033
 20
8.8497
 30
0.0
 10
34.6033
 20
8.8497
 30
0.0
 10
34.6033
 20
8.8497
 30
0.0
 10
34.6033
 20
8.8497
 30
0.0
 10
34.3667
 20
9.2005
 30
0.0
 10
34.3667
 20
9.2005
 30
0.0
 10
34.3667
 20
9.2005
 30
0.0
 10
34.3667
 20
9.2005
 30
0.0
 10
34.3667
 20
9.2067
 30
0.0
 10
34.3667
 20
9.2067
 30
0.0
 10
34.3667
 20
9.2067
 30
0.0
 10
34.3667
 20
9.2067
 30
0.0
 10
36.5707
 20
9.2067
 30
0.0
 10
36.5707
 20
9.2067
 30
0.0
  0
SPLINE
  5
176
330
1F
100
AcDbEntity
  8
Ilustrace
 62
   250
100
AcDbSpline
210
0.0
220
0.0
230
1.0
 70
    11
 71
     3
 72
    56
 73
    52
 74
     0
 42
0.0000000001
 43
0.0000000001
 40
0.0
 40
0.0
 40
0.0
 40
0.0
 40
0.0714285714285714
 40
0.0714285714285714
 40
0.0714285714285714
 40
0.0714285714285714
 40
0.1428571428571428
 40
0.1428571428571428
 40
0.1428571428571428
 40
0.1428571428571428
 40
0.2142857142857143
 40
0.2142857142857143
 40
0.2142857142857143
 40
0.2142857142857143
 40
0.2857142857142857
 40
0.2857142857142857
 40
0.2857142857142857
 40
0.2857142857142857
 40
0.3571428571428572
 40
0.3571428571428572
 40
0.3571428571428572
 40
0.3571428571428572
 40
0.4285714285714285
 40
0.4285714285714285
 40
0.4285714285714285
 40
0.4285714285714285
 40
0.5
 40
0.5
 40
0.5
 40
0.5
 40
0.5714285714285714
 40
0.5714285714285714
 40
0.5714285714285714
 40
0.5714285714285714
 40
0.6428571428571429
 40
0.6428571428571429
 40
0.6428571428571429
 40
0.6428571428571429
 40
0.7142857142857143
 40
0.7142857142857143
 40
0.7142857142857143
 40
0.7142857142857143
 40
0.7857142857142857
 40
0.7857142857142857
 40
0.7857142857142857
 40
0.7857142857142857
 40
0.8571428571428571
 40
0.8571428571428571
 40
0.8571428571428571
 40
0.8571428571428571
 40
1.0
 40
1.0
 40
1.0
 40
1.0
 10
34.0058
 20
10.8831
 30
0.0
 10
34.0058
 20
10.7801
 30
0.0
 10
34.0342
 20
10.686
 30
0.0
 10
34.0911
 20
10.6
 30
0.0
 10
34.0911
 20
10.6
 30
0.0
 10
34.1481
 20
10.5141
 30
0.0
 10
34.2315
 20
10.4401
 30
0.0
 10
34.3427
 20
10.377
 30
0.0
 10
34.3427
 20
10.377
 30
0.0
 10
34.4539
 20
10.314
 30
0.0
 10
34.5911
 20
10.2653
 30
0.0
 10
34.7541
 20
10.2307
 30
0.0
 10
34.7541
 20
10.2307
 30
0.0
 10
34.917
 20
10.1965
 30
0.0
 10
35.1046
 20
10.1789
 30
0.0
 10
35.3174
 20
10.1784
 30
0.0
 10
35.3174
 20
10.1784
 30
0.0
 10
35.5961
 20
10.1815
 30
0.0
 10
35.8315
 20
10.211
 30
0.0
 10
36.0241
 20
10.2674
 30
0.0
 10
36.0241
 20
10.2674
 30
0.0
 10
36.217
 20
10.3238
 30
0.0
 10
36.363
 20
10.4019
 30
0.0
 10
36.4626
 20
10.5012
 30
0.0
 10
36.4626
 20
10.5012
 30
0.0
 10
36.5623
 20
10.6006
 30
0.0
 10
36.6128
 20
10.7165
 30
0.0
 10
36.6134
 20
10.849
 30
0.0
 10
36.6134
 20
10.849
 30
0.0
 10
36.6128
 20
10.9974
 30
0.0
 10
36.5609
 20
11.1237
 30
0.0
 10
36.4589
 20
11.2282
 30
0.0
 10
36.4589
 20
11.2282
 30
0.0
 10
36.3566
 20
11.3327
 30
0.0
 10
36.2066
 20
11.4124
 30
0.0
 10
36.0087
 20
11.4672
 30
0.0
 10
36.0087
 20
11.4672
 30
0.0
 10
35.8108
 20
11.5226
 30
0.0
 10
35.5689
 20
11.55
 30
0.0
 10
35.2824
 20
11.5505
 30
0.0
 10
35.2824
 20
11.5505
 30
0.0
 10
35.014
 20
11.55
 30
0.0
 10
34.7844
 20
11.5235
 30
0.0
 10
34.5943
 20
11.4713
 30
0.0
 10
34.5943
 20
11.4713
 30
0.0
 10
34.4041
 20
11.419
 30
0.0
 10
34.2586
 20
11.3431
 30
0.0
 10
34.1584
 20
11.2437
 30
0.0
 10
34.1584
 20
11.2437
 30
0.0
 10
34.0575
 20
11.1443
 30
0.0
 10
34.0064
 20
11.0243
 30
0.0
 10
34.0058
 20
10.8831
 30
0.0
  0
SPLINE
  5
177
330
1F
100
AcDbEntity
  8
Ilustrace
 62
   250
100
AcDbSpline
210
0.0
220
0.0
230
1.0
 70
    11
 71
     3
 72
    56
 73
    52
 74
     0
 42
0.0000000001
 43
0.0000000001
 40
0.0
 40
0.0
 40
0.0
 40
0.0
 40
0.0714285714285714
 40
0.0714285714285714
 40
0.0714285714285714
 40
0.0714285714285714
 40
0.1428571428571428
 40
0.1428571428571428
 40
0.1428571428571428
 40
0.1428571428571428
 40
0.2142857142857143
 40
0.2142857142857143
 40
0.2142857142857143
 40
0.2142857142857143
 40
0.2857142857142857
 40
0.2857142857142857
 40
0.2857142857142857
 40
0.2857142857142857
 40
0.3571428571428572
 40
0.3571428571428572
 40
0.3571428571428572
 40
0.3571428571428572
 40
0.4285714285714285
 40
0.4285714285714285
 40
0.4285714285714285
 40
0.4285714285714285
 40
0.5
 40
0.5
 40
0.5
 40
0.5
 40
0.5714285714285714
 40
0.5714285714285714
 40
0.5714285714285714
 40
0.5714285714285714
 40
0.6428571428571429
 40
0.6428571428571429
 40
0.6428571428571429
 40
0.6428571428571429
 40
0.7142857142857143
 40
0.7142857142857143
 40
0.7142857142857143
 40
0.7142857142857143
 40
0.7857142857142857
 40
0.7857142857142857
 40
0.7857142857142857
 40
0.7857142857142857
 40
0.8571428571428571
 40
0.8571428571428571
 40
0.8571428571428571
 40
0.8571428571428571
 40
1.0
 40
1.0
 40
1.0
 40
1.0
 10
34.2697
 20
10.8645
 30
0.0
 10
34.2703
 20
10.9359
 30
0.0
 10
34.2942
 20
10.9974
 30
0.0
 10
34.3427
 20
11.0491
 30
0.0
 10
34.3427
 20
11.0491
 30
0.0
 10
34.3912
 20
11.1009
 30
0.0
 10
34.4605
 20
11.1433
 30
0.0
 10
34.5509
 20
11.1765
 30
0.0
 10
34.5509
 20
11.1765
 30
0.0
 10
34.6409
 20
11.2096
 30
0.0
 10
34.7496
 20
11.2344
 30
0.0
 10
34.8749
 20
11.2505
 30
0.0
 10
34.8749
 20
11.2505
 30
0.0
 10
35.0011
 20
11.2664
 30
0.0
 10
35.142
 20
11.2742
 30
0.0
 10
35.2979
 20
11.2742
 30
0.0
 10
35.2979
 20
11.2742
 30
0.0
 10
35.514
 20
11.2742
 30
0.0
 10
35.7003
 20
11.2592
 30
0.0
 10
35.8567
 20
11.2292
 30
0.0
 10
35.8567
 20
11.2292
 30
0.0
 10
36.0138
 20
11.1997
 30
0.0
 10
36.1348
 20
11.1542
 30
0.0
 10
36.2202
 20
11.0936
 30
0.0
 10
36.2202
 20
11.0936
 30
0.0
 10
36.3055
 20
11.033
 30
0.0
 10
36.3482
 20
10.9565
 30
0.0
 10
36.3495
 20
10.8645
 30
0.0
 10
36.3495
 20
10.8645
 30
0.0
 10
36.3489
 20
10.7812
 30
0.0
 10
36.3087
 20
10.7093
 30
0.0
 10
36.2286
 20
10.6476
 30
0.0
 10
36.2286
 20
10.6476
 30
0.0
 10
36.1484
 20
10.5866
 30
0.0
 10
36.032
 20
10.5395
 30
0.0
 10
35.8794
 20
10.5059
 30
0.0
 10
35.8794
 20
10.5059
 30
0.0
 10
35.726
 20
10.4723
 30
0.0
 10
35.5405
 20
10.4552
 30
0.0
 10
35.3212
 20
10.4547
 30
0.0
 10
35.3212
 20
10.4547
 30
0.0
 10
35.0916
 20
10.4552
 30
0.0
 10
34.8996
 20
10.4732
 30
0.0
 10
34.743
 20
10.5084
 30
0.0
 10
34.743
 20
10.5084
 30
0.0
 10
34.5872
 20
10.5436
 30
0.0
 10
34.4695
 20
10.5917
 30
0.0
 10
34.3893
 20
10.6534
 30
0.0
 10
34.3893
 20
10.6534
 30
0.0
 10
34.3097
 20
10.7149
 30
0.0
 10
34.2697
 20
10.7852
 30
0.0
 10
34.2697
 20
10.8645
 30
0.0
  0
SPLINE
  5
178
330
1F
100
AcDbEntity
  8
Ilustrace
 62
   250
100
AcDbSpline
210
0.0
220
0.0
230
1.0
 70
    11
 71
     3
 72
    56
 73
    52
 74
     0
 42
0.0000000001
 43
0.0000000001
 40
0.0
 40
0.0
 40
0.0
 40
0.0
 40
0.0714285714285714
 40
0.0714285714285714
 40
0.0714285714285714
 40
0.0714285714285714
 40
0.1428571428571428
 40
0.1428571428571428
 40
0.1428571428571428
 40
0.1428571428571428
 40
0.2142857142857143
 40
0.2142857142857143
 40
0.2142857142857143
 40
0.2142857142857143
 40
0.2857142857142857
 40
0.2857142857142857
 40
0.2857142857142857
 40
0.2857142857142857
 40
0.3571428571428572
 40
0.3571428571428572
 40
0.3571428571428572
 40
0.3571428571428572
 40
0.4285714285714285
 40
0.4285714285714285
 40
0.4285714285714285
 40
0.4285714285714285
 40
0.5
 40
0.5
 40
0.5
 40
0.5
 40
0.5714285714285714
 40
0.5714285714285714
 40
0.5714285714285714
 40
0.5714285714285714
 40
0.6428571428571429
 40
0.6428571428571429
 40
0.6428571428571429
 40
0.6428571428571429
 40
0.7142857142857143
 40
0.7142857142857143
 40
0.7142857142857143
 40
0.7142857142857143
 40
0.7857142857142857
 40
0.7857142857142857
 40
0.7857142857142857
 40
0.7857142857142857
 40
0.8571428571428571
 40
0.8571428571428571
 40
0.8571428571428571
 40
0.8571428571428571
 40
1.0
 40
1.0
 40
1.0
 40
1.0
 10
34.0058
 20
12.4756
 30
0.0
 10
34.0058
 20
12.3726
 30
0.0
 10
34.0342
 20
12.2785
 30
0.0
 10
34.0911
 20
12.1925
 30
0.0
 10
34.0911
 20
12.1925
 30
0.0
 10
34.1481
 20
12.1067
 30
0.0
 10
34.2315
 20
12.0327
 30
0.0
 10
34.3427
 20
11.9695
 30
0.0
 10
34.3427
 20
11.9695
 30
0.0
 10
34.4539
 20
11.9065
 30
0.0
 10
34.5911
 20
11.8578
 30
0.0
 10
34.7541
 20
11.8232
 30
0.0
 10
34.7541
 20
11.8232
 30
0.0
 10
34.917
 20
11.7891
 30
0.0
 10
35.1046
 20
11.7715
 30
0.0
 10
35.3174
 20
11.7709
 30
0.0
 10
35.3174
 20
11.7709
 30
0.0
 10
35.5961
 20
11.774
 30
0.0
 10
35.8315
 20
11.8035
 30
0.0
 10
36.0241
 20
11.8599
 30
0.0
 10
36.0241
 20
11.8599
 30
0.0
 10
36.217
 20
11.9163
 30
0.0
 10
36.363
 20
11.9945
 30
0.0
 10
36.4626
 20
12.0937
 30
0.0
 10
36.4626
 20
12.0937
 30
0.0
 10
36.5623
 20
12.1931
 30
0.0
 10
36.6128
 20
12.309
 30
0.0
 10
36.6134
 20
12.4415
 30
0.0
 10
36.6134
 20
12.4415
 30
0.0
 10
36.6128
 20
12.5899
 30
0.0
 10
36.5609
 20
12.7162
 30
0.0
 10
36.4589
 20
12.8207
 30
0.0
 10
36.4589
 20
12.8207
 30
0.0
 10
36.3566
 20
12.9252
 30
0.0
 10
36.2066
 20
13.0049
 30
0.0
 10
36.0087
 20
13.0597
 30
0.0
 10
36.0087
 20
13.0597
 30
0.0
 10
35.8108
 20
13.1151
 30
0.0
 10
35.5689
 20
13.1425
 30
0.0
 10
35.2824
 20
13.143
 30
0.0
 10
35.2824
 20
13.143
 30
0.0
 10
35.014
 20
13.1425
 30
0.0
 10
34.7844
 20
13.1161
 30
0.0
 10
34.5943
 20
13.0639
 30
0.0
 10
34.5943
 20
13.0639
 30
0.0
 10
34.4041
 20
13.0116
 30
0.0
 10
34.2586
 20
12.9356
 30
0.0
 10
34.1584
 20
12.8362
 30
0.0
 10
34.1584
 20
12.8362
 30
0.0
 10
34.0575
 20
12.7368
 30
0.0
 10
34.0064
 20
12.6168
 30
0.0
 10
34.0058
 20
12.4756
 30
0.0
  0
SPLINE
  5
179
330
1F
100
AcDbEntity
  8
Ilustrace
 62
   250
100
AcDbSpline
210
0.0
220
0.0
230
1.0
 70
    11
 71
     3
 72
    56
 73
    52
 74
     0
 42
0.0000000001
 43
0.0000000001
 40
0.0
 40
0.0
 40
0.0
 40
0.0
 40
0.0714285714285714
 40
0.0714285714285714
 40
0.0714285714285714
 40
0.0714285714285714
 40
0.1428571428571428
 40
0.1428571428571428
 40
0.1428571428571428
 40
0.1428571428571428
 40
0.2142857142857143
 40
0.2142857142857143
 40
0.2142857142857143
 40
0.2142857142857143
 40
0.2857142857142857
 40
0.2857142857142857
 40
0.2857142857142857
 40
0.2857142857142857
 40
0.3571428571428572
 40
0.3571428571428572
 40
0.3571428571428572
 40
0.3571428571428572
 40
0.4285714285714285
 40
0.4285714285714285
 40
0.4285714285714285
 40
0.4285714285714285
 40
0.5
 40
0.5
 40
0.5
 40
0.5
 40
0.5714285714285714
 40
0.5714285714285714
 40
0.5714285714285714
 40
0.5714285714285714
 40
0.6428571428571429
 40
0.6428571428571429
 40
0.6428571428571429
 40
0.6428571428571429
 40
0.7142857142857143
 40
0.7142857142857143
 40
0.7142857142857143
 40
0.7142857142857143
 40
0.7857142857142857
 40
0.7857142857142857
 40
0.7857142857142857
 40
0.7857142857142857
 40
0.8571428571428571
 40
0.8571428571428571
 40
0.8571428571428571
 40
0.8571428571428571
 40
1.0
 40
1.0
 40
1.0
 40
1.0
 10
34.2697
 20
12.457
 30
0.0
 10
34.2703
 20
12.5284
 30
0.0
 10
34.2942
 20
12.5899
 30
0.0
 10
34.3427
 20
12.6417
 30
0.0
 10
34.3427
 20
12.6417
 30
0.0
 10
34.3912
 20
12.6934
 30
0.0
 10
34.4605
 20
12.7358
 30
0.0
 10
34.5509
 20
12.769
 30
0.0
 10
34.5509
 20
12.769
 30
0.0
 10
34.6409
 20
12.8021
 30
0.0
 10
34.7496
 20
12.8269
 30
0.0
 10
34.8749
 20
12.843
 30
0.0
 10
34.8749
 20
12.843
 30
0.0
 10
35.0011
 20
12.8589
 30
0.0
 10
35.142
 20
12.8667
 30
0.0
 10
35.2979
 20
12.8667
 30
0.0
 10
35.2979
 20
12.8667
 30
0.0
 10
35.514
 20
12.8667
 30
0.0
 10
35.7003
 20
12.8517
 30
0.0
 10
35.8567
 20
12.8218
 30
0.0
 10
35.8567
 20
12.8218
 30
0.0
 10
36.0138
 20
12.7922
 30
0.0
 10
36.1348
 20
12.7467
 30
0.0
 10
36.2202
 20
12.6862
 30
0.0
 10
36.2202
 20
12.6862
 30
0.0
 10
36.3055
 20
12.6256
 30
0.0
 10
36.3482
 20
12.549
 30
0.0
 10
36.3495
 20
12.457
 30
0.0
 10
36.3495
 20
12.457
 30
0.0
 10
36.3489
 20
12.3737
 30
0.0
 10
36.3087
 20
12.3018
 30
0.0
 10
36.2286
 20
12.2402
 30
0.0
 10
36.2286
 20
12.2402
 30
0.0
 10
36.1484
 20
12.1791
 30
0.0
 10
36.032
 20
12.1321
 30
0.0
 10
35.8794
 20
12.0984
 30
0.0
 10
35.8794
 20
12.0984
 30
0.0
 10
35.726
 20
12.0648
 30
0.0
 10
35.5405
 20
12.0477
 30
0.0
 10
35.3212
 20
12.0472
 30
0.0
 10
35.3212
 20
12.0472
 30
0.0
 10
35.0916
 20
12.0477
 30
0.0
 10
34.8996
 20
12.0658
 30
0.0
 10
34.743
 20
12.1009
 30
0.0
 10
34.743
 20
12.1009
 30
0.0
 10
34.5872
 20
12.1361
 30
0.0
 10
34.4695
 20
12.1843
 30
0.0
 10
34.3893
 20
12.2459
 30
0.0
 10
34.3893
 20
12.2459
 30
0.0
 10
34.3097
 20
12.3074
 30
0.0
 10
34.2697
 20
12.3778
 30
0.0
 10
34.2697
 20
12.457
 30
0.0
  0
SPLINE
  5
17A
330
1F
100
AcDbEntity
  8
Ilustrace
 62
   250
370
    15
100
AcDbSpline
210
0.0
220
0.0
230
1.0
 70
    24
 71
     3
 72
     8
 73
     4
 74
     0
 42
0.0000000001
 43
0.0000000001
 40
0.0
 40
0.0
 40
0.0
 40
0.0
 40
1.0
 40
1.0
 40
1.0
 40
1.0
 10
28.7529
 20
23.3395
 30
0.0
 10
28.7529
 20
23.3395
 30
0.0
 10
28.7529
 20
25.8027
 30
0.0
 10
28.7529
 20
25.8027
 30
0.0
  0
SPLINE
  5
17B
330
1F
100
AcDbEntity
  8
Ilustrace
 62
   250
370
    15
100
AcDbSpline
210
0.0
220
0.0
230
1.0
 70
    24
 71
     3
 72
     8
 73
     4
 74
     0
 42
0.0000000001
 43
0.0000000001
 40
0.0
 40
0.0
 40
0.0
 40
0.0
 40
1.0
 40
1.0
 40
1.0
 40
1.0
 10
-32.4459
 20
22.796
 30
0.0
 10
-32.4459
 20
22.796
 30
0.0
 10
-34.9091
 20
22.796
 30
0.0
 10
-34.9091
 20
22.796
 30
0.0
  0
SPLINE
  5
17C
330
1F
100
AcDbEntity
  8
Ilustrace
 62
   250
370
    15
100
AcDbSpline
210
0.0
220
0.0
230
1.0
 70
    24
 71
     3
 72
     8
 73
     4
 74
     0
 42
0.0000000001
 43
0.0000000001
 40
0.0
 40
0.0
 40
0.0
 40
0.0
 40
1.0
 40
1.0
 40
1.0
 40
1.0
 10
-31.5607
 20
22.8103
 30
0.0
 10
-31.5607
 20
22.8103
 30
0.0
 10
-31.5607
 20
25.8028
 30
0.0
 10
-31.5607
 20
25.8028
 30
0.0
  0
SPLINE
  5
17D
330
1F
100
AcDbEntity
  8
Ilustrace
 62
   250
370
    15
100
AcDbSpline
210
0.0
220
0.0
230
1.0
 70
    24
 71
     3
 72
     8
 73
     4
 74
     0
 42
0.0000000001
 43
0.0000000001
 40
0.0
 40
0.0
 40
0.0
 40
0.0
 40
1.0
 40
1.0
 40
1.0
 40
1.0
 10
-31.9167
 20
-37.5176
 30
0.0
 10
-31.9167
 20
-37.5176
 30
0.0
 10
-34.9092
 20
-37.5176
 30
0.0
 10
-34.9092
 20
-37.5176
 30
0.0
  0
SPLINE
  5
17E
330
1F
100
AcDbEntity
  8
Ilustrace
 62
   250
100
AcDbSpline
210
0.0
220
0.0
230
1.0
 70
    11
 71
     3
 72
   124
 73
   120
 74
     0
 42
0.0000000001
 43
0.0000000001
 40
0.0
 40
0.0
 40
0.0
 40
0.0
 40
0.032258064516129
 40
0.032258064516129
 40
0.032258064516129
 40
0.032258064516129
 40
0.0645161290322581
 40
0.0645161290322581
 40
0.0645161290322581
 40
0.0645161290322581
 40
0.0967741935483871
 40
0.0967741935483871
 40
0.0967741935483871
 40
0.0967741935483871
 40
0.1290322580645161
 40
0.1290322580645161
 40
0.1290322580645161
 40
0.1290322580645161
 40
0.1612903225806452
 40
0.1612903225806452
 40
0.1612903225806452
 40
0.1612903225806452
 40
0.1935483870967742
 40
0.1935483870967742
 40
0.1935483870967742
 40
0.1935483870967742
 40
0.2258064516129032
 40
0.2258064516129032
 40
0.2258064516129032
 40
0.2258064516129032
 40
0.2580645161290323
 40
0.2580645161290323
 40
0.2580645161290323
 40
0.2580645161290323
 40
0.2903225806451613
 40
0.2903225806451613
 40
0.2903225806451613
 40
0.2903225806451613
 40
0.3225806451612903
 40
0.3225806451612903
 40
0.3225806451612903
 40
0.3225806451612903
 40
0.3548387096774194
 40
0.3548387096774194
 40
0.3548387096774194
 40
0.3548387096774194
 40
0.3870967741935484
 40
0.3870967741935484
 40
0.3870967741935484
 40
0.3870967741935484
 40
0.4193548387096774
 40
0.4193548387096774
 40
0.4193548387096774
 40
0.4193548387096774
 40
0.4516129032258064
 40
0.4516129032258064
 40
0.4516129032258064
 40
0.4516129032258064
 40
0.4838709677419355
 40
0.4838709677419355
 40
0.4838709677419355
 40
0.4838709677419355
 40
0.5161290322580645
 40
0.5161290322580645
 40
0.5161290322580645
 40
0.5161290322580645
 40
0.5483870967741935
 40
0.5483870967741935
 40
0.5483870967741935
 40
0.5483870967741935
 40
0.5806451612903226
 40
0.5806451612903226
 40
0.5806451612903226
 40
0.5806451612903226
 40
0.6129032258064516
 40
0.6129032258064516
 40
0.6129032258064516
 40
0.6129032258064516
 40
0.6451612903225806
 40
0.6451612903225806
 40
0.6451612903225806
 40
0.6451612903225806
 40
0.6774193548387096
 40
0.6774193548387096
 40
0.6774193548387096
 40
0.6774193548387096
 40
0.7096774193548387
 40
0.7096774193548387
 40
0.7096774193548387
 40
0.7096774193548387
 40
0.7419354838709677
 40
0.7419354838709677
 40
0.7419354838709677
 40
0.7419354838709677
 40
0.7741935483870968
 40
0.7741935483870968
 40
0.7741935483870968
 40
0.7741935483870968
 40
0.8064516129032258
 40
0.8064516129032258
 40
0.8064516129032258
 40
0.8064516129032258
 40
0.8387096774193549
 40
0.8387096774193549
 40
0.8387096774193549
 40
0.8387096774193549
 40
0.8709677419354839
 40
0.8709677419354839
 40
0.8709677419354839
 40
0.8709677419354839
 40
0.9032258064516129
 40
0.9032258064516129
 40
0.9032258064516129
 40
0.9032258064516129
 40
0.9354838709677419
 40
0.9354838709677419
 40
0.9354838709677419
 40
0.9354838709677419
 40
1.0
 40
1.0
 40
1.0
 40
1.0
 10
-0.8639
 20
25.9171
 30
0.0
 10
-0.8639
 20
25.9171
 30
0.0
 10
-0.8639
 20
26.2003
 30
0.0
 10
-0.8639
 20
26.2003
 30
0.0
 10
-0.8639
 20
26.2003
 30
0.0
 10
-0.8639
 20
26.2003
 30
0.0
 10
-1.7674
 20
26.2003
 30
0.0
 10
-1.7674
 20
26.2003
 30
0.0
 10
-1.7674
 20
26.2003
 30
0.0
 10
-1.7674
 20
26.2003
 30
0.0
 10
-1.7674
 20
26.2082
 30
0.0
 10
-1.7674
 20
26.2082
 30
0.0
 10
-1.7674
 20
26.2082
 30
0.0
 10
-1.7674
 20
26.2082
 30
0.0
 10
-1.609
 20
26.3943
 30
0.0
 10
-1.609
 20
26.3943
 30
0.0
 10
-1.609
 20
26.3943
 30
0.0
 10
-1.5024
 20
26.5218
 30
0.0
 10
-1.4062
 20
26.6427
 30
0.0
 10
-1.3209
 20
26.7566
 30
0.0
 10
-1.3209
 20
26.7566
 30
0.0
 10
-1.2355
 20
26.8703
 30
0.0
 10
-1.1625
 20
26.9815
 30
0.0
 10
-1.1019
 20
27.0889
 30
0.0
 10
-1.1019
 20
27.0889
 30
0.0
 10
-1.041
 20
27.1964
 30
0.0
 10
-0.9949
 20
27.3043
 30
0.0
 10
-0.9623
 20
27.413
 30
0.0
 10
-0.9623
 20
27.413
 30
0.0
 10
-0.9302
 20
27.521
 30
0.0
 10
-0.9141
 20
27.6329
 30
0.0
 10
-0.9137
 20
27.7485
 30
0.0
 10
-0.9137
 20
27.7485
 30
0.0
 10
-0.9137
 20
27.8398
 30
0.0
 10
-0.925
 20
27.929
 30
0.0
 10
-0.9488
 20
28.0156
 30
0.0
 10
-0.9488
 20
28.0156
 30
0.0
 10
-0.9727
 20
28.1024
 30
0.0
 10
-1.0098
 20
28.1806
 30
0.0
 10
-1.0596
 20
28.2503
 30
0.0
 10
-1.0596
 20
28.2503
 30
0.0
 10
-1.1092
 20
28.321
 30
0.0
 10
-1.1734
 20
28.3766
 30
0.0
 10
-1.2514
 20
28.4179
 30
0.0
 10
-1.2514
 20
28.4179
 30
0.0
 10
-1.3296
 20
28.46
 30
0.0
 10
-1.4227
 20
28.4813
 30
0.0
 10
-1.5313
 20
28.4819
 30
0.0
 10
-1.5313
 20
28.4819
 30
0.0
 10
-1.608
 20
28.4813
 30
0.0
 10
-1.6808
 20
28.4702
 30
0.0
 10
-1.7503
 20
28.4476
 30
0.0
 10
-1.7503
 20
28.4476
 30
0.0
 10
-1.8196
 20
28.425
 30
0.0
 10
-1.8837
 20
28.3947
 30
0.0
 10
-1.9427
 20
28.3558
 30
0.0
 10
-1.9427
 20
28.3558
 30
0.0
 10
-2.0011
 20
28.3176
 30
0.0
 10
-2.0534
 20
28.2744
 30
0.0
 10
-2.0995
 20
28.2258
 30
0.0
 10
-2.0995
 20
28.2258
 30
0.0
 10
-2.0995
 20
28.2258
 30
0.0
 10
-2.0126
 20
27.9853
 30
0.0
 10
-2.0126
 20
27.9853
 30
0.0
 10
-2.0126
 20
27.9853
 30
0.0
 10
-1.9814
 20
28.0183
 30
0.0
 10
-1.9443
 20
28.0513
 30
0.0
 10
-1.9008
 20
28.0836
 30
0.0
 10
-1.9008
 20
28.0836
 30
0.0
 10
-1.8573
 20
28.1166
 30
0.0
 10
-1.8093
 20
28.1431
 30
0.0
 10
-1.7559
 20
28.165
 30
0.0
 10
-1.7559
 20
28.165
 30
0.0
 10
-1.7027
 20
28.1863
 30
0.0
 10
-1.6453
 20
28.198
 30
0.0
 10
-1.5841
 20
28.1987
 30
0.0
 10
-1.5841
 20
28.1987
 30
0.0
 10
-1.5091
 20
28.198
 30
0.0
 10
-1.446
 20
28.1845
 30
0.0
 10
-1.3948
 20
28.158
 30
0.0
 10
-1.3948
 20
28.158
 30
0.0
 10
-1.3441
 20
28.1307
 30
0.0
 10
-1.3032
 20
28.0945
 30
0.0
 10
-1.2727
 20
28.0486
 30
0.0
 10
-1.2727
 20
28.0486
 30
0.0
 10
-1.2421
 20
28.0021
 30
0.0
 10
-1.2199
 20
27.9498
 30
0.0
 10
-1.2065
 20
27.8909
 30
0.0
 10
-1.2065
 20
27.8909
 30
0.0
 10
-1.193
 20
27.8319
 30
0.0
 10
-1.1863
 20
27.7706
 30
0.0
 10
-1.1869
 20
27.7059
 30
0.0
 10
-1.1869
 20
27.7059
 30
0.0
 10
-1.1869
 20
27.6115
 30
0.0
 10
-1.2018
 20
27.5183
 30
0.0
 10
-1.2318
 20
27.4259
 30
0.0
 10
-1.2318
 20
27.4259
 30
0.0
 10
-1.2618
 20
27.3328
 30
0.0
 10
-1.3074
 20
27.2358
 30
0.0
 10
-1.3689
 20
27.1336
 30
0.0
 10
-1.3689
 20
27.1336
 30
0.0
 10
-1.4305
 20
27.0314
 30
0.0
 10
-1.5087
 20
26.9194
 30
0.0
 10
-1.6032
 20
26.7979
 30
0.0
 10
-1.6032
 20
26.7979
 30
0.0
 10
-1.6975
 20
26.6763
 30
0.0
 10
-1.8093
 20
26.5392
 30
0.0
 10
-1.9379
 20
26.3866
 30
0.0
 10
-1.9379
 20
26.3866
 30
0.0
 10
-1.9379
 20
26.3866
 30
0.0
 10
-2.1522
 20
26.1266
 30
0.0
 10
-2.1522
 20
26.1266
 30
0.0
 10
-2.1522
 20
26.1266
 30
0.0
 10
-2.1522
 20
26.1266
 30
0.0
 10
-2.1522
 20
25.9171
 30
0.0
 10
-2.1522
 20
25.9171
 30
0.0
 10
-2.1522
 20
25.9171
 30
0.0
 10
-2.1522
 20
25.9171
 30
0.0
 10
-0.8639
 20
25.9171
 30
0.0
 10
-0.8639
 20
25.9171
 30
0.0
  0
SPLINE
  5
17F
330
1F
100
AcDbEntity
  8
Ilustrace
 62
   250
100
AcDbSpline
210
0.0
220
0.0
230
1.0
 70
    11
 71
     3
 72
    48
 73
    44
 74
     0
 42
0.0000000001
 43
0.0000000001
 40
0.0
 40
0.0
 40
0.0
 40
0.0
 40
0.0833333333333333
 40
0.0833333333333333
 40
0.0833333333333333
 40
0.0833333333333333
 40
0.1666666666666667
 40
0.1666666666666667
 40
0.1666666666666667
 40
0.1666666666666667
 40
0.25
 40
0.25
 40
0.25
 40
0.25
 40
0.3333333333333333
 40
0.3333333333333333
 40
0.3333333333333333
 40
0.3333333333333333
 40
0.4166666666666667
 40
0.4166666666666667
 40
0.4166666666666667
 40
0.4166666666666667
 40
0.5
 40
0.5
 40
0.5
 40
0.5
 40
0.5833333333333334
 40
0.5833333333333334
 40
0.5833333333333334
 40
0.5833333333333334
 40
0.6666666666666666
 40
0.6666666666666666
 40
0.6666666666666666
 40
0.6666666666666666
 40
0.75
 40
0.75
 40
0.75
 40
0.75
 40
0.8333333333333334
 40
0.8333333333333334
 40
0.8333333333333334
 40
0.8333333333333334
 40
1.0
 40
1.0
 40
1.0
 40
1.0
 10
0.5421
 20
25.9171
 30
0.0
 10
0.5421
 20
25.9171
 30
0.0
 10
0.5421
 20
26.6077
 30
0.0
 10
0.5421
 20
26.6077
 30
0.0
 10
0.5421
 20
26.6077
 30
0.0
 10
0.5421
 20
26.6077
 30
0.0
 10
0.8246
 20
26.6077
 30
0.0
 10
0.8246
 20
26.6077
 30
0.0
 10
0.8246
 20
26.6077
 30
0.0
 10
0.8246
 20
26.6077
 30
0.0
 10
0.8246
 20
26.8716
 30
0.0
 10
0.8246
 20
26.8716
 30
0.0
 10
0.8246
 20
26.8716
 30
0.0
 10
0.8246
 20
26.8716
 30
0.0
 10
0.5421
 20
26.8716
 30
0.0
 10
0.5421
 20
26.8716
 30
0.0
 10
0.5421
 20
26.8716
 30
0.0
 10
0.5421
 20
26.8716
 30
0.0
 10
0.5421
 20
28.4392
 30
0.0
 10
0.5421
 20
28.4392
 30
0.0
 10
0.5421
 20
28.4392
 30
0.0
 10
0.5421
 20
28.4392
 30
0.0
 10
0.2473
 20
28.4392
 30
0.0
 10
0.2473
 20
28.4392
 30
0.0
 10
0.2473
 20
28.4392
 30
0.0
 10
0.2473
 20
28.4392
 30
0.0
 10
-0.6529
 20
26.8289
 30
0.0
 10
-0.6529
 20
26.8289
 30
0.0
 10
-0.6529
 20
26.8289
 30
0.0
 10
-0.6529
 20
26.8289
 30
0.0
 10
-0.6529
 20
26.6077
 30
0.0
 10
-0.6529
 20
26.6077
 30
0.0
 10
-0.6529
 20
26.6077
 30
0.0
 10
-0.6529
 20
26.6077
 30
0.0
 10
0.2846
 20
26.6077
 30
0.0
 10
0.2846
 20
26.6077
 30
0.0
 10
0.2846
 20
26.6077
 30
0.0
 10
0.2846
 20
26.6077
 30
0.0
 10
0.2846
 20
25.9171
 30
0.0
 10
0.2846
 20
25.9171
 30
0.0
 10
0.2846
 20
25.9171
 30
0.0
 10
0.2846
 20
25.9171
 30
0.0
 10
0.5421
 20
25.9171
 30
0.0
 10
0.5421
 20
25.9171
 30
0.0
  0
SPLINE
  5
180
330
1F
100
AcDbEntity
  8
Ilustrace
 62
   250
100
AcDbSpline
210
0.0
220
0.0
230
1.0
 70
    11
 71
     3
 72
    36
 73
    32
 74
     0
 42
0.0000000001
 43
0.0000000001
 40
0.0
 40
0.0
 40
0.0
 40
0.0
 40
0.1111111111111111
 40
0.1111111111111111
 40
0.1111111111111111
 40
0.1111111111111111
 40
0.2222222222222222
 40
0.2222222222222222
 40
0.2222222222222222
 40
0.2222222222222222
 40
0.3333333333333333
 40
0.3333333333333333
 40
0.3333333333333333
 40
0.3333333333333333
 40
0.4444444444444444
 40
0.4444444444444444
 40
0.4444444444444444
 40
0.4444444444444444
 40
0.5555555555555556
 40
0.5555555555555556
 40
0.5555555555555556
 40
0.5555555555555556
 40
0.6666666666666666
 40
0.6666666666666666
 40
0.6666666666666666
 40
0.6666666666666666
 40
0.7777777777777778
 40
0.7777777777777778
 40
0.7777777777777778
 40
0.7777777777777778
 40
1.0
 40
1.0
 40
1.0
 40
1.0
 10
-0.3767
 20
26.8716
 30
0.0
 10
-0.3767
 20
26.8716
 30
0.0
 10
-0.3767
 20
26.8795
 30
0.0
 10
-0.3767
 20
26.8795
 30
0.0
 10
-0.3767
 20
26.8795
 30
0.0
 10
-0.3767
 20
26.8795
 30
0.0
 10
0.1169
 20
27.7369
 30
0.0
 10
0.1169
 20
27.7369
 30
0.0
 10
0.1169
 20
27.7369
 30
0.0
 10
0.1443
 20
27.7945
 30
0.0
 10
0.1718
 20
27.8527
 30
0.0
 10
0.1987
 20
27.9116
 30
0.0
 10
0.1987
 20
27.9116
 30
0.0
 10
0.2251
 20
27.9711
 30
0.0
 10
0.254
 20
28.0369
 30
0.0
 10
0.2846
 20
28.1094
 30
0.0
 10
0.2846
 20
28.1094
 30
0.0
 10
0.2846
 20
28.1094
 30
0.0
 10
0.2939
 20
28.1094
 30
0.0
 10
0.2939
 20
28.1094
 30
0.0
 10
0.2939
 20
28.1094
 30
0.0
 10
0.2876
 20
27.9776
 30
0.0
 10
0.2846
 20
27.8456
 30
0.0
 10
0.2846
 20
27.7136
 30
0.0
 10
0.2846
 20
27.7136
 30
0.0
 10
0.2846
 20
27.7136
 30
0.0
 10
0.2846
 20
26.8716
 30
0.0
 10
0.2846
 20
26.8716
 30
0.0
 10
0.2846
 20
26.8716
 30
0.0
 10
0.2846
 20
26.8716
 30
0.0
 10
-0.3767
 20
26.8716
 30
0.0
 10
-0.3767
 20
26.8716
 30
0.0
  0
SPLINE
  5
181
330
1F
100
AcDbEntity
  8
Ilustrace
 62
   250
100
AcDbSpline
210
0.0
220
0.0
230
1.0
 70
    11
 71
     3
 72
   124
 73
   120
 74
     0
 42
0.0000000001
 43
0.0000000001
 40
0.0
 40
0.0
 40
0.0
 40
0.0
 40
0.032258064516129
 40
0.032258064516129
 40
0.032258064516129
 40
0.032258064516129
 40
0.0645161290322581
 40
0.0645161290322581
 40
0.0645161290322581
 40
0.0645161290322581
 40
0.0967741935483871
 40
0.0967741935483871
 40
0.0967741935483871
 40
0.0967741935483871
 40
0.1290322580645161
 40
0.1290322580645161
 40
0.1290322580645161
 40
0.1290322580645161
 40
0.1612903225806452
 40
0.1612903225806452
 40
0.1612903225806452
 40
0.1612903225806452
 40
0.1935483870967742
 40
0.1935483870967742
 40
0.1935483870967742
 40
0.1935483870967742
 40
0.2258064516129032
 40
0.2258064516129032
 40
0.2258064516129032
 40
0.2258064516129032
 40
0.2580645161290323
 40
0.2580645161290323
 40
0.2580645161290323
 40
0.2580645161290323
 40
0.2903225806451613
 40
0.2903225806451613
 40
0.2903225806451613
 40
0.2903225806451613
 40
0.3225806451612903
 40
0.3225806451612903
 40
0.3225806451612903
 40
0.3225806451612903
 40
0.3548387096774194
 40
0.3548387096774194
 40
0.3548387096774194
 40
0.3548387096774194
 40
0.3870967741935484
 40
0.3870967741935484
 40
0.3870967741935484
 40
0.3870967741935484
 40
0.4193548387096774
 40
0.4193548387096774
 40
0.4193548387096774
 40
0.4193548387096774
 40
0.4516129032258064
 40
0.4516129032258064
 40
0.4516129032258064
 40
0.4516129032258064
 40
0.4838709677419355
 40
0.4838709677419355
 40
0.4838709677419355
 40
0.4838709677419355
 40
0.5161290322580645
 40
0.5161290322580645
 40
0.5161290322580645
 40
0.5161290322580645
 40
0.5483870967741935
 40
0.5483870967741935
 40
0.5483870967741935
 40
0.5483870967741935
 40
0.5806451612903226
 40
0.5806451612903226
 40
0.5806451612903226
 40
0.5806451612903226
 40
0.6129032258064516
 40
0.6129032258064516
 40
0.6129032258064516
 40
0.6129032258064516
 40
0.6451612903225806
 40
0.6451612903225806
 40
0.6451612903225806
 40
0.6451612903225806
 40
0.6774193548387096
 40
0.6774193548387096
 40
0.6774193548387096
 40
0.6774193548387096
 40
0.7096774193548387
 40
0.7096774193548387
 40
0.7096774193548387
 40
0.7096774193548387
 40
0.7419354838709677
 40
0.7419354838709677
 40
0.7419354838709677
 40
0.7419354838709677
 40
0.7741935483870968
 40
0.7741935483870968
 40
0.7741935483870968
 40
0.7741935483870968
 40
0.8064516129032258
 40
0.8064516129032258
 40
0.8064516129032258
 40
0.8064516129032258
 40
0.8387096774193549
 40
0.8387096774193549
 40
0.8387096774193549
 40
0.8387096774193549
 40
0.8709677419354839
 40
0.8709677419354839
 40
0.8709677419354839
 40
0.8709677419354839
 40
0.9032258064516129
 40
0.9032258064516129
 40
0.9032258064516129
 40
0.9032258064516129
 40
0.9354838709677419
 40
0.9354838709677419
 40
0.9354838709677419
 40
0.9354838709677419
 40
1.0
 40
1.0
 40
1.0
 40
1.0
 10
1.1909
 20
25.8784
 30
0.0
 10
1.2235
 20
25.8764
 30
0.0
 10
1.2612
 20
25.8764
 30
0.0
 10
1.3037
 20
25.8796
 30
0.0
 10
1.3037
 20
25.8796
 30
0.0
 10
1.3462
 20
25.8821
 30
0.0
 10
1.3927
 20
25.888
 30
0.0
 10
1.4424
 20
25.8977
 30
0.0
 10
1.4424
 20
25.8977
 30
0.0
 10
1.5153
 20
25.9081
 30
0.0
 10
1.5868
 20
25.928
 30
0.0
 10
1.6565
 20
25.9566
 30
0.0
 10
1.6565
 20
25.9566
 30
0.0
 10
1.7264
 20
25.9856
 30
0.0
 10
1.7931
 20
26.0238
 30
0.0
 10
1.8562
 20
26.0704
 30
0.0
 10
1.8562
 20
26.0704
 30
0.0
 10
1.9193
 20
26.1169
 30
0.0
 10
1.9769
 20
26.1719
 30
0.0
 10
2.0291
 20
26.2353
 30
0.0
 10
2.0291
 20
26.2353
 30
0.0
 10
2.0958
 20
26.3154
 30
0.0
 10
2.1554
 20
26.4119
 30
0.0
 10
2.2076
 20
26.5256
 30
0.0
 10
2.2076
 20
26.5256
 30
0.0
 10
2.2598
 20
26.6388
 30
0.0
 10
2.3007
 20
26.7695
 30
0.0
 10
2.3307
 20
26.9175
 30
0.0
 10
2.3307
 20
26.9175
 30
0.0
 10
2.3607
 20
27.0656
 30
0.0
 10
2.3762
 20
27.2311
 30
0.0
 10
2.3767
 20
27.4148
 30
0.0
 10
2.3767
 20
27.4148
 30
0.0
 10
2.3767
 20
27.5785
 30
0.0
 10
2.3612
 20
27.7252
 30
0.0
 10
2.3307
 20
27.8565
 30
0.0
 10
2.3307
 20
27.8565
 30
0.0
 10
2.3001
 20
27.9878
 30
0.0
 10
2.2557
 20
28.0997
 30
0.0
 10
2.1977
 20
28.193
 30
0.0
 10
2.1977
 20
28.193
 30
0.0
 10
2.1397
 20
28.286
 30
0.0
 10
2.07
 20
28.3571
 30
0.0
 10
1.9876
 20
28.4069
 30
0.0
 10
1.9876
 20
28.4069
 30
0.0
 10
1.9054
 20
28.4568
 30
0.0
 10
1.8127
 20
28.4813
 30
0.0
 10
1.7093
 20
28.4819
 30
0.0
 10
1.7093
 20
28.4819
 30
0.0
 10
1.6059
 20
28.4813
 30
0.0
 10
1.5117
 20
28.4568
 30
0.0
 10
1.4274
 20
28.4089
 30
0.0
 10
1.4274
 20
28.4089
 30
0.0
 10
1.343
 20
28.3617
 30
0.0
 10
1.2706
 20
28.2957
 30
0.0
 10
1.21
 20
28.2129
 30
0.0
 10
1.21
 20
28.2129
 30
0.0
 10
1.149
 20
28.1295
 30
0.0
 10
1.1024
 20
28.0344
 30
0.0
 10
1.0698
 20
27.927
 30
0.0
 10
1.0698
 20
27.927
 30
0.0
 10
1.0373
 20
27.8197
 30
0.0
 10
1.0208
 20
27.7059
 30
0.0
 10
1.0202
 20
27.5855
 30
0.0
 10
1.0202
 20
27.5855
 30
0.0
 10
1.0208
 20
27.4776
 30
0.0
 10
1.0347
 20
27.3768
 30
0.0
 10
1.0621
 20
27.2835
 30
0.0
 10
1.0621
 20
27.2835
 30
0.0
 10
1.0901
 20
27.1899
 30
0.0
 10
1.13
 20
27.1083
 30
0.0
 10
1.1816
 20
27.0378
 30
0.0
 10
1.1816
 20
27.0378
 30
0.0
 10
1.2334
 20
26.968
 30
0.0
 10
1.296
 20
26.913
 30
0.0
 10
1.3684
 20
26.8735
 30
0.0
 10
1.3684
 20
26.8735
 30
0.0
 10
1.4413
 20
26.8341
 30
0.0
 10
1.5226
 20
26.8142
 30
0.0
 10
1.6132
 20
26.8135
 30
0.0
 10
1.6132
 20
26.8135
 30
0.0
 10
1.7156
 20
26.8142
 30
0.0
 10
1.8072
 20
26.8373
 30
0.0
 10
1.8874
 20
26.8832
 30
0.0
 10
1.8874
 20
26.8832
 30
0.0
 10
1.967
 20
26.9291
 30
0.0
 10
2.0353
 20
26.9951
 30
0.0
 10
2.0911
 20
27.0812
 30
0.0
 10
2.0911
 20
27.0812
 30
0.0
 10
2.0911
 20
27.0812
 30
0.0
 10
2.1004
 20
27.0812
 30
0.0
 10
2.1004
 20
27.0812
 30
0.0
 10
2.1004
 20
27.0812
 30
0.0
 10
2.0813
 20
26.9338
 30
0.0
 10
2.0488
 20
26.8043
 30
0.0
 10
2.0031
 20
26.6938
 30
0.0
 10
2.0031
 20
26.6938
 30
0.0
 10
1.9572
 20
26.5826
 30
0.0
 10
1.9007
 20
26.4894
 30
0.0
 10
1.8336
 20
26.4137
 30
0.0
 10
1.8336
 20
26.4137
 30
0.0
 10
1.7756
 20
26.3439
 30
0.0
 10
1.7109
 20
26.2896
 30
0.0
 10
1.639
 20
26.2494
 30
0.0
 10
1.639
 20
26.2494
 30
0.0
 10
1.5671
 20
26.2094
 30
0.0
 10
1.4911
 20
26.1829
 30
0.0
 10
1.4113
 20
26.1693
 30
0.0
 10
1.4113
 20
26.1693
 30
0.0
 10
1.3653
 20
26.1635
 30
0.0
 10
1.3239
 20
26.159
 30
0.0
 10
1.2882
 20
26.1563
 30
0.0
 10
1.2882
 20
26.1563
 30
0.0
 10
1.2525
 20
26.1538
 30
0.0
 10
1.2199
 20
26.1538
 30
0.0
 10
1.1909
 20
26.1576
 30
0.0
 10
1.1909
 20
26.1576
 30
0.0
 10
1.1909
 20
26.1576
 30
0.0
 10
1.1909
 20
25.8784
 30
0.0
 10
1.1909
 20
25.8784
 30
0.0
  0
SPLINE
  5
182
330
1F
100
AcDbEntity
  8
Ilustrace
 62
   250
100
AcDbSpline
210
0.0
220
0.0
230
1.0
 70
    11
 71
     3
 72
    64
 73
    60
 74
     0
 42
0.0000000001
 43
0.0000000001
 40
0.0
 40
0.0
 40
0.0
 40
0.0
 40
0.0625
 40
0.0625
 40
0.0625
 40
0.0625
 40
0.125
 40
0.125
 40
0.125
 40
0.125
 40
0.1875
 40
0.1875
 40
0.1875
 40
0.1875
 40
0.25
 40
0.25
 40
0.25
 40
0.25
 40
0.3125
 40
0.3125
 40
0.3125
 40
0.3125
 40
0.375
 40
0.375
 40
0.375
 40
0.375
 40
0.4375
 40
0.4375
 40
0.4375
 40
0.4375
 40
0.5
 40
0.5
 40
0.5
 40
0.5
 40
0.5625
 40
0.5625
 40
0.5625
 40
0.5625
 40
0.625
 40
0.625
 40
0.625
 40
0.625
 40
0.6875
 40
0.6875
 40
0.6875
 40
0.6875
 40
0.75
 40
0.75
 40
0.75
 40
0.75
 40
0.8125
 40
0.8125
 40
0.8125
 40
0.8125
 40
0.875
 40
0.875
 40
0.875
 40
0.875
 40
1.0
 40
1.0
 40
1.0
 40
1.0
 10
1.6845
 20
28.222
 30
0.0
 10
1.7564
 20
28.2213
 30
0.0
 10
1.8191
 20
28.2019
 30
0.0
 10
1.8713
 20
28.1637
 30
0.0
 10
1.8713
 20
28.1637
 30
0.0
 10
1.9235
 20
28.1255
 30
0.0
 10
1.967
 20
28.0719
 30
0.0
 10
2.0006
 20
28.0034
 30
0.0
 10
2.0006
 20
28.0034
 30
0.0
 10
2.0347
 20
27.9349
 30
0.0
 10
2.0597
 20
27.854
 30
0.0
 10
2.0762
 20
27.7622
 30
0.0
 10
2.0762
 20
27.7622
 30
0.0
 10
2.0927
 20
27.6696
 30
0.0
 10
2.1004
 20
27.5694
 30
0.0
 10
2.1004
 20
27.4614
 30
0.0
 10
2.1004
 20
27.4614
 30
0.0
 10
2.1004
 20
27.4329
 30
0.0
 10
2.0984
 20
27.4083
 30
0.0
 10
2.0938
 20
27.389
 30
0.0
 10
2.0938
 20
27.389
 30
0.0
 10
2.0897
 20
27.3689
 30
0.0
 10
2.0833
 20
27.3502
 30
0.0
 10
2.0756
 20
27.3334
 30
0.0
 10
2.0756
 20
27.3334
 30
0.0
 10
2.0518
 20
27.2823
 30
0.0
 10
2.0202
 20
27.2371
 30
0.0
 10
1.9815
 20
27.1976
 30
0.0
 10
1.9815
 20
27.1976
 30
0.0
 10
1.9432
 20
27.1582
 30
0.0
 10
1.8981
 20
27.1271
 30
0.0
 10
1.8469
 20
27.1045
 30
0.0
 10
1.8469
 20
27.1045
 30
0.0
 10
1.7957
 20
27.0818
 30
0.0
 10
1.7393
 20
27.0701
 30
0.0
 10
1.6783
 20
27.0696
 30
0.0
 10
1.6783
 20
27.0696
 30
0.0
 10
1.5991
 20
27.0701
 30
0.0
 10
1.5308
 20
27.0934
 30
0.0
 10
1.4729
 20
27.1388
 30
0.0
 10
1.4729
 20
27.1388
 30
0.0
 10
1.4149
 20
27.184
 30
0.0
 10
1.37
 20
27.246
 30
0.0
 10
1.3384
 20
27.3262
 30
0.0
 10
1.3384
 20
27.3262
 30
0.0
 10
1.3069
 20
27.4065
 30
0.0
 10
1.2908
 20
27.4996
 30
0.0
 10
1.2902
 20
27.6051
 30
0.0
 10
1.2902
 20
27.6051
 30
0.0
 10
1.2908
 20
27.7267
 30
0.0
 10
1.3079
 20
27.8334
 30
0.0
 10
1.3414
 20
27.9252
 30
0.0
 10
1.3414
 20
27.9252
 30
0.0
 10
1.3752
 20
28.0176
 30
0.0
 10
1.4212
 20
28.09
 30
0.0
 10
1.4802
 20
28.1424
 30
0.0
 10
1.4802
 20
28.1424
 30
0.0
 10
1.5391
 20
28.1948
 30
0.0
 10
1.6074
 20
28.2213
 30
0.0
 10
1.6845
 20
28.222
 30
0.0
  0
SPLINE
  5
183
330
1F
100
AcDbEntity
  8
Ilustrace
 62
   250
100
AcDbSpline
210
0.0
220
0.0
230
1.0
 70
    11
 71
     3
 72
   124
 73
   120
 74
     0
 42
0.0000000001
 43
0.0000000001
 40
0.0
 40
0.0
 40
0.0
 40
0.0
 40
0.032258064516129
 40
0.032258064516129
 40
0.032258064516129
 40
0.032258064516129
 40
0.0645161290322581
 40
0.0645161290322581
 40
0.0645161290322581
 40
0.0645161290322581
 40
0.0967741935483871
 40
0.0967741935483871
 40
0.0967741935483871
 40
0.0967741935483871
 40
0.1290322580645161
 40
0.1290322580645161
 40
0.1290322580645161
 40
0.1290322580645161
 40
0.1612903225806452
 40
0.1612903225806452
 40
0.1612903225806452
 40
0.1612903225806452
 40
0.1935483870967742
 40
0.1935483870967742
 40
0.1935483870967742
 40
0.1935483870967742
 40
0.2258064516129032
 40
0.2258064516129032
 40
0.2258064516129032
 40
0.2258064516129032
 40
0.2580645161290323
 40
0.2580645161290323
 40
0.2580645161290323
 40
0.2580645161290323
 40
0.2903225806451613
 40
0.2903225806451613
 40
0.2903225806451613
 40
0.2903225806451613
 40
0.3225806451612903
 40
0.3225806451612903
 40
0.3225806451612903
 40
0.3225806451612903
 40
0.3548387096774194
 40
0.3548387096774194
 40
0.3548387096774194
 40
0.3548387096774194
 40
0.3870967741935484
 40
0.3870967741935484
 40
0.3870967741935484
 40
0.3870967741935484
 40
0.4193548387096774
 40
0.4193548387096774
 40
0.4193548387096774
 40
0.4193548387096774
 40
0.4516129032258064
 40
0.4516129032258064
 40
0.4516129032258064
 40
0.4516129032258064
 40
0.4838709677419355
 40
0.4838709677419355
 40
0.4838709677419355
 40
0.4838709677419355
 40
0.5161290322580645
 40
0.5161290322580645
 40
0.5161290322580645
 40
0.5161290322580645
 40
0.5483870967741935
 40
0.5483870967741935
 40
0.5483870967741935
 40
0.5483870967741935
 40
0.5806451612903226
 40
0.5806451612903226
 40
0.5806451612903226
 40
0.5806451612903226
 40
0.6129032258064516
 40
0.6129032258064516
 40
0.6129032258064516
 40
0.6129032258064516
 40
0.6451612903225806
 40
0.6451612903225806
 40
0.6451612903225806
 40
0.6451612903225806
 40
0.6774193548387096
 40
0.6774193548387096
 40
0.6774193548387096
 40
0.6774193548387096
 40
0.7096774193548387
 40
0.7096774193548387
 40
0.7096774193548387
 40
0.7096774193548387
 40
0.7419354838709677
 40
0.7419354838709677
 40
0.7419354838709677
 40
0.7419354838709677
 40
0.7741935483870968
 40
0.7741935483870968
 40
0.7741935483870968
 40
0.7741935483870968
 40
0.8064516129032258
 40
0.8064516129032258
 40
0.8064516129032258
 40
0.8064516129032258
 40
0.8387096774193549
 40
0.8387096774193549
 40
0.8387096774193549
 40
0.8387096774193549
 40
0.8709677419354839
 40
0.8709677419354839
 40
0.8709677419354839
 40
0.8709677419354839
 40
0.9032258064516129
 40
0.9032258064516129
 40
0.9032258064516129
 40
0.9032258064516129
 40
0.9354838709677419
 40
0.9354838709677419
 40
0.9354838709677419
 40
0.9354838709677419
 40
1.0
 40
1.0
 40
1.0
 40
1.0
 10
-35.0235
 20
-6.8208
 30
0.0
 10
-35.0235
 20
-6.8208
 30
0.0
 10
-35.3067
 20
-6.8208
 30
0.0
 10
-35.3067
 20
-6.8208
 30
0.0
 10
-35.3067
 20
-6.8208
 30
0.0
 10
-35.3067
 20
-6.8208
 30
0.0
 10
-35.3067
 20
-7.7243
 30
0.0
 10
-35.3067
 20
-7.7243
 30
0.0
 10
-35.3067
 20
-7.7243
 30
0.0
 10
-35.3067
 20
-7.7243
 30
0.0
 10
-35.3146
 20
-7.7243
 30
0.0
 10
-35.3146
 20
-7.7243
 30
0.0
 10
-35.3146
 20
-7.7243
 30
0.0
 10
-35.3146
 20
-7.7243
 30
0.0
 10
-35.5007
 20
-7.5659
 30
0.0
 10
-35.5007
 20
-7.5659
 30
0.0
 10
-35.5007
 20
-7.5659
 30
0.0
 10
-35.6282
 20
-7.4593
 30
0.0
 10
-35.7491
 20
-7.3631
 30
0.0
 10
-35.863
 20
-7.2778
 30
0.0
 10
-35.863
 20
-7.2778
 30
0.0
 10
-35.9767
 20
-7.1924
 30
0.0
 10
-36.0879
 20
-7.1194
 30
0.0
 10
-36.1953
 20
-7.0588
 30
0.0
 10
-36.1953
 20
-7.0588
 30
0.0
 10
-36.3028
 20
-6.9979
 30
0.0
 10
-36.4107
 20
-6.9518
 30
0.0
 10
-36.5194
 20
-6.9192
 30
0.0
 10
-36.5194
 20
-6.9192
 30
0.0
 10
-36.6274
 20
-6.8871
 30
0.0
 10
-36.7393
 20
-6.871
 30
0.0
 10
-36.8549
 20
-6.8706
 30
0.0
 10
-36.8549
 20
-6.8706
 30
0.0
 10
-36.9462
 20
-6.8706
 30
0.0
 10
-37.0354
 20
-6.8819
 30
0.0
 10
-37.122
 20
-6.9057
 30
0.0
 10
-37.122
 20
-6.9057
 30
0.0
 10
-37.2088
 20
-6.9296
 30
0.0
 10
-37.287
 20
-6.9667
 30
0.0
 10
-37.3567
 20
-7.0165
 30
0.0
 10
-37.3567
 20
-7.0165
 30
0.0
 10
-37.4274
 20
-7.0661
 30
0.0
 10
-37.483
 20
-7.1303
 30
0.0
 10
-37.5243
 20
-7.2083
 30
0.0
 10
-37.5243
 20
-7.2083
 30
0.0
 10
-37.5664
 20
-7.2865
 30
0.0
 10
-37.5877
 20
-7.3796
 30
0.0
 10
-37.5883
 20
-7.4882
 30
0.0
 10
-37.5883
 20
-7.4882
 30
0.0
 10
-37.5877
 20
-7.5649
 30
0.0
 10
-37.5766
 20
-7.6377
 30
0.0
 10
-37.554
 20
-7.7072
 30
0.0
 10
-37.554
 20
-7.7072
 30
0.0
 10
-37.5314
 20
-7.7765
 30
0.0
 10
-37.5011
 20
-7.8406
 30
0.0
 10
-37.4622
 20
-7.8996
 30
0.0
 10
-37.4622
 20
-7.8996
 30
0.0
 10
-37.424
 20
-7.958
 30
0.0
 10
-37.3808
 20
-8.0103
 30
0.0
 10
-37.3322
 20
-8.0564
 30
0.0
 10
-37.3322
 20
-8.0564
 30
0.0
 10
-37.3322
 20
-8.0564
 30
0.0
 10
-37.0917
 20
-7.9695
 30
0.0
 10
-37.0917
 20
-7.9695
 30
0.0
 10
-37.0917
 20
-7.9695
 30
0.0
 10
-37.1247
 20
-7.9383
 30
0.0
 10
-37.1577
 20
-7.9012
 30
0.0
 10
-37.19
 20
-7.8577
 30
0.0
 10
-37.19
 20
-7.8577
 30
0.0
 10
-37.223
 20
-7.8142
 30
0.0
 10
-37.2495
 20
-7.7662
 30
0.0
 10
-37.2714
 20
-7.7128
 30
0.0
 10
-37.2714
 20
-7.7128
 30
0.0
 10
-37.2927
 20
-7.6596
 30
0.0
 10
-37.3044
 20
-7.6022
 30
0.0
 10
-37.3051
 20
-7.541
 30
0.0
 10
-37.3051
 20
-7.541
 30
0.0
 10
-37.3044
 20
-7.466
 30
0.0
 10
-37.2909
 20
-7.4029
 30
0.0
 10
-37.2644
 20
-7.3517
 30
0.0
 10
-37.2644
 20
-7.3517
 30
0.0
 10
-37.2371
 20
-7.301
 30
0.0
 10
-37.2009
 20
-7.2601
 30
0.0
 10
-37.155
 20
-7.2296
 30
0.0
 10
-37.155
 20
-7.2296
 30
0.0
 10
-37.1085
 20
-7.199
 30
0.0
 10
-37.0562
 20
-7.1768
 30
0.0
 10
-36.9973
 20
-7.1634
 30
0.0
 10
-36.9973
 20
-7.1634
 30
0.0
 10
-36.9383
 20
-7.1499
 30
0.0
 10
-36.877
 20
-7.1432
 30
0.0
 10
-36.8123
 20
-7.1438
 30
0.0
 10
-36.8123
 20
-7.1438
 30
0.0
 10
-36.7179
 20
-7.1438
 30
0.0
 10
-36.6247
 20
-7.1587
 30
0.0
 10
-36.5323
 20
-7.1887
 30
0.0
 10
-36.5323
 20
-7.1887
 30
0.0
 10
-36.4392
 20
-7.2187
 30
0.0
 10
-36.3422
 20
-7.2643
 30
0.0
 10
-36.24
 20
-7.3258
 30
0.0
 10
-36.24
 20
-7.3258
 30
0.0
 10
-36.1378
 20
-7.3874
 30
0.0
 10
-36.0258
 20
-7.4656
 30
0.0
 10
-35.9043
 20
-7.5601
 30
0.0
 10
-35.9043
 20
-7.5601
 30
0.0
 10
-35.7827
 20
-7.6544
 30
0.0
 10
-35.6456
 20
-7.7662
 30
0.0
 10
-35.493
 20
-7.8948
 30
0.0
 10
-35.493
 20
-7.8948
 30
0.0
 10
-35.493
 20
-7.8948
 30
0.0
 10
-35.233
 20
-8.1091
 30
0.0
 10
-35.233
 20
-8.1091
 30
0.0
 10
-35.233
 20
-8.1091
 30
0.0
 10
-35.233
 20
-8.1091
 30
0.0
 10
-35.0235
 20
-8.1091
 30
0.0
 10
-35.0235
 20
-8.1091
 30
0.0
 10
-35.0235
 20
-8.1091
 30
0.0
 10
-35.0235
 20
-8.1091
 30
0.0
 10
-35.0235
 20
-6.8208
 30
0.0
 10
-35.0235
 20
-6.8208
 30
0.0
  0
SPLINE
  5
184
330
1F
100
AcDbEntity
  8
Ilustrace
 62
   250
100
AcDbSpline
210
0.0
220
0.0
230
1.0
 70
    11
 71
     3
 72
    48
 73
    44
 74
     0
 42
0.0000000001
 43
0.0000000001
 40
0.0
 40
0.0
 40
0.0
 40
0.0
 40
0.0833333333333333
 40
0.0833333333333333
 40
0.0833333333333333
 40
0.0833333333333333
 40
0.1666666666666667
 40
0.1666666666666667
 40
0.1666666666666667
 40
0.1666666666666667
 40
0.25
 40
0.25
 40
0.25
 40
0.25
 40
0.3333333333333333
 40
0.3333333333333333
 40
0.3333333333333333
 40
0.3333333333333333
 40
0.4166666666666667
 40
0.4166666666666667
 40
0.4166666666666667
 40
0.4166666666666667
 40
0.5
 40
0.5
 40
0.5
 40
0.5
 40
0.5833333333333334
 40
0.5833333333333334
 40
0.5833333333333334
 40
0.5833333333333334
 40
0.6666666666666666
 40
0.6666666666666666
 40
0.6666666666666666
 40
0.6666666666666666
 40
0.75
 40
0.75
 40
0.75
 40
0.75
 40
0.8333333333333334
 40
0.8333333333333334
 40
0.8333333333333334
 40
0.8333333333333334
 40
1.0
 40
1.0
 40
1.0
 40
1.0
 10
-35.0235
 20
-5.4148
 30
0.0
 10
-35.0235
 20
-5.4148
 30
0.0
 10
-35.7141
 20
-5.4148
 30
0.0
 10
-35.7141
 20
-5.4148
 30
0.0
 10
-35.7141
 20
-5.4148
 30
0.0
 10
-35.7141
 20
-5.4148
 30
0.0
 10
-35.7141
 20
-5.1323
 30
0.0
 10
-35.7141
 20
-5.1323
 30
0.0
 10
-35.7141
 20
-5.1323
 30
0.0
 10
-35.7141
 20
-5.1323
 30
0.0
 10
-35.978
 20
-5.1323
 30
0.0
 10
-35.978
 20
-5.1323
 30
0.0
 10
-35.978
 20
-5.1323
 30
0.0
 10
-35.978
 20
-5.1323
 30
0.0
 10
-35.978
 20
-5.4148
 30
0.0
 10
-35.978
 20
-5.4148
 30
0.0
 10
-35.978
 20
-5.4148
 30
0.0
 10
-35.978
 20
-5.4148
 30
0.0
 10
-37.5456
 20
-5.4148
 30
0.0
 10
-37.5456
 20
-5.4148
 30
0.0
 10
-37.5456
 20
-5.4148
 30
0.0
 10
-37.5456
 20
-5.4148
 30
0.0
 10
-37.5456
 20
-5.7096
 30
0.0
 10
-37.5456
 20
-5.7096
 30
0.0
 10
-37.5456
 20
-5.7096
 30
0.0
 10
-37.5456
 20
-5.7096
 30
0.0
 10
-35.9353
 20
-6.6098
 30
0.0
 10
-35.9353
 20
-6.6098
 30
0.0
 10
-35.9353
 20
-6.6098
 30
0.0
 10
-35.9353
 20
-6.6098
 30
0.0
 10
-35.7141
 20
-6.6098
 30
0.0
 10
-35.7141
 20
-6.6098
 30
0.0
 10
-35.7141
 20
-6.6098
 30
0.0
 10
-35.7141
 20
-6.6098
 30
0.0
 10
-35.7141
 20
-5.6723
 30
0.0
 10
-35.7141
 20
-5.6723
 30
0.0
 10
-35.7141
 20
-5.6723
 30
0.0
 10
-35.7141
 20
-5.6723
 30
0.0
 10
-35.0235
 20
-5.6723
 30
0.0
 10
-35.0235
 20
-5.6723
 30
0.0
 10
-35.0235
 20
-5.6723
 30
0.0
 10
-35.0235
 20
-5.6723
 30
0.0
 10
-35.0235
 20
-5.4148
 30
0.0
 10
-35.0235
 20
-5.4148
 30
0.0
  0
SPLINE
  5
185
330
1F
100
AcDbEntity
  8
Ilustrace
 62
   250
100
AcDbSpline
210
0.0
220
0.0
230
1.0
 70
    11
 71
     3
 72
    36
 73
    32
 74
     0
 42
0.0000000001
 43
0.0000000001
 40
0.0
 40
0.0
 40
0.0
 40
0.0
 40
0.1111111111111111
 40
0.1111111111111111
 40
0.1111111111111111
 40
0.1111111111111111
 40
0.2222222222222222
 40
0.2222222222222222
 40
0.2222222222222222
 40
0.2222222222222222
 40
0.3333333333333333
 40
0.3333333333333333
 40
0.3333333333333333
 40
0.3333333333333333
 40
0.4444444444444444
 40
0.4444444444444444
 40
0.4444444444444444
 40
0.4444444444444444
 40
0.5555555555555556
 40
0.5555555555555556
 40
0.5555555555555556
 40
0.5555555555555556
 40
0.6666666666666666
 40
0.6666666666666666
 40
0.6666666666666666
 40
0.6666666666666666
 40
0.7777777777777778
 40
0.7777777777777778
 40
0.7777777777777778
 40
0.7777777777777778
 40
1.0
 40
1.0
 40
1.0
 40
1.0
 10
-35.978
 20
-6.3336
 30
0.0
 10
-35.978
 20
-6.3336
 30
0.0
 10
-35.9859
 20
-6.3336
 30
0.0
 10
-35.9859
 20
-6.3336
 30
0.0
 10
-35.9859
 20
-6.3336
 30
0.0
 10
-35.9859
 20
-6.3336
 30
0.0
 10
-36.8433
 20
-5.84
 30
0.0
 10
-36.8433
 20
-5.84
 30
0.0
 10
-36.8433
 20
-5.84
 30
0.0
 10
-36.9009
 20
-5.8126
 30
0.0
 10
-36.9591
 20
-5.7851
 30
0.0
 10
-37.018
 20
-5.7582
 30
0.0
 10
-37.018
 20
-5.7582
 30
0.0
 10
-37.0775
 20
-5.7318
 30
0.0
 10
-37.1433
 20
-5.7029
 30
0.0
 10
-37.2158
 20
-5.6723
 30
0.0
 10
-37.2158
 20
-5.6723
 30
0.0
 10
-37.2158
 20
-5.6723
 30
0.0
 10
-37.2158
 20
-5.663
 30
0.0
 10
-37.2158
 20
-5.663
 30
0.0
 10
-37.2158
 20
-5.663
 30
0.0
 10
-37.084
 20
-5.6693
 30
0.0
 10
-36.952
 20
-5.6723
 30
0.0
 10
-36.82
 20
-5.6723
 30
0.0
 10
-36.82
 20
-5.6723
 30
0.0
 10
-36.82
 20
-5.6723
 30
0.0
 10
-35.978
 20
-5.6723
 30
0.0
 10
-35.978
 20
-5.6723
 30
0.0
 10
-35.978
 20
-5.6723
 30
0.0
 10
-35.978
 20
-5.6723
 30
0.0
 10
-35.978
 20
-6.3336
 30
0.0
 10
-35.978
 20
-6.3336
 30
0.0
  0
SPLINE
  5
186
330
1F
100
AcDbEntity
  8
Ilustrace
 62
   250
100
AcDbSpline
210
0.0
220
0.0
230
1.0
 70
    11
 71
     3
 72
   124
 73
   120
 74
     0
 42
0.0000000001
 43
0.0000000001
 40
0.0
 40
0.0
 40
0.0
 40
0.0
 40
0.032258064516129
 40
0.032258064516129
 40
0.032258064516129
 40
0.032258064516129
 40
0.0645161290322581
 40
0.0645161290322581
 40
0.0645161290322581
 40
0.0645161290322581
 40
0.0967741935483871
 40
0.0967741935483871
 40
0.0967741935483871
 40
0.0967741935483871
 40
0.1290322580645161
 40
0.1290322580645161
 40
0.1290322580645161
 40
0.1290322580645161
 40
0.1612903225806452
 40
0.1612903225806452
 40
0.1612903225806452
 40
0.1612903225806452
 40
0.1935483870967742
 40
0.1935483870967742
 40
0.1935483870967742
 40
0.1935483870967742
 40
0.2258064516129032
 40
0.2258064516129032
 40
0.2258064516129032
 40
0.2258064516129032
 40
0.2580645161290323
 40
0.2580645161290323
 40
0.2580645161290323
 40
0.2580645161290323
 40
0.2903225806451613
 40
0.2903225806451613
 40
0.2903225806451613
 40
0.2903225806451613
 40
0.3225806451612903
 40
0.3225806451612903
 40
0.3225806451612903
 40
0.3225806451612903
 40
0.3548387096774194
 40
0.3548387096774194
 40
0.3548387096774194
 40
0.3548387096774194
 40
0.3870967741935484
 40
0.3870967741935484
 40
0.3870967741935484
 40
0.3870967741935484
 40
0.4193548387096774
 40
0.4193548387096774
 40
0.4193548387096774
 40
0.4193548387096774
 40
0.4516129032258064
 40
0.4516129032258064
 40
0.4516129032258064
 40
0.4516129032258064
 40
0.4838709677419355
 40
0.4838709677419355
 40
0.4838709677419355
 40
0.4838709677419355
 40
0.5161290322580645
 40
0.5161290322580645
 40
0.5161290322580645
 40
0.5161290322580645
 40
0.5483870967741935
 40
0.5483870967741935
 40
0.5483870967741935
 40
0.5483870967741935
 40
0.5806451612903226
 40
0.5806451612903226
 40
0.5806451612903226
 40
0.5806451612903226
 40
0.6129032258064516
 40
0.6129032258064516
 40
0.6129032258064516
 40
0.6129032258064516
 40
0.6451612903225806
 40
0.6451612903225806
 40
0.6451612903225806
 40
0.6451612903225806
 40
0.6774193548387096
 40
0.6774193548387096
 40
0.6774193548387096
 40
0.6774193548387096
 40
0.7096774193548387
 40
0.7096774193548387
 40
0.7096774193548387
 40
0.7096774193548387
 40
0.7419354838709677
 40
0.7419354838709677
 40
0.7419354838709677
 40
0.7419354838709677
 40
0.7741935483870968
 40
0.7741935483870968
 40
0.7741935483870968
 40
0.7741935483870968
 40
0.8064516129032258
 40
0.8064516129032258
 40
0.8064516129032258
 40
0.8064516129032258
 40
0.8387096774193549
 40
0.8387096774193549
 40
0.8387096774193549
 40
0.8387096774193549
 40
0.8709677419354839
 40
0.8709677419354839
 40
0.8709677419354839
 40
0.8709677419354839
 40
0.9032258064516129
 40
0.9032258064516129
 40
0.9032258064516129
 40
0.9032258064516129
 40
0.9354838709677419
 40
0.9354838709677419
 40
0.9354838709677419
 40
0.9354838709677419
 40
1.0
 40
1.0
 40
1.0
 40
1.0
 10
-34.9848
 20
-4.766
 30
0.0
 10
-34.9828
 20
-4.7334
 30
0.0
 10
-34.9828
 20
-4.6957
 30
0.0
 10
-34.986
 20
-4.6532
 30
0.0
 10
-34.986
 20
-4.6532
 30
0.0
 10
-34.9885
 20
-4.6107
 30
0.0
 10
-34.9944
 20
-4.5642
 30
0.0
 10
-35.0041
 20
-4.5145
 30
0.0
 10
-35.0041
 20
-4.5145
 30
0.0
 10
-35.0145
 20
-4.4416
 30
0.0
 10
-35.0344
 20
-4.3701
 30
0.0
 10
-35.063
 20
-4.3004
 30
0.0
 10
-35.063
 20
-4.3004
 30
0.0
 10
-35.092
 20
-4.2305
 30
0.0
 10
-35.1302
 20
-4.1638
 30
0.0
 10
-35.1768
 20
-4.1007
 30
0.0
 10
-35.1768
 20
-4.1007
 30
0.0
 10
-35.2233
 20
-4.0376
 30
0.0
 10
-35.2783
 20
-3.98
 30
0.0
 10
-35.3417
 20
-3.9278
 30
0.0
 10
-35.3417
 20
-3.9278
 30
0.0
 10
-35.4218
 20
-3.8611
 30
0.0
 10
-35.5183
 20
-3.8015
 30
0.0
 10
-35.632
 20
-3.7493
 30
0.0
 10
-35.632
 20
-3.7493
 30
0.0
 10
-35.7452
 20
-3.6971
 30
0.0
 10
-35.8759
 20
-3.6562
 30
0.0
 10
-36.0239
 20
-3.6262
 30
0.0
 10
-36.0239
 20
-3.6262
 30
0.0
 10
-36.172
 20
-3.5962
 30
0.0
 10
-36.3375
 20
-3.5807
 30
0.0
 10
-36.5212
 20
-3.5802
 30
0.0
 10
-36.5212
 20
-3.5802
 30
0.0
 10
-36.6849
 20
-3.5802
 30
0.0
 10
-36.8316
 20
-3.5957
 30
0.0
 10
-36.9629
 20
-3.6262
 30
0.0
 10
-36.9629
 20
-3.6262
 30
0.0
 10
-37.0942
 20
-3.6568
 30
0.0
 10
-37.2061
 20
-3.7012
 30
0.0
 10
-37.2994
 20
-3.7592
 30
0.0
 10
-37.2994
 20
-3.7592
 30
0.0
 10
-37.3924
 20
-3.8172
 30
0.0
 10
-37.4635
 20
-3.8869
 30
0.0
 10
-37.5133
 20
-3.9693
 30
0.0
 10
-37.5133
 20
-3.9693
 30
0.0
 10
-37.5632
 20
-4.0515
 30
0.0
 10
-37.5877
 20
-4.1442
 30
0.0
 10
-37.5883
 20
-4.2476
 30
0.0
 10
-37.5883
 20
-4.2476
 30
0.0
 10
-37.5877
 20
-4.351
 30
0.0
 10
-37.5632
 20
-4.4452
 30
0.0
 10
-37.5153
 20
-4.5295
 30
0.0
 10
-37.5153
 20
-4.5295
 30
0.0
 10
-37.4681
 20
-4.6139
 30
0.0
 10
-37.4021
 20
-4.6863
 30
0.0
 10
-37.3193
 20
-4.7469
 30
0.0
 10
-37.3193
 20
-4.7469
 30
0.0
 10
-37.2359
 20
-4.8079
 30
0.0
 10
-37.1408
 20
-4.8545
 30
0.0
 10
-37.0334
 20
-4.8871
 30
0.0
 10
-37.0334
 20
-4.8871
 30
0.0
 10
-36.9261
 20
-4.9196
 30
0.0
 10
-36.8123
 20
-4.9361
 30
0.0
 10
-36.6919
 20
-4.9367
 30
0.0
 10
-36.6919
 20
-4.9367
 30
0.0
 10
-36.584
 20
-4.9361
 30
0.0
 10
-36.4832
 20
-4.9222
 30
0.0
 10
-36.3899
 20
-4.8948
 30
0.0
 10
-36.3899
 20
-4.8948
 30
0.0
 10
-36.2963
 20
-4.8668
 30
0.0
 10
-36.2147
 20
-4.8269
 30
0.0
 10
-36.1442
 20
-4.7753
 30
0.0
 10
-36.1442
 20
-4.7753
 30
0.0
 10
-36.0744
 20
-4.7235
 30
0.0
 10
-36.0194
 20
-4.6609
 30
0.0
 10
-35.9799
 20
-4.5885
 30
0.0
 10
-35.9799
 20
-4.5885
 30
0.0
 10
-35.9405
 20
-4.5156
 30
0.0
 10
-35.9206
 20
-4.4343
 30
0.0
 10
-35.9199
 20
-4.3437
 30
0.0
 10
-35.9199
 20
-4.3437
 30
0.0
 10
-35.9206
 20
-4.2413
 30
0.0
 10
-35.9437
 20
-4.1497
 30
0.0
 10
-35.9896
 20
-4.0695
 30
0.0
 10
-35.9896
 20
-4.0695
 30
0.0
 10
-36.0355
 20
-3.9899
 30
0.0
 10
-36.1015
 20
-3.9216
 30
0.0
 10
-36.1876
 20
-3.8658
 30
0.0
 10
-36.1876
 20
-3.8658
 30
0.0
 10
-36.1876
 20
-3.8658
 30
0.0
 10
-36.1876
 20
-3.8565
 30
0.0
 10
-36.1876
 20
-3.8565
 30
0.0
 10
-36.1876
 20
-3.8565
 30
0.0
 10
-36.0402
 20
-3.8756
 30
0.0
 10
-35.9107
 20
-3.9081
 30
0.0
 10
-35.8002
 20
-3.9538
 30
0.0
 10
-35.8002
 20
-3.9538
 30
0.0
 10
-35.689
 20
-3.9997
 30
0.0
 10
-35.5958
 20
-4.0562
 30
0.0
 10
-35.5201
 20
-4.1233
 30
0.0
 10
-35.5201
 20
-4.1233
 30
0.0
 10
-35.4503
 20
-4.1813
 30
0.0
 10
-35.396
 20
-4.246
 30
0.0
 10
-35.3558
 20
-4.3179
 30
0.0
 10
-35.3558
 20
-4.3179
 30
0.0
 10
-35.3158
 20
-4.3898
 30
0.0
 10
-35.2893
 20
-4.4658
 30
0.0
 10
-35.2757
 20
-4.5456
 30
0.0
 10
-35.2757
 20
-4.5456
 30
0.0
 10
-35.2699
 20
-4.5916
 30
0.0
 10
-35.2654
 20
-4.633
 30
0.0
 10
-35.2627
 20
-4.6687
 30
0.0
 10
-35.2627
 20
-4.6687
 30
0.0
 10
-35.2602
 20
-4.7044
 30
0.0
 10
-35.2602
 20
-4.737
 30
0.0
 10
-35.264
 20
-4.766
 30
0.0
 10
-35.264
 20
-4.766
 30
0.0
 10
-35.264
 20
-4.766
 30
0.0
 10
-34.9848
 20
-4.766
 30
0.0
 10
-34.9848
 20
-4.766
 30
0.0
  0
SPLINE
  5
187
330
1F
100
AcDbEntity
  8
Ilustrace
 62
   250
100
AcDbSpline
210
0.0
220
0.0
230
1.0
 70
    11
 71
     3
 72
    64
 73
    60
 74
     0
 42
0.0000000001
 43
0.0000000001
 40
0.0
 40
0.0
 40
0.0
 40
0.0
 40
0.0625
 40
0.0625
 40
0.0625
 40
0.0625
 40
0.125
 40
0.125
 40
0.125
 40
0.125
 40
0.1875
 40
0.1875
 40
0.1875
 40
0.1875
 40
0.25
 40
0.25
 40
0.25
 40
0.25
 40
0.3125
 40
0.3125
 40
0.3125
 40
0.3125
 40
0.375
 40
0.375
 40
0.375
 40
0.375
 40
0.4375
 40
0.4375
 40
0.4375
 40
0.4375
 40
0.5
 40
0.5
 40
0.5
 40
0.5
 40
0.5625
 40
0.5625
 40
0.5625
 40
0.5625
 40
0.625
 40
0.625
 40
0.625
 40
0.625
 40
0.6875
 40
0.6875
 40
0.6875
 40
0.6875
 40
0.75
 40
0.75
 40
0.75
 40
0.75
 40
0.8125
 40
0.8125
 40
0.8125
 40
0.8125
 40
0.875
 40
0.875
 40
0.875
 40
0.875
 40
1.0
 40
1.0
 40
1.0
 40
1.0
 10
-37.3284
 20
-4.2724
 30
0.0
 10
-37.3277
 20
-4.2005
 30
0.0
 10
-37.3083
 20
-4.1378
 30
0.0
 10
-37.2701
 20
-4.0856
 30
0.0
 10
-37.2701
 20
-4.0856
 30
0.0
 10
-37.2319
 20
-4.0334
 30
0.0
 10
-37.1783
 20
-3.9899
 30
0.0
 10
-37.1098
 20
-3.9563
 30
0.0
 10
-37.1098
 20
-3.9563
 30
0.0
 10
-37.0413
 20
-3.9222
 30
0.0
 10
-36.9604
 20
-3.8972
 30
0.0
 10
-36.8686
 20
-3.8807
 30
0.0
 10
-36.8686
 20
-3.8807
 30
0.0
 10
-36.776
 20
-3.8642
 30
0.0
 10
-36.6758
 20
-3.8565
 30
0.0
 10
-36.5678
 20
-3.8565
 30
0.0
 10
-36.5678
 20
-3.8565
 30
0.0
 10
-36.5393
 20
-3.8565
 30
0.0
 10
-36.5147
 20
-3.8585
 30
0.0
 10
-36.4954
 20
-3.8631
 30
0.0
 10
-36.4954
 20
-3.8631
 30
0.0
 10
-36.4753
 20
-3.8672
 30
0.0
 10
-36.4566
 20
-3.8736
 30
0.0
 10
-36.4398
 20
-3.8813
 30
0.0
 10
-36.4398
 20
-3.8813
 30
0.0
 10
-36.3887
 20
-3.9051
 30
0.0
 10
-36.3435
 20
-3.9367
 30
0.0
 10
-36.304
 20
-3.9754
 30
0.0
 10
-36.304
 20
-3.9754
 30
0.0
 10
-36.2646
 20
-4.0137
 30
0.0
 10
-36.2335
 20
-4.0588
 30
0.0
 10
-36.2109
 20
-4.11
 30
0.0
 10
-36.2109
 20
-4.11
 30
0.0
 10
-36.1882
 20
-4.1612
 30
0.0
 10
-36.1765
 20
-4.2176
 30
0.0
 10
-36.176
 20
-4.2786
 30
0.0
 10
-36.176
 20
-4.2786
 30
0.0
 10
-36.1765
 20
-4.3578
 30
0.0
 10
-36.1998
 20
-4.4261
 30
0.0
 10
-36.2452
 20
-4.484
 30
0.0
 10
-36.2452
 20
-4.484
 30
0.0
 10
-36.2904
 20
-4.542
 30
0.0
 10
-36.3524
 20
-4.5869
 30
0.0
 10
-36.4326
 20
-4.6185
 30
0.0
 10
-36.4326
 20
-4.6185
 30
0.0
 10
-36.5129
 20
-4.65
 30
0.0
 10
-36.606
 20
-4.6661
 30
0.0
 10
-36.7115
 20
-4.6667
 30
0.0
 10
-36.7115
 20
-4.6667
 30
0.0
 10
-36.8331
 20
-4.6661
 30
0.0
 10
-36.9398
 20
-4.649
 30
0.0
 10
-37.0316
 20
-4.6155
 30
0.0
 10
-37.0316
 20
-4.6155
 30
0.0
 10
-37.124
 20
-4.5817
 30
0.0
 10
-37.1964
 20
-4.5357
 30
0.0
 10
-37.2488
 20
-4.4767
 30
0.0
 10
-37.2488
 20
-4.4767
 30
0.0
 10
-37.3012
 20
-4.4178
 30
0.0
 10
-37.3277
 20
-4.3495
 30
0.0
 10
-37.3284
 20
-4.2724
 30
0.0
  0
SPLINE
  5
188
330
1F
100
AcDbEntity
  8
Ilustrace
 62
   250
370
    15
100
AcDbSpline
210
0.0
220
0.0
230
1.0
 70
    24
 71
     3
 72
     8
 73
     4
 74
     0
 42
0.0000000001
 43
0.0000000001
 40
0.0
 40
0.0
 40
0.0
 40
0.0
 40
1.0
 40
1.0
 40
1.0
 40
1.0
 10
28.3635
 20
25.3829
 30
0.0
 10
28.3635
 20
25.3829
 30
0.0
 10
-30.4653
 20
25.3829
 30
0.0
 10
-30.4653
 20
25.3829
 30
0.0
  0
SPLINE
  5
189
330
1F
100
AcDbEntity
  8
Ilustrace
 62
   250
370
    15
100
AcDbSpline
210
0.0
220
0.0
230
1.0
 70
    24
 71
     3
 72
     8
 73
     4
 74
     0
 42
0.0000000001
 43
0.0000000001
 40
0.0
 40
0.0
 40
0.0
 40
0.0
 40
1.0
 40
1.0
 40
1.0
 40
1.0
 10
-34.4893
 20
22.4066
 30
0.0
 10
-34.4893
 20
22.4066
 30
0.0
 10
-34.4893
 20
-36.4222
 30
0.0
 10
-34.4893
 20
-36.4222
 30
0.0
  0
SPLINE
  5
18A
330
1F
100
AcDbEntity
  8
Ilustrace
 62
   250
370
     9
100
AcDbSpline
210
0.0
220
0.0
230
1.0
 70
    11
 71
     3
 72
    32
 73
    28
 74
     0
 42
0.0000000001
 43
0.0000000001
 40
0.0
 40
0.0
 40
0.0
 40
0.0
 40
0.125
 40
0.125
 40
0.125
 40
0.125
 40
0.25
 40
0.25
 40
0.25
 40
0.25
 40
0.375
 40
0.375
 40
0.375
 40
0.375
 40
0.5
 40
0.5
 40
0.5
 40
0.5
 40
0.625
 40
0.625
 40
0.625
 40
0.625
 40
0.75
 40
0.75
 40
0.75
 40
0.75
 40
1.0
 40
1.0
 40
1.0
 40
1.0
 10
27.4153
 20
24.9246
 30
0.0
 10
27.4153
 20
24.9246
 30
0.0
 10
27.4153
 20
24.9246
 30
0.0
 10
27.4153
 20
24.9246
 30
0.0
 10
27.4153
 20
24.9246
 30
0.0
 10
27.4153
 20
24.9246
 30
0.0
 10
27.4153
 20
24.9246
 30
0.0
 10
27.4153
 20
24.9246
 30
0.0
 10
27.4153
 20
24.9246
 30
0.0
 10
27.4153
 20
24.9246
 30
0.0
 10
28.6881
 20
25.368
 30
0.0
 10
28.6881
 20
25.368
 30
0.0
 10
28.6881
 20
25.368
 30
0.0
 10
28.6881
 20
25.368
 30
0.0
 10
27.4153
 20
25.8114
 30
0.0
 10
27.4153
 20
25.8114
 30
0.0
 10
27.4153
 20
25.8114
 30
0.0
 10
27.4153
 20
25.8114
 30
0.0
 10
27.4153
 20
25.8114
 30
0.0
 10
27.4153
 20
25.8114
 30
0.0
 10
27.4153
 20
25.8114
 30
0.0
 10
27.4153
 20
25.8114
 30
0.0
 10
27.4153
 20
25.8114
 30
0.0
 10
27.4153
 20
25.8114
 30
0.0
 10
27.4153
 20
25.8114
 30
0.0
 10
27.4153
 20
25.8114
 30
0.0
 10
27.4153
 20
24.9246
 30
0.0
 10
27.4153
 20
24.9246
 30
0.0
  0
SPLINE
  5
18B
330
1F
100
AcDbEntity
  8
Ilustrace
 62
   250
370
     9
100
AcDbSpline
210
0.0
220
0.0
230
1.0
 70
    11
 71
     3
 72
    32
 73
    28
 74
     0
 42
0.0000000001
 43
0.0000000001
 40
0.0
 40
0.0
 40
0.0
 40
0.0
 40
0.125
 40
0.125
 40
0.125
 40
0.125
 40
0.25
 40
0.25
 40
0.25
 40
0.25
 40
0.375
 40
0.375
 40
0.375
 40
0.375
 40
0.5
 40
0.5
 40
0.5
 40
0.5
 40
0.625
 40
0.625
 40
0.625
 40
0.625
 40
0.75
 40
0.75
 40
0.75
 40
0.75
 40
1.0
 40
1.0
 40
1.0
 40
1.0
 10
-34.031
 20
21.4584
 30
0.0
 10
-34.031
 20
21.4584
 30
0.0
 10
-34.031
 20
21.4584
 30
0.0
 10
-34.031
 20
21.4584
 30
0.0
 10
-34.031
 20
21.4584
 30
0.0
 10
-34.031
 20
21.4584
 30
0.0
 10
-34.031
 20
21.4584
 30
0.0
 10
-34.031
 20
21.4584
 30
0.0
 10
-34.031
 20
21.4584
 30
0.0
 10
-34.031
 20
21.4584
 30
0.0
 10
-34.4744
 20
22.7312
 30
0.0
 10
-34.4744
 20
22.7312
 30
0.0
 10
-34.4744
 20
22.7312
 30
0.0
 10
-34.4744
 20
22.7312
 30
0.0
 10
-34.9178
 20
21.4584
 30
0.0
 10
-34.9178
 20
21.4584
 30
0.0
 10
-34.9178
 20
21.4584
 30
0.0
 10
-34.9178
 20
21.4584
 30
0.0
 10
-34.9178
 20
21.4584
 30
0.0
 10
-34.9178
 20
21.4584
 30
0.0
 10
-34.9178
 20
21.4584
 30
0.0
 10
-34.9178
 20
21.4584
 30
0.0
 10
-34.9178
 20
21.4584
 30
0.0
 10
-34.9178
 20
21.4584
 30
0.0
 10
-34.9178
 20
21.4584
 30
0.0
 10
-34.9178
 20
21.4584
 30
0.0
 10
-34.031
 20
21.4584
 30
0.0
 10
-34.031
 20
21.4584
 30
0.0
  0
SPLINE
  5
18C
330
1F
100
AcDbEntity
  8
Ilustrace
 62
   250
370
     9
100
AcDbSpline
210
0.0
220
0.0
230
1.0
 70
    11
 71
     3
 72
    32
 73
    28
 74
     0
 42
0.0000000001
 43
0.0000000001
 40
0.0
 40
0.0
 40
0.0
 40
0.0
 40
0.125
 40
0.125
 40
0.125
 40
0.125
 40
0.25
 40
0.25
 40
0.25
 40
0.25
 40
0.375
 40
0.375
 40
0.375
 40
0.375
 40
0.5
 40
0.5
 40
0.5
 40
0.5
 40
0.625
 40
0.625
 40
0.625
 40
0.625
 40
0.75
 40
0.75
 40
0.75
 40
0.75
 40
1.0
 40
1.0
 40
1.0
 40
1.0
 10
-30.2513
 20
24.8792
 30
0.0
 10
-30.2513
 20
24.8792
 30
0.0
 10
-30.2513
 20
24.8792
 30
0.0
 10
-30.2513
 20
24.8792
 30
0.0
 10
-30.2513
 20
24.8792
 30
0.0
 10
-30.2513
 20
24.8792
 30
0.0
 10
-30.2513
 20
24.8792
 30
0.0
 10
-30.2513
 20
24.8792
 30
0.0
 10
-30.2513
 20
24.8792
 30
0.0
 10
-30.2513
 20
24.8792
 30
0.0
 10
-31.5241
 20
25.3226
 30
0.0
 10
-31.5241
 20
25.3226
 30
0.0
 10
-31.5241
 20
25.3226
 30
0.0
 10
-31.5241
 20
25.3226
 30
0.0
 10
-30.2513
 20
25.766
 30
0.0
 10
-30.2513
 20
25.766
 30
0.0
 10
-30.2513
 20
25.766
 30
0.0
 10
-30.2513
 20
25.766
 30
0.0
 10
-30.2513
 20
25.766
 30
0.0
 10
-30.2513
 20
25.766
 30
0.0
 10
-30.2513
 20
25.766
 30
0.0
 10
-30.2513
 20
25.766
 30
0.0
 10
-30.2513
 20
25.766
 30
0.0
 10
-30.2513
 20
25.766
 30
0.0
 10
-30.2513
 20
25.766
 30
0.0
 10
-30.2513
 20
25.766
 30
0.0
 10
-30.2513
 20
24.8792
 30
0.0
 10
-30.2513
 20
24.8792
 30
0.0
  0
SPLINE
  5
18D
330
1F
100
AcDbEntity
  8
Ilustrace
 62
   250
370
     9
100
AcDbSpline
210
0.0
220
0.0
230
1.0
 70
    11
 71
     3
 72
    32
 73
    28
 74
     0
 42
0.0000000001
 43
0.0000000001
 40
0.0
 40
0.0
 40
0.0
 40
0.0
 40
0.125
 40
0.125
 40
0.125
 40
0.125
 40
0.25
 40
0.25
 40
0.25
 40
0.25
 40
0.375
 40
0.375
 40
0.375
 40
0.375
 40
0.5
 40
0.5
 40
0.5
 40
0.5
 40
0.625
 40
0.625
 40
0.625
 40
0.625
 40
0.75
 40
0.75
 40
0.75
 40
0.75
 40
1.0
 40
1.0
 40
1.0
 40
1.0
 10
-33.9856
 20
-36.2082
 30
0.0
 10
-33.9856
 20
-36.2082
 30
0.0
 10
-33.9856
 20
-36.2082
 30
0.0
 10
-33.9856
 20
-36.2082
 30
0.0
 10
-33.9856
 20
-36.2082
 30
0.0
 10
-33.9856
 20
-36.2082
 30
0.0
 10
-33.9856
 20
-36.2082
 30
0.0
 10
-33.9856
 20
-36.2082
 30
0.0
 10
-33.9856
 20
-36.2082
 30
0.0
 10
-33.9856
 20
-36.2082
 30
0.0
 10
-34.429
 20
-37.481
 30
0.0
 10
-34.429
 20
-37.481
 30
0.0
 10
-34.429
 20
-37.481
 30
0.0
 10
-34.429
 20
-37.481
 30
0.0
 10
-34.8724
 20
-36.2082
 30
0.0
 10
-34.8724
 20
-36.2082
 30
0.0
 10
-34.8724
 20
-36.2082
 30
0.0
 10
-34.8724
 20
-36.2082
 30
0.0
 10
-34.8724
 20
-36.2082
 30
0.0
 10
-34.8724
 20
-36.2082
 30
0.0
 10
-34.8724
 20
-36.2082
 30
0.0
 10
-34.8724
 20
-36.2082
 30
0.0
 10
-34.8724
 20
-36.2082
 30
0.0
 10
-34.8724
 20
-36.2082
 30
0.0
 10
-34.8724
 20
-36.2082
 30
0.0
 10
-34.8724
 20
-36.2082
 30
0.0
 10
-33.9856
 20
-36.2082
 30
0.0
 10
-33.9856
 20
-36.2082
 30
0.0
  0
SPLINE
  5
18E
330
1F
100
AcDbEntity
  8
Ilustrace
 62
   250
370
    15
100
AcDbSpline
210
0.0
220
0.0
230
1.0
 70
    24
 71
     3
 72
     8
 73
     4
 74
     0
 42
0.0000000001
 43
0.0000000001
 40
0.0
 40
0.0
 40
0.0
 40
0.0
 40
1.0
 40
1.0
 40
1.0
 40
1.0
 10
23.2132
 20
-7.6127
 30
0.0
 10
23.2132
 20
-7.6127
 30
0.0
 10
23.2132
 20
0.9863
 30
0.0
 10
23.2132
 20
0.9863
 30
0.0
  0
SPLINE
  5
18F
330
1F
100
AcDbEntity
  8
Ilustrace
 62
   250
370
    15
100
AcDbSpline
210
0.0
220
0.0
230
1.0
 70
    24
 71
     3
 72
     8
 73
     4
 74
     0
 42
0.0000000001
 43
0.0000000001
 40
0.0
 40
0.0
 40
0.0
 40
0.0
 40
1.0
 40
1.0
 40
1.0
 40
1.0
 10
10.293
 20
-7.5245
 30
0.0
 10
10.293
 20
-7.5245
 30
0.0
 10
10.293
 20
0.8982
 30
0.0
 10
10.293
 20
0.8982
 30
0.0
  0
SPLINE
  5
190
330
1F
100
AcDbEntity
  8
Ilustrace
 62
   250
100
AcDbSpline
210
0.0
220
0.0
230
1.0
 70
    11
 71
     3
 72
   132
 73
   128
 74
     0
 42
0.0000000001
 43
0.0000000001
 40
0.0
 40
0.0
 40
0.0
 40
0.0
 40
0.0303030303030303
 40
0.0303030303030303
 40
0.0303030303030303
 40
0.0303030303030303
 40
0.0606060606060606
 40
0.0606060606060606
 40
0.0606060606060606
 40
0.0606060606060606
 40
0.0909090909090909
 40
0.0909090909090909
 40
0.0909090909090909
 40
0.0909090909090909
 40
0.1212121212121212
 40
0.1212121212121212
 40
0.1212121212121212
 40
0.1212121212121212
 40
0.1515151515151515
 40
0.1515151515151515
 40
0.1515151515151515
 40
0.1515151515151515
 40
0.1818181818181818
 40
0.1818181818181818
 40
0.1818181818181818
 40
0.1818181818181818
 40
0.2121212121212121
 40
0.2121212121212121
 40
0.2121212121212121
 40
0.2121212121212121
 40
0.2424242424242424
 40
0.2424242424242424
 40
0.2424242424242424
 40
0.2424242424242424
 40
0.2727272727272727
 40
0.2727272727272727
 40
0.2727272727272727
 40
0.2727272727272727
 40
0.303030303030303
 40
0.303030303030303
 40
0.303030303030303
 40
0.303030303030303
 40
0.3333333333333333
 40
0.3333333333333333
 40
0.3333333333333333
 40
0.3333333333333333
 40
0.3636363636363636
 40
0.3636363636363636
 40
0.3636363636363636
 40
0.3636363636363636
 40
0.3939393939393939
 40
0.3939393939393939
 40
0.3939393939393939
 40
0.3939393939393939
 40
0.4242424242424243
 40
0.4242424242424243
 40
0.4242424242424243
 40
0.4242424242424243
 40
0.4545454545454545
 40
0.4545454545454545
 40
0.4545454545454545
 40
0.4545454545454545
 40
0.4848484848484849
 40
0.4848484848484849
 40
0.4848484848484849
 40
0.4848484848484849
 40
0.5151515151515151
 40
0.5151515151515151
 40
0.5151515151515151
 40
0.5151515151515151
 40
0.5454545454545454
 40
0.5454545454545454
 40
0.5454545454545454
 40
0.5454545454545454
 40
0.5757575757575758
 40
0.5757575757575758
 40
0.5757575757575758
 40
0.5757575757575758
 40
0.6060606060606061
 40
0.6060606060606061
 40
0.6060606060606061
 40
0.6060606060606061
 40
0.6363636363636364
 40
0.6363636363636364
 40
0.6363636363636364
 40
0.6363636363636364
 40
0.6666666666666666
 40
0.6666666666666666
 40
0.6666666666666666
 40
0.6666666666666666
 40
0.696969696969697
 40
0.696969696969697
 40
0.696969696969697
 40
0.696969696969697
 40
0.7272727272727273
 40
0.7272727272727273
 40
0.7272727272727273
 40
0.7272727272727273
 40
0.7575757575757576
 40
0.7575757575757576
 40
0.7575757575757576
 40
0.7575757575757576
 40
0.7878787878787878
 40
0.7878787878787878
 40
0.7878787878787878
 40
0.7878787878787878
 40
0.8181818181818182
 40
0.8181818181818182
 40
0.8181818181818182
 40
0.8181818181818182
 40
0.8484848484848485
 40
0.8484848484848485
 40
0.8484848484848485
 40
0.8484848484848485
 40
0.8787878787878788
 40
0.8787878787878788
 40
0.8787878787878788
 40
0.8787878787878788
 40
0.9090909090909091
 40
0.9090909090909091
 40
0.9090909090909091
 40
0.9090909090909091
 40
0.9393939393939394
 40
0.9393939393939394
 40
0.9393939393939394
 40
0.9393939393939394
 40
1.0
 40
1.0
 40
1.0
 40
1.0
 10
16.549
 20
-3.972
 30
0.0
 10
16.549
 20
-3.972
 30
0.0
 10
15.5837
 20
-3.972
 30
0.0
 10
15.5837
 20
-3.972
 30
0.0
 10
15.5837
 20
-3.972
 30
0.0
 10
15.5837
 20
-3.972
 30
0.0
 10
15.4533
 20
-5.1826
 30
0.0
 10
15.4533
 20
-5.1826
 30
0.0
 10
15.4533
 20
-5.1826
 30
0.0
 10
15.4906
 20
-5.1761
 30
0.0
 10
15.5319
 20
-5.1709
 30
0.0
 10
15.5785
 20
-5.1664
 30
0.0
 10
15.5785
 20
-5.1664
 30
0.0
 10
15.6244
 20
-5.1619
 30
0.0
 10
15.6772
 20
-5.1593
 30
0.0
 10
15.7358
 20
-5.1593
 30
0.0
 10
15.7358
 20
-5.1593
 30
0.0
 10
15.8692
 20
-5.16
 30
0.0
 10
15.9784
 20
-5.1838
 30
0.0
 10
16.0632
 20
-5.2305
 30
0.0
 10
16.0632
 20
-5.2305
 30
0.0
 10
16.1485
 20
-5.2776
 30
0.0
 10
16.2117
 20
-5.3424
 30
0.0
 10
16.2525
 20
-5.425
 30
0.0
 10
16.2525
 20
-5.425
 30
0.0
 10
16.2934
 20
-5.5084
 30
0.0
 10
16.3137
 20
-5.6049
 30
0.0
 10
16.3131
 20
-5.7141
 30
0.0
 10
16.3131
 20
-5.7141
 30
0.0
 10
16.3137
 20
-5.799
 30
0.0
 10
16.3012
 20
-5.8745
 30
0.0
 10
16.2758
 20
-5.9417
 30
0.0
 10
16.2758
 20
-5.9417
 30
0.0
 10
16.251
 20
-6.0097
 30
0.0
 10
16.2164
 20
-6.0665
 30
0.0
 10
16.1723
 20
-6.1144
 30
0.0
 10
16.1723
 20
-6.1144
 30
0.0
 10
16.1284
 20
-6.1618
 30
0.0
 10
16.0777
 20
-6.1978
 30
0.0
 10
16.0203
 20
-6.2231
 30
0.0
 10
16.0203
 20
-6.2231
 30
0.0
 10
15.9629
 20
-6.2484
 30
0.0
 10
15.9023
 20
-6.2613
 30
0.0
 10
15.8382
 20
-6.2613
 30
0.0
 10
15.8382
 20
-6.2613
 30
0.0
 10
15.7755
 20
-6.2606
 30
0.0
 10
15.7165
 20
-6.2536
 30
0.0
 10
15.6611
 20
-6.2387
 30
0.0
 10
15.6611
 20
-6.2387
 30
0.0
 10
15.6059
 20
-6.2244
 30
0.0
 10
15.5561
 20
-6.207
 30
0.0
 10
15.5122
 20
-6.1856
 30
0.0
 10
15.5122
 20
-6.1856
 30
0.0
 10
15.4682
 20
-6.1643
 30
0.0
 10
15.432
 20
-6.1429
 30
0.0
 10
15.4036
 20
-6.1216
 30
0.0
 10
15.4036
 20
-6.1216
 30
0.0
 10
15.4036
 20
-6.1216
 30
0.0
 10
15.3353
 20
-6.3817
 30
0.0
 10
15.3353
 20
-6.3817
 30
0.0
 10
15.3353
 20
-6.3817
 30
0.0
 10
15.3689
 20
-6.408
 30
0.0
 10
15.4108
 20
-6.4326
 30
0.0
 10
15.461
 20
-6.4566
 30
0.0
 10
15.461
 20
-6.4566
 30
0.0
 10
15.5112
 20
-6.4799
 30
0.0
 10
15.568
 20
-6.4986
 30
0.0
 10
15.6317
 20
-6.5135
 30
0.0
 10
15.6317
 20
-6.5135
 30
0.0
 10
15.6959
 20
-6.5284
 30
0.0
 10
15.7647
 20
-6.5361
 30
0.0
 10
15.8382
 20
-6.5368
 30
0.0
 10
15.8382
 20
-6.5368
 30
0.0
 10
15.9484
 20
-6.5361
 30
0.0
 10
16.0487
 20
-6.5142
 30
0.0
 10
16.1404
 20
-6.4715
 30
0.0
 10
16.1404
 20
-6.4715
 30
0.0
 10
16.2319
 20
-6.4288
 30
0.0
 10
16.3111
 20
-6.3686
 30
0.0
 10
16.3778
 20
-6.2911
 30
0.0
 10
16.3778
 20
-6.2911
 30
0.0
 10
16.4451
 20
-6.2134
 30
0.0
 10
16.4967
 20
-6.1223
 30
0.0
 10
16.5335
 20
-6.0181
 30
0.0
 10
16.5335
 20
-6.0181
 30
0.0
 10
16.5702
 20
-5.9134
 30
0.0
 10
16.5889
 20
-5.799
 30
0.0
 10
16.5894
 20
-5.6754
 30
0.0
 10
16.5894
 20
-5.6754
 30
0.0
 10
16.5889
 20
-5.5707
 30
0.0
 10
16.5754
 20
-5.4762
 30
0.0
 10
16.5495
 20
-5.3928
 30
0.0
 10
16.5495
 20
-5.3928
 30
0.0
 10
16.5237
 20
-5.3094
 30
0.0
 10
16.4896
 20
-5.2376
 30
0.0
 10
16.4461
 20
-5.1768
 30
0.0
 10
16.4461
 20
-5.1768
 30
0.0
 10
16.4026
 20
-5.116
 30
0.0
 10
16.354
 20
-5.0674
 30
0.0
 10
16.3008
 20
-5.0312
 30
0.0
 10
16.3008
 20
-5.0312
 30
0.0
 10
16.2381
 20
-4.9833
 30
0.0
 10
16.1703
 20
-4.9485
 30
0.0
 10
16.0963
 20
-4.9272
 30
0.0
 10
16.0963
 20
-4.9272
 30
0.0
 10
16.0223
 20
-4.9058
 30
0.0
 10
15.9458
 20
-4.8947
 30
0.0
 10
15.866
 20
-4.8954
 30
0.0
 10
15.866
 20
-4.8954
 30
0.0
 10
15.8299
 20
-4.8954
 30
0.0
 10
15.7989
 20
-4.8962
 30
0.0
 10
15.7735
 20
-4.898
 30
0.0
 10
15.7735
 20
-4.898
 30
0.0
 10
15.7481
 20
-4.8999
 30
0.0
 10
15.7243
 20
-4.9032
 30
0.0
 10
15.7016
 20
-4.9071
 30
0.0
 10
15.7016
 20
-4.9071
 30
0.0
 10
15.7016
 20
-4.9071
 30
0.0
 10
15.7792
 20
-4.2591
 30
0.0
 10
15.7792
 20
-4.2591
 30
0.0
 10
15.7792
 20
-4.2591
 30
0.0
 10
15.7792
 20
-4.2591
 30
0.0
 10
16.549
 20
-4.2591
 30
0.0
 10
16.549
 20
-4.2591
 30
0.0
 10
16.549
 20
-4.2591
 30
0.0
 10
16.549
 20
-4.2591
 30
0.0
 10
16.549
 20
-3.972
 30
0.0
 10
16.549
 20
-3.972
 30
0.0
  0
SPLINE
  5
191
330
1F
100
AcDbEntity
  8
Ilustrace
 62
   250
100
AcDbSpline
210
0.0
220
0.0
230
1.0
 70
    11
 71
     3
 72
    48
 73
    44
 74
     0
 42
0.0000000001
 43
0.0000000001
 40
0.0
 40
0.0
 40
0.0
 40
0.0
 40
0.0833333333333333
 40
0.0833333333333333
 40
0.0833333333333333
 40
0.0833333333333333
 40
0.1666666666666667
 40
0.1666666666666667
 40
0.1666666666666667
 40
0.1666666666666667
 40
0.25
 40
0.25
 40
0.25
 40
0.25
 40
0.3333333333333333
 40
0.3333333333333333
 40
0.3333333333333333
 40
0.3333333333333333
 40
0.4166666666666667
 40
0.4166666666666667
 40
0.4166666666666667
 40
0.4166666666666667
 40
0.5
 40
0.5
 40
0.5
 40
0.5
 40
0.5833333333333334
 40
0.5833333333333334
 40
0.5833333333333334
 40
0.5833333333333334
 40
0.6666666666666666
 40
0.6666666666666666
 40
0.6666666666666666
 40
0.6666666666666666
 40
0.75
 40
0.75
 40
0.75
 40
0.75
 40
0.8333333333333334
 40
0.8333333333333334
 40
0.8333333333333334
 40
0.8333333333333334
 40
1.0
 40
1.0
 40
1.0
 40
1.0
 10
18.0389
 20
-6.4941
 30
0.0
 10
18.0389
 20
-6.4941
 30
0.0
 10
18.0389
 20
-5.8035
 30
0.0
 10
18.0389
 20
-5.8035
 30
0.0
 10
18.0389
 20
-5.8035
 30
0.0
 10
18.0389
 20
-5.8035
 30
0.0
 10
18.3214
 20
-5.8035
 30
0.0
 10
18.3214
 20
-5.8035
 30
0.0
 10
18.3214
 20
-5.8035
 30
0.0
 10
18.3214
 20
-5.8035
 30
0.0
 10
18.3214
 20
-5.5396
 30
0.0
 10
18.3214
 20
-5.5396
 30
0.0
 10
18.3214
 20
-5.5396
 30
0.0
 10
18.3214
 20
-5.5396
 30
0.0
 10
18.0389
 20
-5.5396
 30
0.0
 10
18.0389
 20
-5.5396
 30
0.0
 10
18.0389
 20
-5.5396
 30
0.0
 10
18.0389
 20
-5.5396
 30
0.0
 10
18.0389
 20
-3.972
 30
0.0
 10
18.0389
 20
-3.972
 30
0.0
 10
18.0389
 20
-3.972
 30
0.0
 10
18.0389
 20
-3.972
 30
0.0
 10
17.7441
 20
-3.972
 30
0.0
 10
17.7441
 20
-3.972
 30
0.0
 10
17.7441
 20
-3.972
 30
0.0
 10
17.7441
 20
-3.972
 30
0.0
 10
16.8439
 20
-5.5823
 30
0.0
 10
16.8439
 20
-5.5823
 30
0.0
 10
16.8439
 20
-5.5823
 30
0.0
 10
16.8439
 20
-5.5823
 30
0.0
 10
16.8439
 20
-5.8035
 30
0.0
 10
16.8439
 20
-5.8035
 30
0.0
 10
16.8439
 20
-5.8035
 30
0.0
 10
16.8439
 20
-5.8035
 30
0.0
 10
17.7814
 20
-5.8035
 30
0.0
 10
17.7814
 20
-5.8035
 30
0.0
 10
17.7814
 20
-5.8035
 30
0.0
 10
17.7814
 20
-5.8035
 30
0.0
 10
17.7814
 20
-6.4941
 30
0.0
 10
17.7814
 20
-6.4941
 30
0.0
 10
17.7814
 20
-6.4941
 30
0.0
 10
17.7814
 20
-6.4941
 30
0.0
 10
18.0389
 20
-6.4941
 30
0.0
 10
18.0389
 20
-6.4941
 30
0.0
  0
SPLINE
  5
192
330
1F
100
AcDbEntity
  8
Ilustrace
 62
   250
100
AcDbSpline
210
0.0
220
0.0
230
1.0
 70
    11
 71
     3
 72
    36
 73
    32
 74
     0
 42
0.0000000001
 43
0.0000000001
 40
0.0
 40
0.0
 40
0.0
 40
0.0
 40
0.1111111111111111
 40
0.1111111111111111
 40
0.1111111111111111
 40
0.1111111111111111
 40
0.2222222222222222
 40
0.2222222222222222
 40
0.2222222222222222
 40
0.2222222222222222
 40
0.3333333333333333
 40
0.3333333333333333
 40
0.3333333333333333
 40
0.3333333333333333
 40
0.4444444444444444
 40
0.4444444444444444
 40
0.4444444444444444
 40
0.4444444444444444
 40
0.5555555555555556
 40
0.5555555555555556
 40
0.5555555555555556
 40
0.5555555555555556
 40
0.6666666666666666
 40
0.6666666666666666
 40
0.6666666666666666
 40
0.6666666666666666
 40
0.7777777777777778
 40
0.7777777777777778
 40
0.7777777777777778
 40
0.7777777777777778
 40
1.0
 40
1.0
 40
1.0
 40
1.0
 10
17.1201
 20
-5.5396
 30
0.0
 10
17.1201
 20
-5.5396
 30
0.0
 10
17.1201
 20
-5.5317
 30
0.0
 10
17.1201
 20
-5.5317
 30
0.0
 10
17.1201
 20
-5.5317
 30
0.0
 10
17.1201
 20
-5.5317
 30
0.0
 10
17.6137
 20
-4.6743
 30
0.0
 10
17.6137
 20
-4.6743
 30
0.0
 10
17.6137
 20
-4.6743
 30
0.0
 10
17.6411
 20
-4.6167
 30
0.0
 10
17.6686
 20
-4.5585
 30
0.0
 10
17.6955
 20
-4.4996
 30
0.0
 10
17.6955
 20
-4.4996
 30
0.0
 10
17.7219
 20
-4.4401
 30
0.0
 10
17.7508
 20
-4.3743
 30
0.0
 10
17.7814
 20
-4.3018
 30
0.0
 10
17.7814
 20
-4.3018
 30
0.0
 10
17.7814
 20
-4.3018
 30
0.0
 10
17.7907
 20
-4.3018
 30
0.0
 10
17.7907
 20
-4.3018
 30
0.0
 10
17.7907
 20
-4.3018
 30
0.0
 10
17.7844
 20
-4.4336
 30
0.0
 10
17.7814
 20
-4.5656
 30
0.0
 10
17.7814
 20
-4.6976
 30
0.0
 10
17.7814
 20
-4.6976
 30
0.0
 10
17.7814
 20
-4.6976
 30
0.0
 10
17.7814
 20
-5.5396
 30
0.0
 10
17.7814
 20
-5.5396
 30
0.0
 10
17.7814
 20
-5.5396
 30
0.0
 10
17.7814
 20
-5.5396
 30
0.0
 10
17.1201
 20
-5.5396
 30
0.0
 10
17.1201
 20
-5.5396
 30
0.0
  0
SPLINE
  5
193
330
1F
100
AcDbEntity
  8
Ilustrace
 62
   250
370
    15
100
AcDbSpline
210
0.0
220
0.0
230
1.0
 70
    24
 71
     3
 72
     8
 73
     4
 74
     0
 42
0.0000000001
 43
0.0000000001
 40
0.0
 40
0.0
 40
0.0
 40
0.0
 40
1.0
 40
1.0
 40
1.0
 40
1.0
 10
22.9449
 20
-7.0605
 30
0.0
 10
22.9449
 20
-7.0605
 30
0.0
 10
10.7245
 20
-7.0605
 30
0.0
 10
10.7245
 20
-7.0605
 30
0.0
  0
SPLINE
  5
194
330
1F
100
AcDbEntity
  8
Ilustrace
 62
   250
370
     9
100
AcDbSpline
210
0.0
220
0.0
230
1.0
 70
    11
 71
     3
 72
    32
 73
    28
 74
     0
 42
0.0000000001
 43
0.0000000001
 40
0.0
 40
0.0
 40
0.0
 40
0.0
 40
0.125
 40
0.125
 40
0.125
 40
0.125
 40
0.25
 40
0.25
 40
0.25
 40
0.25
 40
0.375
 40
0.375
 40
0.375
 40
0.375
 40
0.5
 40
0.5
 40
0.5
 40
0.5
 40
0.625
 40
0.625
 40
0.625
 40
0.625
 40
0.75
 40
0.75
 40
0.75
 40
0.75
 40
1.0
 40
1.0
 40
1.0
 40
1.0
 10
21.9541
 20
-7.5189
 30
0.0
 10
21.9541
 20
-7.5189
 30
0.0
 10
21.9541
 20
-7.5189
 30
0.0
 10
21.9541
 20
-7.5189
 30
0.0
 10
21.9541
 20
-7.5189
 30
0.0
 10
21.9541
 20
-7.5189
 30
0.0
 10
21.9541
 20
-7.5189
 30
0.0
 10
21.9541
 20
-7.5189
 30
0.0
 10
21.9541
 20
-7.5189
 30
0.0
 10
21.9541
 20
-7.5189
 30
0.0
 10
23.2269
 20
-7.0755
 30
0.0
 10
23.2269
 20
-7.0755
 30
0.0
 10
23.2269
 20
-7.0755
 30
0.0
 10
23.2269
 20
-7.0755
 30
0.0
 10
21.9541
 20
-6.6321
 30
0.0
 10
21.9541
 20
-6.6321
 30
0.0
 10
21.9541
 20
-6.6321
 30
0.0
 10
21.9541
 20
-6.6321
 30
0.0
 10
21.9541
 20
-6.6321
 30
0.0
 10
21.9541
 20
-6.6321
 30
0.0
 10
21.9541
 20
-6.6321
 30
0.0
 10
21.9541
 20
-6.6321
 30
0.0
 10
21.9541
 20
-6.6321
 30
0.0
 10
21.9541
 20
-6.6321
 30
0.0
 10
21.9541
 20
-6.6321
 30
0.0
 10
21.9541
 20
-6.6321
 30
0.0
 10
21.9541
 20
-7.5189
 30
0.0
 10
21.9541
 20
-7.5189
 30
0.0
  0
SPLINE
  5
195
330
1F
100
AcDbEntity
  8
Ilustrace
 62
   250
370
     9
100
AcDbSpline
210
0.0
220
0.0
230
1.0
 70
    11
 71
     3
 72
    32
 73
    28
 74
     0
 42
0.0000000001
 43
0.0000000001
 40
0.0
 40
0.0
 40
0.0
 40
0.0
 40
0.125
 40
0.125
 40
0.125
 40
0.125
 40
0.25
 40
0.25
 40
0.25
 40
0.25
 40
0.375
 40
0.375
 40
0.375
 40
0.375
 40
0.5
 40
0.5
 40
0.5
 40
0.5
 40
0.625
 40
0.625
 40
0.625
 40
0.625
 40
0.75
 40
0.75
 40
0.75
 40
0.75
 40
1.0
 40
1.0
 40
1.0
 40
1.0
 10
11.6174
 20
-7.4671
 30
0.0
 10
11.6174
 20
-7.4671
 30
0.0
 10
11.6174
 20
-7.4671
 30
0.0
 10
11.6174
 20
-7.4671
 30
0.0
 10
11.6174
 20
-7.4671
 30
0.0
 10
11.6174
 20
-7.4671
 30
0.0
 10
11.6174
 20
-7.4671
 30
0.0
 10
11.6174
 20
-7.4671
 30
0.0
 10
11.6174
 20
-7.4671
 30
0.0
 10
11.6174
 20
-7.4671
 30
0.0
 10
10.3446
 20
-7.0237
 30
0.0
 10
10.3446
 20
-7.0237
 30
0.0
 10
10.3446
 20
-7.0237
 30
0.0
 10
10.3446
 20
-7.0237
 30
0.0
 10
11.6174
 20
-6.5803
 30
0.0
 10
11.6174
 20
-6.5803
 30
0.0
 10
11.6174
 20
-6.5803
 30
0.0
 10
11.6174
 20
-6.5803
 30
0.0
 10
11.6174
 20
-6.5803
 30
0.0
 10
11.6174
 20
-6.5803
 30
0.0
 10
11.6174
 20
-6.5803
 30
0.0
 10
11.6174
 20
-6.5803
 30
0.0
 10
11.6174
 20
-6.5803
 30
0.0
 10
11.6174
 20
-6.5803
 30
0.0
 10
11.6174
 20
-6.5803
 30
0.0
 10
11.6174
 20
-6.5803
 30
0.0
 10
11.6174
 20
-7.4671
 30
0.0
 10
11.6174
 20
-7.4671
 30
0.0
  0
SPLINE
  5
196
330
1F
100
AcDbEntity
  8
Ilustrace
 62
   250
100
AcDbSpline
210
0.0
220
0.0
230
1.0
 70
    11
 71
     3
 72
   124
 73
   120
 74
     0
 42
0.0000000001
 43
0.0000000001
 40
0.0
 40
0.0
 40
0.0
 40
0.0
 40
0.032258064516129
 40
0.032258064516129
 40
0.032258064516129
 40
0.032258064516129
 40
0.0645161290322581
 40
0.0645161290322581
 40
0.0645161290322581
 40
0.0645161290322581
 40
0.0967741935483871
 40
0.0967741935483871
 40
0.0967741935483871
 40
0.0967741935483871
 40
0.1290322580645161
 40
0.1290322580645161
 40
0.1290322580645161
 40
0.1290322580645161
 40
0.1612903225806452
 40
0.1612903225806452
 40
0.1612903225806452
 40
0.1612903225806452
 40
0.1935483870967742
 40
0.1935483870967742
 40
0.1935483870967742
 40
0.1935483870967742
 40
0.2258064516129032
 40
0.2258064516129032
 40
0.2258064516129032
 40
0.2258064516129032
 40
0.2580645161290323
 40
0.2580645161290323
 40
0.2580645161290323
 40
0.2580645161290323
 40
0.2903225806451613
 40
0.2903225806451613
 40
0.2903225806451613
 40
0.2903225806451613
 40
0.3225806451612903
 40
0.3225806451612903
 40
0.3225806451612903
 40
0.3225806451612903
 40
0.3548387096774194
 40
0.3548387096774194
 40
0.3548387096774194
 40
0.3548387096774194
 40
0.3870967741935484
 40
0.3870967741935484
 40
0.3870967741935484
 40
0.3870967741935484
 40
0.4193548387096774
 40
0.4193548387096774
 40
0.4193548387096774
 40
0.4193548387096774
 40
0.4516129032258064
 40
0.4516129032258064
 40
0.4516129032258064
 40
0.4516129032258064
 40
0.4838709677419355
 40
0.4838709677419355
 40
0.4838709677419355
 40
0.4838709677419355
 40
0.5161290322580645
 40
0.5161290322580645
 40
0.5161290322580645
 40
0.5161290322580645
 40
0.5483870967741935
 40
0.5483870967741935
 40
0.5483870967741935
 40
0.5483870967741935
 40
0.5806451612903226
 40
0.5806451612903226
 40
0.5806451612903226
 40
0.5806451612903226
 40
0.6129032258064516
 40
0.6129032258064516
 40
0.6129032258064516
 40
0.6129032258064516
 40
0.6451612903225806
 40
0.6451612903225806
 40
0.6451612903225806
 40
0.6451612903225806
 40
0.6774193548387096
 40
0.6774193548387096
 40
0.6774193548387096
 40
0.6774193548387096
 40
0.7096774193548387
 40
0.7096774193548387
 40
0.7096774193548387
 40
0.7096774193548387
 40
0.7419354838709677
 40
0.7419354838709677
 40
0.7419354838709677
 40
0.7419354838709677
 40
0.7741935483870968
 40
0.7741935483870968
 40
0.7741935483870968
 40
0.7741935483870968
 40
0.8064516129032258
 40
0.8064516129032258
 40
0.8064516129032258
 40
0.8064516129032258
 40
0.8387096774193549
 40
0.8387096774193549
 40
0.8387096774193549
 40
0.8387096774193549
 40
0.8709677419354839
 40
0.8709677419354839
 40
0.8709677419354839
 40
0.8709677419354839
 40
0.9032258064516129
 40
0.9032258064516129
 40
0.9032258064516129
 40
0.9032258064516129
 40
0.9354838709677419
 40
0.9354838709677419
 40
0.9354838709677419
 40
0.9354838709677419
 40
1.0
 40
1.0
 40
1.0
 40
1.0
 10
29.6892
 20
14.6277
 30
0.0
 10
29.6892
 20
14.6027
 30
0.0
 10
29.6904
 20
14.5733
 30
0.0
 10
29.6931
 20
14.5402
 30
0.0
 10
29.6931
 20
14.5402
 30
0.0
 10
29.6956
 20
14.5066
 30
0.0
 10
29.7008
 20
14.4693
 30
0.0
 10
29.7086
 20
14.429
 30
0.0
 10
29.7086
 20
14.429
 30
0.0
 10
29.7281
 20
14.3012
 30
0.0
 10
29.7694
 20
14.1827
 30
0.0
 10
29.8321
 20
14.0736
 30
0.0
 10
29.8321
 20
14.0736
 30
0.0
 10
29.8949
 20
13.9644
 30
0.0
 10
29.9778
 20
13.8676
 30
0.0
 10
30.0811
 20
13.7834
 30
0.0
 10
30.0811
 20
13.7834
 30
0.0
 10
30.1639
 20
13.7155
 30
0.0
 10
30.2622
 20
13.6561
 30
0.0
 10
30.3761
 20
13.6053
 30
0.0
 10
30.3761
 20
13.6053
 30
0.0
 10
30.4892
 20
13.5541
 30
0.0
 10
30.6166
 20
13.5142
 30
0.0
 10
30.7575
 20
13.4854
 30
0.0
 10
30.7575
 20
13.4854
 30
0.0
 10
30.8985
 20
13.4568
 30
0.0
 10
31.0526
 20
13.4423
 30
0.0
 10
31.2181
 20
13.4419
 30
0.0
 10
31.2181
 20
13.4419
 30
0.0
 10
31.3824
 20
13.4423
 30
0.0
 10
31.5305
 20
13.4594
 30
0.0
 10
31.6623
 20
13.4925
 30
0.0
 10
31.6623
 20
13.4925
 30
0.0
 10
31.7948
 20
13.5261
 30
0.0
 10
31.9075
 20
13.5743
 30
0.0
 10
32.0013
 20
13.6369
 30
0.0
 10
32.0013
 20
13.6369
 30
0.0
 10
32.0951
 20
13.699
 30
0.0
 10
32.1673
 20
13.774
 30
0.0
 10
32.2172
 20
13.8608
 30
0.0
 10
32.2172
 20
13.8608
 30
0.0
 10
32.2671
 20
13.9478
 30
0.0
 10
32.2922
 20
14.0451
 30
0.0
 10
32.2929
 20
14.1527
 30
0.0
 10
32.2929
 20
14.1527
 30
0.0
 10
32.2916
 20
14.2583
 30
0.0
 10
32.2671
 20
14.353
 30
0.0
 10
32.2192
 20
14.4362
 30
0.0
 10
32.2192
 20
14.4362
 30
0.0
 10
32.1706
 20
14.519
 30
0.0
 10
32.1048
 20
14.5898
 30
0.0
 10
32.0212
 20
14.6478
 30
0.0
 10
32.0212
 20
14.6478
 30
0.0
 10
31.9378
 20
14.7058
 30
0.0
 10
31.8427
 20
14.7502
 30
0.0
 10
31.736
 20
14.7802
 30
0.0
 10
31.736
 20
14.7802
 30
0.0
 10
31.63
 20
14.8108
 30
0.0
 10
31.5181
 20
14.8263
 30
0.0
 10
31.4005
 20
14.8263
 30
0.0
 10
31.4005
 20
14.8263
 30
0.0
 10
31.2776
 20
14.8258
 30
0.0
 10
31.1663
 20
14.8108
 30
0.0
 10
31.0667
 20
14.7814
 30
0.0
 10
31.0667
 20
14.7814
 30
0.0
 10
30.9672
 20
14.7518
 30
0.0
 10
30.8811
 20
14.7099
 30
0.0
 10
30.8094
 20
14.6561
 30
0.0
 10
30.8094
 20
14.6561
 30
0.0
 10
30.7382
 20
14.6017
 30
0.0
 10
30.6826
 20
14.5376
 30
0.0
 10
30.6444
 20
14.4636
 30
0.0
 10
30.6444
 20
14.4636
 30
0.0
 10
30.6056
 20
14.3897
 30
0.0
 10
30.5863
 20
14.3073
 30
0.0
 10
30.5855
 20
14.2179
 30
0.0
 10
30.5855
 20
14.2179
 30
0.0
 10
30.5863
 20
14.1433
 30
0.0
 10
30.5997
 20
14.075
 30
0.0
 10
30.6257
 20
14.0131
 30
0.0
 10
30.6257
 20
14.0131
 30
0.0
 10
30.6523
 20
13.9509
 30
0.0
 10
30.6871
 20
13.8956
 30
0.0
 10
30.7317
 20
13.8475
 30
0.0
 10
30.7317
 20
13.8475
 30
0.0
 10
30.7756
 20
13.7999
 30
0.0
 10
30.8255
 20
13.7595
 30
0.0
 10
30.8804
 20
13.7274
 30
0.0
 10
30.8804
 20
13.7274
 30
0.0
 10
30.8804
 20
13.7274
 30
0.0
 10
30.8804
 20
13.7212
 30
0.0
 10
30.8804
 20
13.7212
 30
0.0
 10
30.8804
 20
13.7212
 30
0.0
 10
30.7751
 20
13.7326
 30
0.0
 10
30.6736
 20
13.7554
 30
0.0
 10
30.5759
 20
13.79
 30
0.0
 10
30.5759
 20
13.79
 30
0.0
 10
30.4788
 20
13.8241
 30
0.0
 10
30.3897
 20
13.8697
 30
0.0
 10
30.3088
 20
13.9277
 30
0.0
 10
30.3088
 20
13.9277
 30
0.0
 10
30.2287
 20
13.9857
 30
0.0
 10
30.16
 20
14.0554
 30
0.0
 10
30.1044
 20
14.1377
 30
0.0
 10
30.1044
 20
14.1377
 30
0.0
 10
30.0488
 20
14.22
 30
0.0
 10
30.01
 20
14.3152
 30
0.0
 10
29.988
 20
14.4228
 30
0.0
 10
29.988
 20
14.4228
 30
0.0
 10
29.9803
 20
14.4616
 30
0.0
 10
29.9743
 20
14.4989
 30
0.0
 10
29.9711
 20
14.5334
 30
0.0
 10
29.9711
 20
14.5334
 30
0.0
 10
29.9673
 20
14.5682
 30
0.0
 10
29.9666
 20
14.5997
 30
0.0
 10
29.9686
 20
14.6277
 30
0.0
 10
29.9686
 20
14.6277
 30
0.0
 10
29.9686
 20
14.6277
 30
0.0
 10
29.6892
 20
14.6277
 30
0.0
 10
29.6892
 20
14.6277
 30
0.0
  0
SPLINE
  5
197
330
1F
100
AcDbEntity
  8
Ilustrace
 62
   250
100
AcDbSpline
210
0.0
220
0.0
230
1.0
 70
    11
 71
     3
 72
    64
 73
    60
 74
     0
 42
0.0000000001
 43
0.0000000001
 40
0.0
 40
0.0
 40
0.0
 40
0.0
 40
0.0625
 40
0.0625
 40
0.0625
 40
0.0625
 40
0.125
 40
0.125
 40
0.125
 40
0.125
 40
0.1875
 40
0.1875
 40
0.1875
 40
0.1875
 40
0.25
 40
0.25
 40
0.25
 40
0.25
 40
0.3125
 40
0.3125
 40
0.3125
 40
0.3125
 40
0.375
 40
0.375
 40
0.375
 40
0.375
 40
0.4375
 40
0.4375
 40
0.4375
 40
0.4375
 40
0.5
 40
0.5
 40
0.5
 40
0.5
 40
0.5625
 40
0.5625
 40
0.5625
 40
0.5625
 40
0.625
 40
0.625
 40
0.625
 40
0.625
 40
0.6875
 40
0.6875
 40
0.6875
 40
0.6875
 40
0.75
 40
0.75
 40
0.75
 40
0.75
 40
0.8125
 40
0.8125
 40
0.8125
 40
0.8125
 40
0.875
 40
0.875
 40
0.875
 40
0.875
 40
1.0
 40
1.0
 40
1.0
 40
1.0
 10
32.0291
 20
14.159
 30
0.0
 10
32.0284
 20
14.0865
 30
0.0
 10
32.0102
 20
14.0228
 30
0.0
 10
31.974
 20
13.9674
 30
0.0
 10
31.974
 20
13.9674
 30
0.0
 10
31.9378
 20
13.9126
 30
0.0
 10
31.8874
 20
13.8661
 30
0.0
 10
31.8221
 20
13.8283
 30
0.0
 10
31.8221
 20
13.8283
 30
0.0
 10
31.7568
 20
13.7905
 30
0.0
 10
31.6799
 20
13.7621
 30
0.0
 10
31.5918
 20
13.7425
 30
0.0
 10
31.5918
 20
13.7425
 30
0.0
 10
31.504
 20
13.7228
 30
0.0
 10
31.4075
 20
13.7129
 30
0.0
 10
31.3035
 20
13.7119
 30
0.0
 10
31.3035
 20
13.7119
 30
0.0
 10
31.2724
 20
13.7119
 30
0.0
 10
31.2452
 20
13.7151
 30
0.0
 10
31.2206
 20
13.7202
 30
0.0
 10
31.2206
 20
13.7202
 30
0.0
 10
31.1967
 20
13.7254
 30
0.0
 10
31.1754
 20
13.7321
 30
0.0
 10
31.156
 20
13.7399
 30
0.0
 10
31.156
 20
13.7399
 30
0.0
 10
31.0933
 20
13.7651
 30
0.0
 10
31.0389
 20
13.7979
 30
0.0
 10
30.9923
 20
13.8386
 30
0.0
 10
30.9923
 20
13.8386
 30
0.0
 10
30.9464
 20
13.8791
 30
0.0
 10
30.9102
 20
13.9245
 30
0.0
 10
30.8843
 20
13.9752
 30
0.0
 10
30.8843
 20
13.9752
 30
0.0
 10
30.859
 20
14.026
 30
0.0
 10
30.8456
 20
14.0788
 30
0.0
 10
30.8456
 20
14.134
 30
0.0
 10
30.8456
 20
14.134
 30
0.0
 10
30.8461
 20
14.2184
 30
0.0
 10
30.8694
 20
14.2914
 30
0.0
 10
30.9154
 20
14.354
 30
0.0
 10
30.9154
 20
14.354
 30
0.0
 10
30.9613
 20
14.4161
 30
0.0
 10
31.0273
 20
14.4641
 30
0.0
 10
31.1133
 20
14.4983
 30
0.0
 10
31.1133
 20
14.4983
 30
0.0
 10
31.1993
 20
14.5324
 30
0.0
 10
31.3027
 20
14.5495
 30
0.0
 10
31.4238
 20
14.5501
 30
0.0
 10
31.4238
 20
14.5501
 30
0.0
 10
31.5447
 20
14.5495
 30
0.0
 10
31.6507
 20
14.533
 30
0.0
 10
31.7412
 20
14.5003
 30
0.0
 10
31.7412
 20
14.5003
 30
0.0
 10
31.8318
 20
14.4677
 30
0.0
 10
31.9016
 20
14.4223
 30
0.0
 10
31.9521
 20
14.3639
 30
0.0
 10
31.9521
 20
14.3639
 30
0.0
 10
32.0025
 20
14.3053
 30
0.0
 10
32.0284
 20
14.237
 30
0.0
 10
32.0291
 20
14.159
 30
0.0
  0
SPLINE
  5
198
330
1F
100
AcDbEntity
  8
Ilustrace
 62
   250
370
    15
100
AcDbSpline
210
0.0
220
0.0
230
1.0
 70
    24
 71
     3
 72
     8
 73
     4
 74
     0
 42
0.0000000001
 43
0.0000000001
 40
0.0
 40
0.0
 40
0.0
 40
0.0
 40
1.0
 40
1.0
 40
1.0
 40
1.0
 10
32.5134
 20
16.0364
 30
0.0
 10
32.5134
 20
16.0364
 30
0.0
 10
32.5134
 20
7.8343
 30
0.0
 10
32.5134
 20
7.8343
 30
0.0
  0
SPLINE
  5
199
330
1F
100
AcDbEntity
  8
Ilustrace
 62
   250
370
     9
100
AcDbSpline
210
0.0
220
0.0
230
1.0
 70
    11
 71
     3
 72
    32
 73
    28
 74
     0
 42
0.0000000001
 43
0.0000000001
 40
0.0
 40
0.0
 40
0.0
 40
0.0
 40
0.125
 40
0.125
 40
0.125
 40
0.125
 40
0.25
 40
0.25
 40
0.25
 40
0.25
 40
0.375
 40
0.375
 40
0.375
 40
0.375
 40
0.5
 40
0.5
 40
0.5
 40
0.5
 40
0.625
 40
0.625
 40
0.625
 40
0.625
 40
0.75
 40
0.75
 40
0.75
 40
0.75
 40
1.0
 40
1.0
 40
1.0
 40
1.0
 10
32.9387
 20
8.5226
 30
0.0
 10
32.9387
 20
8.5226
 30
0.0
 10
32.9387
 20
8.5226
 30
0.0
 10
32.9387
 20
8.5226
 30
0.0
 10
32.9387
 20
8.5226
 30
0.0
 10
32.9387
 20
8.5226
 30
0.0
 10
32.9387
 20
8.5226
 30
0.0
 10
32.9387
 20
8.5226
 30
0.0
 10
32.9387
 20
8.5226
 30
0.0
 10
32.9387
 20
8.5226
 30
0.0
 10
32.4953
 20
9.7954
 30
0.0
 10
32.4953
 20
9.7954
 30
0.0
 10
32.4953
 20
9.7954
 30
0.0
 10
32.4953
 20
9.7954
 30
0.0
 10
32.0519
 20
8.5226
 30
0.0
 10
32.0519
 20
8.5226
 30
0.0
 10
32.0519
 20
8.5226
 30
0.0
 10
32.0519
 20
8.5226
 30
0.0
 10
32.0519
 20
8.5226
 30
0.0
 10
32.0519
 20
8.5226
 30
0.0
 10
32.0519
 20
8.5226
 30
0.0
 10
32.0519
 20
8.5226
 30
0.0
 10
32.0519
 20
8.5226
 30
0.0
 10
32.0519
 20
8.5226
 30
0.0
 10
32.0519
 20
8.5226
 30
0.0
 10
32.0519
 20
8.5226
 30
0.0
 10
32.9387
 20
8.5226
 30
0.0
 10
32.9387
 20
8.5226
 30
0.0
  0
SPLINE
  5
19A
330
1F
100
AcDbEntity
  8
Ilustrace
 62
   250
370
     9
100
AcDbSpline
210
0.0
220
0.0
230
1.0
 70
    11
 71
     3
 72
    32
 73
    28
 74
     0
 42
0.0000000001
 43
0.0000000001
 40
0.0
 40
0.0
 40
0.0
 40
0.0
 40
0.125
 40
0.125
 40
0.125
 40
0.125
 40
0.25
 40
0.25
 40
0.25
 40
0.25
 40
0.375
 40
0.375
 40
0.375
 40
0.375
 40
0.5
 40
0.5
 40
0.5
 40
0.5
 40
0.625
 40
0.625
 40
0.625
 40
0.625
 40
0.75
 40
0.75
 40
0.75
 40
0.75
 40
1.0
 40
1.0
 40
1.0
 40
1.0
 10
32.9227
 20
12.6557
 30
0.0
 10
32.9227
 20
12.6557
 30
0.0
 10
32.9227
 20
12.6557
 30
0.0
 10
32.9227
 20
12.6557
 30
0.0
 10
32.9227
 20
12.6557
 30
0.0
 10
32.9227
 20
12.6557
 30
0.0
 10
32.9227
 20
12.6557
 30
0.0
 10
32.9227
 20
12.6557
 30
0.0
 10
32.9227
 20
12.6557
 30
0.0
 10
32.9227
 20
12.6557
 30
0.0
 10
32.4793
 20
11.3829
 30
0.0
 10
32.4793
 20
11.3829
 30
0.0
 10
32.4793
 20
11.3829
 30
0.0
 10
32.4793
 20
11.3829
 30
0.0
 10
32.0359
 20
12.6557
 30
0.0
 10
32.0359
 20
12.6557
 30
0.0
 10
32.0359
 20
12.6557
 30
0.0
 10
32.0359
 20
12.6557
 30
0.0
 10
32.0359
 20
12.6557
 30
0.0
 10
32.0359
 20
12.6557
 30
0.0
 10
32.0359
 20
12.6557
 30
0.0
 10
32.0359
 20
12.6557
 30
0.0
 10
32.0359
 20
12.6557
 30
0.0
 10
32.0359
 20
12.6557
 30
0.0
 10
32.0359
 20
12.6557
 30
0.0
 10
32.0359
 20
12.6557
 30
0.0
 10
32.9227
 20
12.6557
 30
0.0
 10
32.9227
 20
12.6557
 30
0.0
  0
SPLINE
  5
19B
330
1F
100
AcDbEntity
  8
Ilustrace
 62
   250
370
    15
100
AcDbSpline
210
0.0
220
0.0
230
1.0
 70
    24
 71
     3
 72
     8
 73
     4
 74
     0
 42
0.0000000001
 43
0.0000000001
 40
0.0
 40
0.0
 40
0.0
 40
0.0
 40
1.0
 40
1.0
 40
1.0
 40
1.0
 10
23.6907
 20
9.792
 30
0.0
 10
23.6907
 20
9.792
 30
0.0
 10
32.7731
 20
9.792
 30
0.0
 10
32.7731
 20
9.792
 30
0.0
  0
SPLINE
  5
19C
330
1F
100
AcDbEntity
  8
Ilustrace
 62
   250
370
    15
100
AcDbSpline
210
0.0
220
0.0
230
1.0
 70
    24
 71
     3
 72
     8
 73
     4
 74
     0
 42
0.0000000001
 43
0.0000000001
 40
0.0
 40
0.0
 40
0.0
 40
0.0
 40
1.0
 40
1.0
 40
1.0
 40
1.0
 10
23.7568
 20
11.3684
 30
0.0
 10
23.7568
 20
11.3684
 30
0.0
 10
32.8392
 20
11.3684
 30
0.0
 10
32.8392
 20
11.3684
 30
0.0
  0
ENDSEC
  0
SECTION
  2
OBJECTS
  0
DICTIONARY
  5
C
330
0
100
AcDbDictionary
281
     1
  3
ACAD_GROUP
350
D
  3
ACAD_LAYOUT
350
1A
  3
ACAD_MATERIAL
350
3B
  3
ACAD_MLEADERSTYLE
350
19F
  3
ACAD_MLINESTYLE
350
17
  3
ACAD_PLOTSETTINGS
350
19
  3
ACAD_PLOTSTYLENAME
350
E
  3
ACAD_VISUALSTYLE
350
2A
  3
AcDbVariableDictionary
350
19D
  0
DICTIONARY
  5
D
102
{ACAD_REACTORS
330
C
102
}
330
C
100
AcDbDictionary
281
     1
  0
DICTIONARY
  5
1A
102
{ACAD_REACTORS
330
C
102
}
330
C
100
AcDbDictionary
281
     1
  3
Layout1
350
1E
  3
Layout2
350
26
  3
Model
350
22
  0
DICTIONARY
  5
3B
102
{ACAD_REACTORS
330
C
102
}
330
C
100
AcDbDictionary
281
     1
  3
ByBlock
350
3D
  3
ByLayer
350
3C
  3
Global
350
3E
  0
DICTIONARY
  5
19F
102
{ACAD_REACTORS
330
C
102
}
330
C
100
AcDbDictionary
281
     1
  0
DICTIONARY
  5
17
102
{ACAD_REACTORS
330
C
102
}
330
C
100
AcDbDictionary
281
     1
  3
Standard
350
18
  0
DICTIONARY
  5
19
102
{ACAD_REACTORS
330
C
102
}
330
C
100
AcDbDictionary
281
     1
  0
ACDBDICTIONARYWDFLT
  5
E
102
{ACAD_REACTORS
330
C
102
}
330
C
100
AcDbDictionary
281
     1
  3
Normal
350
F
100
AcDbDictionaryWithDefault
340
F
  0
DICTIONARY
  5
2A
102
{ACAD_REACTORS
330
C
102
}
330
C
100
AcDbDictionary
281
     1
  3
2dWireframe
350
2F
  3
3D Hidden
350
31
  3
3dWireframe
350
30
  3
Basic
350
32
  3
Brighten
350
36
  3
ColorChange
350
3A
  3
Conceptual
350
34
  3
Dim
350
35
  3
Facepattern
350
39
  3
Flat
350
2B
  3
FlatWithEdges
350
2C
  3
Gouraud
350
2D
  3
GouraudWithEdges
350
2E
  3
Linepattern
350
38
  3
Realistic
350
33
  3
Thicken
350
37
  0
DICTIONARY
  5
19D
102
{ACAD_REACTORS
330
C
102
}
330
C
100
AcDbDictionary
281
     1
  3
DIMASSOC
350
1A0
  3
HIDETEXT
350
1A1
  0
LAYOUT
  5
1E
102
{ACAD_REACTORS
330
1A
102
}
330
1A
100
AcDbPlotSettings
  1

  2
none_device
  4

  6

 40
0.0
 41
0.0
 42
0.0
 43
0.0
 44
0.0
 45
0.0
 46
0.0
 47
0.0
 48
0.0
 49
0.0
140
0.0
141
0.0
142
1.0
143
1.0
 70
   688
 72
     0
 73
     0
 74
     5
  7

 75
    16
147
1.0
148
0.0
149
0.0
100
AcDbLayout
  1
Layout1
 70
     1
 71
     1
 10
0.0
 20
0.0
 11
12.0
 21
9.0
 12
0.0
 22
0.0
 32
0.0
 14
1.000000000000000E+20
 24
1.000000000000000E+20
 34
1.000000000000000E+20
 15
-1.000000000000000E+20
 25
-1.000000000000000E+20
 35
-1.000000000000000E+20
146
0.0
 13
0.0
 23
0.0
 33
0.0
 16
1.0
 26
0.0
 36
0.0
 17
0.0
 27
1.0
 37
0.0
 76
     0
330
1B
  0
LAYOUT
  5
26
102
{ACAD_REACTORS
330
1A
102
}
330
1A
100
AcDbPlotSettings
  1

  2
none_device
  4

  6

 40
0.0
 41
0.0
 42
0.0
 43
0.0
 44
0.0
 45
0.0
 46
0.0
 47
0.0
 48
0.0
 49
0.0
140
0.0
141
0.0
142
1.0
143
1.0
 70
   688
 72
     0
 73
     0
 74
     5
  7

 75
    16
147
1.0
148
0.0
149
0.0
100
AcDbLayout
  1
Layout2
 70
     1
 71
     2
 10
0.0
 20
0.0
 11
0.0
 21
0.0
 12
0.0
 22
0.0
 32
0.0
 14
0.0
 24
0.0
 34
0.0
 15
0.0
 25
0.0
 35
0.0
146
0.0
 13
0.0
 23
0.0
 33
0.0
 16
1.0
 26
0.0
 36
0.0
 17
0.0
 27
1.0
 37
0.0
 76
     0
330
23
  0
LAYOUT
  5
22
102
{ACAD_REACTORS
330
1A
102
}
330
1A
100
AcDbPlotSettings
  1

  2
none_device
  4

  6

 40
0.0
 41
0.0
 42
0.0
 43
0.0
 44
0.0
 45
0.0
 46
0.0
 47
0.0
 48
0.0
 49
0.0
140
0.0
141
0.0
142
1.0
143
1.0
 70
  1712
 72
     0
 73
     0
 74
     0
  7

 75
     0
147
1.0
148
0.0
149
0.0
100
AcDbLayout
  1
Model
 70
     1
 71
     0
 10
0.0
 20
0.0
 11
12.0
 21
9.0
 12
0.0
 22
0.0
 32
0.0
 14
-37.5883
 24
-37.6397
 34
0.0
 15
37.5883
 25
37.5687
 35
0.0
146
0.0
 13
0.0
 23
0.0
 33
0.0
 16
1.0
 26
0.0
 36
0.0
 17
0.0
 27
1.0
 37
0.0
 76
     0
330
1F
331
29
  0
MATERIAL
  5
3D
102
{ACAD_REACTORS
330
3B
102
}
102
{ACAD_XDICTIONARY
360
1C4
102
}
330
3B
100
AcDbMaterial
  1
ByBlock
  0
MATERIAL
  5
3C
102
{ACAD_REACTORS
330
3B
102
}
102
{ACAD_XDICTIONARY
360
1C2
102
}
330
3B
100
AcDbMaterial
  1
ByLayer
  0
MATERIAL
  5
3E
102
{ACAD_REACTORS
330
3B
102
}
102
{ACAD_XDICTIONARY
360
1C6
102
}
330
3B
100
AcDbMaterial
  1
Global
  0
MLINESTYLE
  5
18
102
{ACAD_REACTORS
330
17
102
}
330
17
100
AcDbMlineStyle
  2
Standard
 70
     0
  3

 62
   256
 51
90.0
 52
90.0
 71
     2
 49
0.5
 62
   256
  6
BYLAYER
 49
-0.5
 62
   256
  6
BYLAYER
  0
ACDBPLACEHOLDER
  5
F
102
{ACAD_REACTORS
330
E
102
}
330
E
  0
VISUALSTYLE
  5
2F
102
{ACAD_REACTORS
330
2A
102
}
102
{ACAD_XDICTIONARY
360
1AA
102
}
330
2A
100
AcDbVisualStyle
  2
2dWireframe
 70
     4
 71
     0
 72
     2
 73
     0
 90
        0
 40
-0.6
 41
-30.0
 62
     5
 63
     7
 74
     1
 91
        4
 64
     7
 65
   257
 75
     1
175
     1
 42
1.0
 92
        0
 66
   257
 43
1.0
 76
     1
 77
     6
 78
     2
 67
     7
 79
     5
170
     0
171
     0
290
     0
174
     0
 93
        1
 44
0.0
173
     0
291
     0
 45
0.0
1001
ACAD
1000
AcDbSavedByObjectVersion
1070
     0
  0
VISUALSTYLE
  5
31
102
{ACAD_REACTORS
330
2A
102
}
102
{ACAD_XDICTIONARY
360
1AE
102
}
330
2A
100
AcDbVisualStyle
  2
3D Hidden
 70
     6
 71
     1
 72
     2
 73
     2
 90
        0
 40
-0.6
 41
-30.0
 62
     5
 63
     7
 74
     2
 91
        2
 64
     7
 65
   257
 75
     2
175
     1
 42
40.0
 92
        0
 66
   257
 43
1.0
 76
     1
 77
     6
 78
     2
 67
     7
 79
     3
170
     0
171
     0
290
     0
174
     0
 93
        1
 44
0.0
173
     0
291
     0
 45
0.0
1001
ACAD
1000
AcDbSavedByObjectVersion
1070
     0
  0
VISUALSTYLE
  5
30
102
{ACAD_REACTORS
330
2A
102
}
102
{ACAD_XDICTIONARY
360
1AC
102
}
330
2A
100
AcDbVisualStyle
  2
3dWireframe
 70
     5
 71
     0
 72
     2
 73
     0
 90
        0
 40
-0.6
 41
-30.0
 62
     5
 63
     7
 74
     1
 91
        4
 64
     7
 65
   257
 75
     1
175
     1
 42
1.0
 92
        0
 66
   257
 43
1.0
 76
     1
 77
     6
 78
     2
 67
     7
 79
     5
170
     0
171
     0
290
     0
174
     0
 93
        1
 44
0.0
173
     0
291
     0
 45
0.0
1001
ACAD
1000
AcDbSavedByObjectVersion
1070
     0
  0
VISUALSTYLE
  5
32
102
{ACAD_REACTORS
330
2A
102
}
102
{ACAD_XDICTIONARY
360
1B0
102
}
330
2A
100
AcDbVisualStyle
  2
Basic
 70
     7
 71
     1
 72
     0
 73
     1
 90
        0
 40
-0.6
 41
-30.0
 62
     5
 63
     7
 74
     0
 91
        4
 64
     7
 65
   257
 75
     1
175
     1
 42
1.0
 92
        8
 66
     7
 43
1.0
 76
     1
 77
     6
 78
     2
 67
     7
 79
     5
170
     0
171
     0
290
     0
174
     0
 93
        1
 44
0.0
173
     0
291
     1
 45
0.0
1001
ACAD
1000
AcDbSavedByObjectVersion
1070
     0
  0
VISUALSTYLE
  5
36
102
{ACAD_REACTORS
330
2A
102
}
102
{ACAD_XDICTIONARY
360
1B8
102
}
330
2A
100
AcDbVisualStyle
  2
Brighten
 70
    12
 71
     2
 72
     2
 73
     0
 90
        0
 40
-0.6
 41
-30.0
 62
     5
 63
     7
 74
     1
 91
        4
 64
     7
 65
   257
 75
     1
175
     1
 42
1.0
 92
        8
 66
     7
 43
1.0
 76
     1
 77
     6
 78
     2
 67
     7
 79
     5
170
     0
171
     0
290
     0
174
     0
 93
        1
 44
50.0
173
     0
291
     1
 45
0.0
1001
ACAD
1000
AcDbSavedByObjectVersion
1070
     0
  0
VISUALSTYLE
  5
3A
102
{ACAD_REACTORS
330
2A
102
}
102
{ACAD_XDICTIONARY
360
1C0
102
}
330
2A
100
AcDbVisualStyle
  2
ColorChange
 70
    16
 71
     2
 72
     2
 73
     3
 90
        0
 40
-0.6
 41
-30.0
 62
     5
 63
     8
 74
     1
 91
        4
 64
     7
 65
   257
 75
     1
175
     1
 42
1.0
 92
        8
 66
     8
 43
1.0
 76
     1
 77
     6
 78
     2
 67
     7
 79
     5
170
     0
171
     0
290
     0
174
     0
 93
        1
 44
0.0
173
     0
291
     1
 45
0.0
1001
ACAD
1000
AcDbSavedByObjectVersion
1070
     0
  0
VISUALSTYLE
  5
34
102
{ACAD_REACTORS
330
2A
102
}
102
{ACAD_XDICTIONARY
360
1B4
102
}
330
2A
100
AcDbVisualStyle
  2
Conceptual
 70
     9
 71
     3
 72
     2
 73
     0
 90
        0
 40
-0.6
 41
-30.0
 62
     5
 63
     7
 74
     2
 91
        2
 64
     7
 65
   257
 75
     1
175
     1
 42
40.0
 92
        8
 66
     7
 43
1.0
 76
     1
 77
     6
 78
     2
 67
     7
 79
     3
170
     0
171
     0
290
     0
174
     0
 93
        1
 44
0.0
173
     0
291
     0
 45
0.0
1001
ACAD
1000
AcDbSavedByObjectVersion
1070
     0
  0
VISUALSTYLE
  5
35
102
{ACAD_REACTORS
330
2A
102
}
102
{ACAD_XDICTIONARY
360
1B6
102
}
330
2A
100
AcDbVisualStyle
  2
Dim
 70
    11
 71
     2
 72
     2
 73
     0
 90
        0
 40
-0.6
 41
-30.0
 62
     5
 63
     7
 74
     1
 91
        4
 64
     7
 65
   257
 75
     1
175
     1
 42
1.0
 92
        8
 66
     7
 43
1.0
 76
     1
 77
     6
 78
     2
 67
     7
 79
     5
170
     0
171
     0
290
     0
174
     0
 93
        1
 44
-50.0
173
     0
291
     1
 45
0.0
1001
ACAD
1000
AcDbSavedByObjectVersion
1070
     0
  0
VISUALSTYLE
  5
39
102
{ACAD_REACTORS
330
2A
102
}
102
{ACAD_XDICTIONARY
360
1BE
102
}
330
2A
100
AcDbVisualStyle
  2
Facepattern
 70
    15
 71
     2
 72
     2
 73
     0
 90
        0
 40
-0.6
 41
-30.0
 62
     5
 63
     7
 74
     1
 91
        4
 64
     7
 65
   257
 75
     1
175
     1
 42
1.0
 92
        8
 66
     7
 43
1.0
 76
     1
 77
     6
 78
     2
 67
     7
 79
     5
170
     0
171
     0
290
     0
174
     0
 93
        1
 44
0.0
173
     0
291
     1
 45
0.0
1001
ACAD
1000
AcDbSavedByObjectVersion
1070
     0
  0
VISUALSTYLE
  5
2B
102
{ACAD_REACTORS
330
2A
102
}
102
{ACAD_XDICTIONARY
360
1A2
102
}
330
2A
100
AcDbVisualStyle
  2
Flat
 70
     0
 71
     2
 72
     1
 73
     1
 90
        2
 40
-0.6
 41
30.0
 62
     5
 63
     7
 74
     0
 91
        4
 64
     7
 65
   257
 75
     1
175
     1
 42
1.0
 92
        8
 66
     7
 43
1.0
 76
     1
 77
     6
 78
     2
 67
     7
 79
     5
170
     0
171
     0
290
     0
174
     0
 93
       13
 44
0.0
173
     0
291
     1
 45
0.0
1001
ACAD
1000
AcDbSavedByObjectVersion
1070
     0
  0
VISUALSTYLE
  5
2C
102
{ACAD_REACTORS
330
2A
102
}
102
{ACAD_XDICTIONARY
360
1A4
102
}
330
2A
100
AcDbVisualStyle
  2
FlatWithEdges
 70
     1
 71
     2
 72
     1
 73
     1
 90
        2
 40
-0.6
 41
30.0
 62
     5
 63
     7
 74
     1
 91
        4
 64
     7
 65
   257
 75
     1
175
     1
 42
1.0
 92
        0
 66
   257
 43
1.0
 76
     1
 77
     6
 78
     2
 67
     7
 79
     5
170
     0
171
     0
290
     0
174
     0
 93
       13
 44
0.0
173
     0
291
     1
 45
0.0
1001
ACAD
1000
AcDbSavedByObjectVersion
1070
     0
  0
VISUALSTYLE
  5
2D
102
{ACAD_REACTORS
330
2A
102
}
102
{ACAD_XDICTIONARY
360
1A6
102
}
330
2A
100
AcDbVisualStyle
  2
Gouraud
 70
     2
 71
     2
 72
     2
 73
     1
 90
        2
 40
-0.6
 41
30.0
 62
     5
 63
     7
 74
     0
 91
        4
 64
     7
 65
   257
 75
     1
175
     1
 42
1.0
 92
        0
 66
     7
 43
1.0
 76
     1
 77
     6
 78
     2
 67
     7
 79
     5
170
     0
171
     0
290
     0
174
     0
 93
       13
 44
0.0
173
     0
291
     1
 45
0.0
1001
ACAD
1000
AcDbSavedByObjectVersion
1070
     0
  0
VISUALSTYLE
  5
2E
102
{ACAD_REACTORS
330
2A
102
}
102
{ACAD_XDICTIONARY
360
1A8
102
}
330
2A
100
AcDbVisualStyle
  2
GouraudWithEdges
 70
     3
 71
     2
 72
     2
 73
     1
 90
        2
 40
-0.6
 41
30.0
 62
     5
 63
     7
 74
     1
 91
        4
 64
     7
 65
   257
 75
     1
175
     1
 42
1.0
 92
        0
 66
   257
 43
1.0
 76
     1
 77
     6
 78
     2
 67
     7
 79
     5
170
     0
171
     0
290
     0
174
     0
 93
       13
 44
0.0
173
     0
291
     1
 45
0.0
1001
ACAD
1000
AcDbSavedByObjectVersion
1070
     0
  0
VISUALSTYLE
  5
38
102
{ACAD_REACTORS
330
2A
102
}
102
{ACAD_XDICTIONARY
360
1BC
102
}
330
2A
100
AcDbVisualStyle
  2
Linepattern
 70
    14
 71
     2
 72
     2
 73
     0
 90
        0
 40
-0.6
 41
-30.0
 62
     5
 63
     7
 74
     1
 91
        4
 64
     7
 65
   257
 75
     7
175
     7
 42
1.0
 92
        8
 66
     7
 43
1.0
 76
     1
 77
     6
 78
     2
 67
     7
 79
     5
170
     0
171
     0
290
     0
174
     0
 93
        1
 44
0.0
173
     0
291
     1
 45
0.0
1001
ACAD
1000
AcDbSavedByObjectVersion
1070
     0
  0
VISUALSTYLE
  5
33
102
{ACAD_REACTORS
330
2A
102
}
102
{ACAD_XDICTIONARY
360
1B2
102
}
330
2A
100
AcDbVisualStyle
  2
Realistic
 70
     8
 71
     2
 72
     2
 73
     0
 90
        0
 40
-0.6
 41
-30.0
 62
     5
 63
     7
 74
     1
 91
        0
 64
     7
 65
   257
 75
     1
175
     1
 42
1.0
 92
        8
 66
     8
 43
1.0
 76
     1
 77
     6
 78
     2
 67
     7
 79
     5
170
     0
171
     0
290
     0
174
     0
 93
       13
 44
0.0
173
     0
291
     0
 45
0.0
1001
ACAD
1000
AcDbSavedByObjectVersion
1070
     0
  0
VISUALSTYLE
  5
37
102
{ACAD_REACTORS
330
2A
102
}
102
{ACAD_XDICTIONARY
360
1BA
102
}
330
2A
100
AcDbVisualStyle
  2
Thicken
 70
    13
 71
     2
 72
     2
 73
     0
 90
        0
 40
-0.6
 41
-30.0
 62
     5
 63
     7
 74
     1
 91
        4
 64
     7
 65
   257
 75
     1
175
     1
 42
1.0
 92
       12
 66
     7
 43
1.0
 76
     1
 77
     6
 78
     2
 67
     7
 79
     5
170
     0
171
     0
290
     0
174
     0
 93
        1
 44
0.0
173
     0
291
     1
 45
0.0
1001
ACAD
1000
AcDbSavedByObjectVersion
1070
     0
  0
DICTIONARYVAR
  5
1A0
102
{ACAD_REACTORS
330
19D
102
}
330
19D
100
DictionaryVariables
280
     0
  1
2
  0
DICTIONARYVAR
  5
1A1
102
{ACAD_REACTORS
330
19D
102
}
330
19D
100
DictionaryVariables
280
     0
  1
1
  0
DICTIONARY
  5
1C4
330
3D
100
AcDbDictionary
280
     1
281
     1
  3
ACAD_XREC_ROUNDTRIP
360
1C5
  0
DICTIONARY
  5
1C2
330
3C
100
AcDbDictionary
280
     1
281
     1
  3
ACAD_XREC_ROUNDTRIP
360
1C3
  0
DICTIONARY
  5
1C6
330
3E
100
AcDbDictionary
280
     1
281
     1
  3
ACAD_XREC_ROUNDTRIP
360
1C7
  0
DICTIONARY
  5
1AA
330
2F
100
AcDbDictionary
280
     1
281
     1
  3
ACAD_XREC_ROUNDTRIP
360
1AB
  0
DICTIONARY
  5
1AE
330
31
100
AcDbDictionary
280
     1
281
     1
  3
ACAD_XREC_ROUNDTRIP
360
1AF
  0
DICTIONARY
  5
1AC
330
30
100
AcDbDictionary
280
     1
281
     1
  3
ACAD_XREC_ROUNDTRIP
360
1AD
  0
DICTIONARY
  5
1B0
330
32
100
AcDbDictionary
280
     1
281
     1
  3
ACAD_XREC_ROUNDTRIP
360
1B1
  0
DICTIONARY
  5
1B8
330
36
100
AcDbDictionary
280
     1
281
     1
  3
ACAD_XREC_ROUNDTRIP
360
1B9
  0
DICTIONARY
  5
1C0
330
3A
100
AcDbDictionary
280
     1
281
     1
  3
ACAD_XREC_ROUNDTRIP
360
1C1
  0
DICTIONARY
  5
1B4
330
34
100
AcDbDictionary
280
     1
281
     1
  3
ACAD_XREC_ROUNDTRIP
360
1B5
  0
DICTIONARY
  5
1B6
330
35
100
AcDbDictionary
280
     1
281
     1
  3
ACAD_XREC_ROUNDTRIP
360
1B7
  0
DICTIONARY
  5
1BE
330
39
100
AcDbDictionary
280
     1
281
     1
  3
ACAD_XREC_ROUNDTRIP
360
1BF
  0
DICTIONARY
  5
1A2
330
2B
100
AcDbDictionary
280
     1
281
     1
  3
ACAD_XREC_ROUNDTRIP
360
1A3
  0
DICTIONARY
  5
1A4
330
2C
100
AcDbDictionary
280
     1
281
     1
  3
ACAD_XREC_ROUNDTRIP
360
1A5
  0
DICTIONARY
  5
1A6
330
2D
100
AcDbDictionary
280
     1
281
     1
  3
ACAD_XREC_ROUNDTRIP
360
1A7
  0
DICTIONARY
  5
1A8
330
2E
100
AcDbDictionary
280
     1
281
     1
  3
ACAD_XREC_ROUNDTRIP
360
1A9
  0
DICTIONARY
  5
1BC
330
38
100
AcDbDictionary
280
     1
281
     1
  3
ACAD_XREC_ROUNDTRIP
360
1BD
  0
DICTIONARY
  5
1B2
330
33
100
AcDbDictionary
280
     1
281
     1
  3
ACAD_XREC_ROUNDTRIP
360
1B3
  0
DICTIONARY
  5
1BA
330
37
100
AcDbDictionary
280
     1
281
     1
  3
ACAD_XREC_ROUNDTRIP
360
1BB
  0
XRECORD
  5
1C5
102
{ACAD_REACTORS
330
1C4
102
}
330
1C4
100
AcDbXrecord
280
     1
102
MATERIAL
148
0.0
149
0.0
149
0.0
 93
        0
 94
      127
282
     0
 72
     1
 77
     1
171
     1
175
     1
179
     1
273
     0
  0
XRECORD
  5
1C3
102
{ACAD_REACTORS
330
1C2
102
}
330
1C2
100
AcDbXrecord
280
     1
102
MATERIAL
148
0.0
149
0.0
149
0.0
 93
        0
 94
      127
282
     0
 72
     1
 77
     1
171
     1
175
     1
179
     1
273
     0
  0
XRECORD
  5
1C7
102
{ACAD_REACTORS
330
1C6
102
}
330
1C6
100
AcDbXrecord
280
     1
102
MATERIAL
148
0.0
149
0.0
149
0.0
 93
        0
 94
      127
282
     0
 72
     1
 77
     1
171
     1
175
     1
179
     1
273
     0
  0
XRECORD
  5
1AB
102
{ACAD_REACTORS
330
1AA
102
}
330
1AA
100
AcDbXrecord
280
     1
102
RTVSPropertyOp0
 70
     1
102
RTVSPropertyOp1
 70
     1
102
RTVSPropertyOp2
 70
     1
102
RTVSPropertyOp3
 70
     1
102
RTVSPropertyOp4
 70
     1
102
RTVSPropertyOp5
 70
     1
102
RTVSPropertyOp6
 70
     1
102
RTVSPropertyOp7
 70
     1
102
RTVSPropertyOp8
 70
     1
102
RTVSPropertyOp9
 70
     1
102
RTVSPropertyOp10
 70
     1
102
RTVSPropertyOp11
 70
     1
102
RTVSPropertyOp12
 70
     1
102
RTVSPropertyOp13
 70
     1
102
RTVSPropertyOp14
 70
     1
102
RTVSPropertyOp15
 70
     1
102
RTVSPropertyOp16
 70
     1
102
RTVSPropertyOp17
 70
     1
102
RTVSPropertyOp18
 70
     1
102
RTVSPropertyOp19
 70
     1
102
RTVSPropertyOp20
 70
     1
102
RTVSPropertyOp21
 70
     1
102
RTVSPropertyOp22
 70
     1
102
RTVSPropertyOp23
 70
     1
102
RTVSPropertyOp24
 70
     1
102
RTVSPropertyOp25
 70
     1
102
RTVSPropertyOp26
 70
     1
102
RTVSPropertyOp27
 70
     1
  0
XRECORD
  5
1AF
102
{ACAD_REACTORS
330
1AE
102
}
330
1AE
100
AcDbXrecord
280
     1
102
RTVSPropertyOp0
 70
     1
102
RTVSPropertyOp1
 70
     1
102
RTVSPropertyOp2
 70
     1
102
RTVSPropertyOp3
 70
     1
102
RTVSPropertyOp4
 70
     1
102
RTVSPropertyOp5
 70
     1
102
RTVSPropertyOp6
 70
     1
102
RTVSPropertyOp7
 70
     1
102
RTVSPropertyOp8
 70
     1
102
RTVSPropertyOp9
 70
     1
102
RTVSPropertyOp10
 70
     1
102
RTVSPropertyOp11
 70
     1
102
RTVSPropertyOp12
 70
     1
102
RTVSPropertyOp13
 70
     1
102
RTVSPropertyOp14
 70
     1
102
RTVSPropertyOp15
 70
     1
102
RTVSPropertyOp16
 70
     1
102
RTVSPropertyOp17
 70
     1
102
RTVSPropertyOp18
 70
     1
102
RTVSPropertyOp19
 70
     1
102
RTVSPropertyOp20
 70
     1
102
RTVSPropertyOp21
 70
     1
102
RTVSPropertyOp22
 70
     1
102
RTVSPropertyOp23
 70
     1
102
RTVSPropertyOp24
 70
     1
102
RTVSPropertyOp25
 70
     1
102
RTVSPropertyOp26
 70
     1
102
RTVSPropertyOp27
 70
     1
  0
XRECORD
  5
1AD
102
{ACAD_REACTORS
330
1AC
102
}
330
1AC
100
AcDbXrecord
280
     1
102
RTVSPropertyOp0
 70
     1
102
RTVSPropertyOp1
 70
     1
102
RTVSPropertyOp2
 70
     1
102
RTVSPropertyOp3
 70
     1
102
RTVSPropertyOp4
 70
     1
102
RTVSPropertyOp5
 70
     1
102
RTVSPropertyOp6
 70
     1
102
RTVSPropertyOp7
 70
     1
102
RTVSPropertyOp8
 70
     1
102
RTVSPropertyOp9
 70
     1
102
RTVSPropertyOp10
 70
     1
102
RTVSPropertyOp11
 70
     1
102
RTVSPropertyOp12
 70
     1
102
RTVSPropertyOp13
 70
     1
102
RTVSPropertyOp14
 70
     1
102
RTVSPropertyOp15
 70
     1
102
RTVSPropertyOp16
 70
     1
102
RTVSPropertyOp17
 70
     1
102
RTVSPropertyOp18
 70
     1
102
RTVSPropertyOp19
 70
     1
102
RTVSPropertyOp20
 70
     1
102
RTVSPropertyOp21
 70
     1
102
RTVSPropertyOp22
 70
     1
102
RTVSPropertyOp23
 70
     1
102
RTVSPropertyOp24
 70
     1
102
RTVSPropertyOp25
 70
     1
102
RTVSPropertyOp26
 70
     1
102
RTVSPropertyOp27
 70
     1
  0
XRECORD
  5
1B1
102
{ACAD_REACTORS
330
1B0
102
}
330
1B0
100
AcDbXrecord
280
     1
102
RTVSPropertyOp0
 70
     1
102
RTVSPropertyOp1
 70
     1
102
RTVSPropertyOp2
 70
     1
102
RTVSPropertyOp3
 70
     1
102
RTVSPropertyOp4
 70
     1
102
RTVSPropertyOp5
 70
     1
102
RTVSPropertyOp6
 70
     1
102
RTVSPropertyOp7
 70
     1
102
RTVSPropertyOp8
 70
     1
102
RTVSPropertyOp9
 70
     1
102
RTVSPropertyOp10
 70
     1
102
RTVSPropertyOp11
 70
     1
102
RTVSPropertyOp12
 70
     1
102
RTVSPropertyOp13
 70
     1
102
RTVSPropertyOp14
 70
     1
102
RTVSPropertyOp15
 70
     1
102
RTVSPropertyOp16
 70
     1
102
RTVSPropertyOp17
 70
     1
102
RTVSPropertyOp18
 70
     1
102
RTVSPropertyOp19
 70
     1
102
RTVSPropertyOp20
 70
     1
102
RTVSPropertyOp21
 70
     1
102
RTVSPropertyOp22
 70
     1
102
RTVSPropertyOp23
 70
     1
102
RTVSPropertyOp24
 70
     1
102
RTVSPropertyOp25
 70
     1
102
RTVSPropertyOp26
 70
     1
102
RTVSPropertyOp27
 70
     1
  0
XRECORD
  5
1B9
102
{ACAD_REACTORS
330
1B8
102
}
330
1B8
100
AcDbXrecord
280
     1
102
RTVSPropertyOp0
 70
     1
102
RTVSPropertyOp1
 70
     1
102
RTVSPropertyOp2
 70
     1
102
RTVSPropertyOp3
 70
     1
102
RTVSPropertyOp4
 70
     1
102
RTVSPropertyOp5
 70
     1
102
RTVSPropertyOp6
 70
     1
102
RTVSPropertyOp7
 70
     1
102
RTVSPropertyOp8
 70
     1
102
RTVSPropertyOp9
 70
     1
102
RTVSPropertyOp10
 70
     1
102
RTVSPropertyOp11
 70
     1
102
RTVSPropertyOp12
 70
     1
102
RTVSPropertyOp13
 70
     1
102
RTVSPropertyOp14
 70
     1
102
RTVSPropertyOp15
 70
     1
102
RTVSPropertyOp16
 70
     1
102
RTVSPropertyOp17
 70
     1
102
RTVSPropertyOp18
 70
     1
102
RTVSPropertyOp19
 70
     1
102
RTVSPropertyOp20
 70
     1
102
RTVSPropertyOp21
 70
     1
102
RTVSPropertyOp22
 70
     1
102
RTVSPropertyOp23
 70
     1
102
RTVSPropertyOp24
 70
     1
102
RTVSPropertyOp25
 70
     1
102
RTVSPropertyOp26
 70
     1
102
RTVSPropertyOp27
 70
     1
  0
XRECORD
  5
1C1
102
{ACAD_REACTORS
330
1C0
102
}
330
1C0
100
AcDbXrecord
280
     1
102
RTVSPropertyOp0
 70
     1
102
RTVSPropertyOp1
 70
     1
102
RTVSPropertyOp2
 70
     1
102
RTVSPropertyOp3
 70
     1
102
RTVSPropertyOp4
 70
     1
102
RTVSPropertyOp5
 70
     1
102
RTVSPropertyOp6
 70
     1
102
RTVSPropertyOp7
 70
     1
102
RTVSPropertyOp8
 70
     1
102
RTVSPropertyOp9
 70
     1
102
RTVSPropertyOp10
 70
     1
102
RTVSPropertyOp11
 70
     1
102
RTVSPropertyOp12
 70
     1
102
RTVSPropertyOp13
 70
     1
102
RTVSPropertyOp14
 70
     1
102
RTVSPropertyOp15
 70
     1
102
RTVSPropertyOp16
 70
     1
102
RTVSPropertyOp17
 70
     1
102
RTVSPropertyOp18
 70
     1
102
RTVSPropertyOp19
 70
     1
102
RTVSPropertyOp20
 70
     1
102
RTVSPropertyOp21
 70
     1
102
RTVSPropertyOp22
 70
     1
102
RTVSPropertyOp23
 70
     1
102
RTVSPropertyOp24
 70
     1
102
RTVSPropertyOp25
 70
     1
102
RTVSPropertyOp26
 70
     1
102
RTVSPropertyOp27
 70
     1
  0
XRECORD
  5
1B5
102
{ACAD_REACTORS
330
1B4
102
}
330
1B4
100
AcDbXrecord
280
     1
102
RTVSPropertyOp0
 70
     1
102
RTVSPropertyOp1
 70
     1
102
RTVSPropertyOp2
 70
     1
102
RTVSPropertyOp3
 70
     1
102
RTVSPropertyOp4
 70
     1
102
RTVSPropertyOp5
 70
     1
102
RTVSPropertyOp6
 70
     1
102
RTVSPropertyOp7
 70
     1
102
RTVSPropertyOp8
 70
     1
102
RTVSPropertyOp9
 70
     1
102
RTVSPropertyOp10
 70
     1
102
RTVSPropertyOp11
 70
     1
102
RTVSPropertyOp12
 70
     1
102
RTVSPropertyOp13
 70
     1
102
RTVSPropertyOp14
 70
     1
102
RTVSPropertyOp15
 70
     1
102
RTVSPropertyOp16
 70
     1
102
RTVSPropertyOp17
 70
     1
102
RTVSPropertyOp18
 70
     1
102
RTVSPropertyOp19
 70
     1
102
RTVSPropertyOp20
 70
     1
102
RTVSPropertyOp21
 70
     1
102
RTVSPropertyOp22
 70
     1
102
RTVSPropertyOp23
 70
     1
102
RTVSPropertyOp24
 70
     1
102
RTVSPropertyOp25
 70
     1
102
RTVSPropertyOp26
 70
     1
102
RTVSPropertyOp27
 70
     1
  0
XRECORD
  5
1B7
102
{ACAD_REACTORS
330
1B6
102
}
330
1B6
100
AcDbXrecord
280
     1
102
RTVSPropertyOp0
 70
     1
102
RTVSPropertyOp1
 70
     1
102
RTVSPropertyOp2
 70
     1
102
RTVSPropertyOp3
 70
     1
102
RTVSPropertyOp4
 70
     1
102
RTVSPropertyOp5
 70
     1
102
RTVSPropertyOp6
 70
     1
102
RTVSPropertyOp7
 70
     1
102
RTVSPropertyOp8
 70
     1
102
RTVSPropertyOp9
 70
     1
102
RTVSPropertyOp10
 70
     1
102
RTVSPropertyOp11
 70
     1
102
RTVSPropertyOp12
 70
     1
102
RTVSPropertyOp13
 70
     1
102
RTVSPropertyOp14
 70
     1
102
RTVSPropertyOp15
 70
     1
102
RTVSPropertyOp16
 70
     1
102
RTVSPropertyOp17
 70
     1
102
RTVSPropertyOp18
 70
     1
102
RTVSPropertyOp19
 70
     1
102
RTVSPropertyOp20
 70
     1
102
RTVSPropertyOp21
 70
     1
102
RTVSPropertyOp22
 70
     1
102
RTVSPropertyOp23
 70
     1
102
RTVSPropertyOp24
 70
     1
102
RTVSPropertyOp25
 70
     1
102
RTVSPropertyOp26
 70
     1
102
RTVSPropertyOp27
 70
     1
  0
XRECORD
  5
1BF
102
{ACAD_REACTORS
330
1BE
102
}
330
1BE
100
AcDbXrecord
280
     1
102
RTVSPropertyOp0
 70
     1
102
RTVSPropertyOp1
 70
     1
102
RTVSPropertyOp2
 70
     1
102
RTVSPropertyOp3
 70
     1
102
RTVSPropertyOp4
 70
     1
102
RTVSPropertyOp5
 70
     1
102
RTVSPropertyOp6
 70
     1
102
RTVSPropertyOp7
 70
     1
102
RTVSPropertyOp8
 70
     1
102
RTVSPropertyOp9
 70
     1
102
RTVSPropertyOp10
 70
     1
102
RTVSPropertyOp11
 70
     1
102
RTVSPropertyOp12
 70
     1
102
RTVSPropertyOp13
 70
     1
102
RTVSPropertyOp14
 70
     1
102
RTVSPropertyOp15
 70
     1
102
RTVSPropertyOp16
 70
     1
102
RTVSPropertyOp17
 70
     1
102
RTVSPropertyOp18
 70
     1
102
RTVSPropertyOp19
 70
     1
102
RTVSPropertyOp20
 70
     1
102
RTVSPropertyOp21
 70
     1
102
RTVSPropertyOp22
 70
     1
102
RTVSPropertyOp23
 70
     1
102
RTVSPropertyOp24
 70
     1
102
RTVSPropertyOp25
 70
     1
102
RTVSPropertyOp26
 70
     1
102
RTVSPropertyOp27
 70
     1
  0
XRECORD
  5
1A3
102
{ACAD_REACTORS
330
1A2
102
}
330
1A2
100
AcDbXrecord
280
     1
102
RTVSPropertyOp0
 70
     1
102
RTVSPropertyOp1
 70
     1
102
RTVSPropertyOp2
 70
     1
102
RTVSPropertyOp3
 70
     1
102
RTVSPropertyOp4
 70
     1
102
RTVSPropertyOp5
 70
     1
102
RTVSPropertyOp6
 70
     1
102
RTVSPropertyOp7
 70
     1
102
RTVSPropertyOp8
 70
     1
102
RTVSPropertyOp9
 70
     1
102
RTVSPropertyOp10
 70
     1
102
RTVSPropertyOp11
 70
     1
102
RTVSPropertyOp12
 70
     1
102
RTVSPropertyOp13
 70
     1
102
RTVSPropertyOp14
 70
     1
102
RTVSPropertyOp15
 70
     1
102
RTVSPropertyOp16
 70
     1
102
RTVSPropertyOp17
 70
     1
102
RTVSPropertyOp18
 70
     1
102
RTVSPropertyOp19
 70
     1
102
RTVSPropertyOp20
 70
     1
102
RTVSPropertyOp21
 70
     1
102
RTVSPropertyOp22
 70
     1
102
RTVSPropertyOp23
 70
     1
102
RTVSPropertyOp24
 70
     1
102
RTVSPropertyOp25
 70
     1
102
RTVSPropertyOp26
 70
     1
102
RTVSPropertyOp27
 70
     1
  0
XRECORD
  5
1A5
102
{ACAD_REACTORS
330
1A4
102
}
330
1A4
100
AcDbXrecord
280
     1
102
RTVSPropertyOp0
 70
     1
102
RTVSPropertyOp1
 70
     1
102
RTVSPropertyOp2
 70
     1
102
RTVSPropertyOp3
 70
     1
102
RTVSPropertyOp4
 70
     1
102
RTVSPropertyOp5
 70
     1
102
RTVSPropertyOp6
 70
     1
102
RTVSPropertyOp7
 70
     1
102
RTVSPropertyOp8
 70
     1
102
RTVSPropertyOp9
 70
     1
102
RTVSPropertyOp10
 70
     1
102
RTVSPropertyOp11
 70
     1
102
RTVSPropertyOp12
 70
     1
102
RTVSPropertyOp13
 70
     1
102
RTVSPropertyOp14
 70
     1
102
RTVSPropertyOp15
 70
     1
102
RTVSPropertyOp16
 70
     1
102
RTVSPropertyOp17
 70
     1
102
RTVSPropertyOp18
 70
     1
102
RTVSPropertyOp19
 70
     1
102
RTVSPropertyOp20
 70
     1
102
RTVSPropertyOp21
 70
     1
102
RTVSPropertyOp22
 70
     1
102
RTVSPropertyOp23
 70
     1
102
RTVSPropertyOp24
 70
     1
102
RTVSPropertyOp25
 70
     1
102
RTVSPropertyOp26
 70
     1
102
RTVSPropertyOp27
 70
     1
  0
XRECORD
  5
1A7
102
{ACAD_REACTORS
330
1A6
102
}
330
1A6
100
AcDbXrecord
280
     1
102
RTVSPropertyOp0
 70
     1
102
RTVSPropertyOp1
 70
     1
102
RTVSPropertyOp2
 70
     1
102
RTVSPropertyOp3
 70
     1
102
RTVSPropertyOp4
 70
     1
102
RTVSPropertyOp5
 70
     1
102
RTVSPropertyOp6
 70
     1
102
RTVSPropertyOp7
 70
     1
102
RTVSPropertyOp8
 70
     1
102
RTVSPropertyOp9
 70
     1
102
RTVSPropertyOp10
 70
     1
102
RTVSPropertyOp11
 70
     1
102
RTVSPropertyOp12
 70
     1
102
RTVSPropertyOp13
 70
     1
102
RTVSPropertyOp14
 70
     1
102
RTVSPropertyOp15
 70
     1
102
RTVSPropertyOp16
 70
     1
102
RTVSPropertyOp17
 70
     1
102
RTVSPropertyOp18
 70
     1
102
RTVSPropertyOp19
 70
     1
102
RTVSPropertyOp20
 70
     1
102
RTVSPropertyOp21
 70
     1
102
RTVSPropertyOp22
 70
     1
102
RTVSPropertyOp23
 70
     1
102
RTVSPropertyOp24
 70
     1
102
RTVSPropertyOp25
 70
     1
102
RTVSPropertyOp26
 70
     1
102
RTVSPropertyOp27
 70
     1
  0
XRECORD
  5
1A9
102
{ACAD_REACTORS
330
1A8
102
}
330
1A8
100
AcDbXrecord
280
     1
102
RTVSPropertyOp0
 70
     1
102
RTVSPropertyOp1
 70
     1
102
RTVSPropertyOp2
 70
     1
102
RTVSPropertyOp3
 70
     1
102
RTVSPropertyOp4
 70
     1
102
RTVSPropertyOp5
 70
     1
102
RTVSPropertyOp6
 70
     1
102
RTVSPropertyOp7
 70
     1
102
RTVSPropertyOp8
 70
     1
102
RTVSPropertyOp9
 70
     1
102
RTVSPropertyOp10
 70
     1
102
RTVSPropertyOp11
 70
     1
102
RTVSPropertyOp12
 70
     1
102
RTVSPropertyOp13
 70
     1
102
RTVSPropertyOp14
 70
     1
102
RTVSPropertyOp15
 70
     1
102
RTVSPropertyOp16
 70
     1
102
RTVSPropertyOp17
 70
     1
102
RTVSPropertyOp18
 70
     1
102
RTVSPropertyOp19
 70
     1
102
RTVSPropertyOp20
 70
     1
102
RTVSPropertyOp21
 70
     1
102
RTVSPropertyOp22
 70
     1
102
RTVSPropertyOp23
 70
     1
102
RTVSPropertyOp24
 70
     1
102
RTVSPropertyOp25
 70
     1
102
RTVSPropertyOp26
 70
     1
102
RTVSPropertyOp27
 70
     1
  0
XRECORD
  5
1BD
102
{ACAD_REACTORS
330
1BC
102
}
330
1BC
100
AcDbXrecord
280
     1
102
RTVSPropertyOp0
 70
     1
102
RTVSPropertyOp1
 70
     1
102
RTVSPropertyOp2
 70
     1
102
RTVSPropertyOp3
 70
     1
102
RTVSPropertyOp4
 70
     1
102
RTVSPropertyOp5
 70
     1
102
RTVSPropertyOp6
 70
     1
102
RTVSPropertyOp7
 70
     1
102
RTVSPropertyOp8
 70
     1
102
RTVSPropertyOp9
 70
     1
102
RTVSPropertyOp10
 70
     1
102
RTVSPropertyOp11
 70
     1
102
RTVSPropertyOp12
 70
     1
102
RTVSPropertyOp13
 70
     1
102
RTVSPropertyOp14
 70
     1
102
RTVSPropertyOp15
 70
     1
102
RTVSPropertyOp16
 70
     1
102
RTVSPropertyOp17
 70
     1
102
RTVSPropertyOp18
 70
     1
102
RTVSPropertyOp19
 70
     1
102
RTVSPropertyOp20
 70
     1
102
RTVSPropertyOp21
 70
     1
102
RTVSPropertyOp22
 70
     1
102
RTVSPropertyOp23
 70
     1
102
RTVSPropertyOp24
 70
     1
102
RTVSPropertyOp25
 70
     1
102
RTVSPropertyOp26
 70
     1
102
RTVSPropertyOp27
 70
     1
  0
XRECORD
  5
1B3
102
{ACAD_REACTORS
330
1B2
102
}
330
1B2
100
AcDbXrecord
280
     1
102
RTVSPropertyOp0
 70
     1
102
RTVSPropertyOp1
 70
     1
102
RTVSPropertyOp2
 70
     1
102
RTVSPropertyOp3
 70
     1
102
RTVSPropertyOp4
 70
     1
102
RTVSPropertyOp5
 70
     1
102
RTVSPropertyOp6
 70
     1
102
RTVSPropertyOp7
 70
     1
102
RTVSPropertyOp8
 70
     1
102
RTVSPropertyOp9
 70
     1
102
RTVSPropertyOp10
 70
     1
102
RTVSPropertyOp11
 70
     1
102
RTVSPropertyOp12
 70
     1
102
RTVSPropertyOp13
 70
     1
102
RTVSPropertyOp14
 70
     1
102
RTVSPropertyOp15
 70
     1
102
RTVSPropertyOp16
 70
     1
102
RTVSPropertyOp17
 70
     1
102
RTVSPropertyOp18
 70
     1
102
RTVSPropertyOp19
 70
     1
102
RTVSPropertyOp20
 70
     1
102
RTVSPropertyOp21
 70
     1
102
RTVSPropertyOp22
 70
     1
102
RTVSPropertyOp23
 70
     1
102
RTVSPropertyOp24
 70
     1
102
RTVSPropertyOp25
 70
     1
102
RTVSPropertyOp26
 70
     1
102
RTVSPropertyOp27
 70
     1
  0
XRECORD
  5
1BB
102
{ACAD_REACTORS
330
1BA
102
}
330
1BA
100
AcDbXrecord
280
     1
102
RTVSPropertyOp0
 70
     1
102
RTVSPropertyOp1
 70
     1
102
RTVSPropertyOp2
 70
     1
102
RTVSPropertyOp3
 70
     1
102
RTVSPropertyOp4
 70
     1
102
RTVSPropertyOp5
 70
     1
102
RTVSPropertyOp6
 70
     1
102
RTVSPropertyOp7
 70
     1
102
RTVSPropertyOp8
 70
     1
102
RTVSPropertyOp9
 70
     1
102
RTVSPropertyOp10
 70
     1
102
RTVSPropertyOp11
 70
     1
102
RTVSPropertyOp12
 70
     1
102
RTVSPropertyOp13
 70
     1
102
RTVSPropertyOp14
 70
     1
102
RTVSPropertyOp15
 70
     1
102
RTVSPropertyOp16
 70
     1
102
RTVSPropertyOp17
 70
     1
102
RTVSPropertyOp18
 70
     1
102
RTVSPropertyOp19
 70
     1
102
RTVSPropertyOp20
 70
     1
102
RTVSPropertyOp21
 70
     1
102
RTVSPropertyOp22
 70
     1
102
RTVSPropertyOp23
 70
     1
102
RTVSPropertyOp24
 70
     1
102
RTVSPropertyOp25
 70
     1
102
RTVSPropertyOp26
 70
     1
102
RTVSPropertyOp27
 70
     1
  0
ENDSEC
  0
EOF
