  0
SECTION
  2
HEADER
  9
$ACADVER
  1
AC1014
  9
$ACADMAINTVER
 70
     9
  9
$DWGCODEPAGE
  3
ANSI_1250
  9
$INSBASE
 10
0.0
 20
0.0
 30
0.0
  9
$EXTMIN
 10
-30.1026
 20
-26.163
 30
0.0
  9
$EXTMAX
 10
30.1726
 20
26.1629
 30
0.0
  9
$LIMMIN
 10
0.0
 20
0.0
  9
$LIMMAX
 10
12.0
 20
9.0
  9
$ORTHOMODE
 70
     0
  9
$REGENMODE
 70
     1
  9
$FILLMODE
 70
     1
  9
$QTEXTMODE
 70
     0
  9
$MIRRTEXT
 70
     1
  9
$DRAGMODE
 70
     2
  9
$LTSCALE
 40
1.0
  9
$OSMODE
 70
    37
  9
$ATTMODE
 70
     1
  9
$TEXTSIZE
 40
0.2
  9
$TRACEWID
 40
0.05
  9
$TEXTSTYLE
  7
STANDARD
  9
$CLAYER
  8
0
  9
$CELTYPE
  6
BYLAYER
  9
$CECOLOR
 62
   256
  9
$CELTSCALE
 40
1.0
  9
$DELOBJ
 70
     1
  9
$DISPSILH
 70
     0
  9
$DIMSCALE
 40
1.0
  9
$DIMASZ
 40
0.18
  9
$DIMEXO
 40
0.0625
  9
$DIMDLI
 40
0.38
  9
$DIMRND
 40
0.0
  9
$DIMDLE
 40
0.0
  9
$DIMEXE
 40
0.18
  9
$DIMTP
 40
0.0
  9
$DIMTM
 40
0.0
  9
$DIMTXT
 40
0.18
  9
$DIMCEN
 40
0.09
  9
$DIMTSZ
 40
0.0
  9
$DIMTOL
 70
     0
  9
$DIMLIM
 70
     0
  9
$DIMTIH
 70
     1
  9
$DIMTOH
 70
     1
  9
$DIMSE1
 70
     0
  9
$DIMSE2
 70
     0
  9
$DIMTAD
 70
     0
  9
$DIMZIN
 70
     0
  9
$DIMBLK
  1

  9
$DIMASO
 70
     1
  9
$DIMSHO
 70
     1
  9
$DIMPOST
  1

  9
$DIMAPOST
  1

  9
$DIMALT
 70
     0
  9
$DIMALTD
 70
     2
  9
$DIMALTF
 40
25.4
  9
$DIMLFAC
 40
1.0
  9
$DIMTOFL
 70
     0
  9
$DIMTVP
 40
0.0
  9
$DIMTIX
 70
     0
  9
$DIMSOXD
 70
     0
  9
$DIMSAH
 70
     0
  9
$DIMBLK1
  1

  9
$DIMBLK2
  1

  9
$DIMSTYLE
  2
STANDARD
  9
$DIMCLRD
 70
     0
  9
$DIMCLRE
 70
     0
  9
$DIMCLRT
 70
     0
  9
$DIMTFAC
 40
1.0
  9
$DIMGAP
 40
0.09
  9
$DIMJUST
 70
     0
  9
$DIMSD1
 70
     0
  9
$DIMSD2
 70
     0
  9
$DIMTOLJ
 70
     1
  9
$DIMTZIN
 70
     0
  9
$DIMALTZ
 70
     0
  9
$DIMALTTZ
 70
     0
  9
$DIMFIT
 70
     3
  9
$DIMUPT
 70
     0
  9
$DIMUNIT
 70
     2
  9
$DIMDEC
 70
     4
  9
$DIMTDEC
 70
     4
  9
$DIMALTU
 70
     2
  9
$DIMALTTD
 70
     2
  9
$DIMTXSTY
  7
STANDARD
  9
$DIMAUNIT
 70
     0
  9
$LUNITS
 70
     2
  9
$LUPREC
 70
     4
  9
$SKETCHINC
 40
0.1
  9
$FILLETRAD
 40
0.5
  9
$AUNITS
 70
     0
  9
$AUPREC
 70
     0
  9
$MENU
  1
.
  9
$ELEVATION
 40
0.0
  9
$PELEVATION
 40
0.0
  9
$THICKNESS
 40
0.0
  9
$LIMCHECK
 70
     0
  9
$CHAMFERA
 40
0.5
  9
$CHAMFERB
 40
0.5
  9
$CHAMFERC
 40
1.0
  9
$CHAMFERD
 40
0.0
  9
$SKPOLY
 70
     0
  9
$TDCREATE
 40
2456268.556601157
  9
$TDUPDATE
 40
2456268.556601169
  9
$TDINDWG
 40
0.0000000116
  9
$TDUSRTIMER
 40
0.0000000116
  9
$USRTIMER
 70
     1
  9
$ANGBASE
 50
0.0
  9
$ANGDIR
 70
     0
  9
$PDMODE
 70
     0
  9
$PDSIZE
 40
0.0
  9
$PLINEWID
 40
0.0
  9
$COORDS
 70
     1
  9
$SPLFRAME
 70
     0
  9
$SPLINETYPE
 70
     6
  9
$SPLINESEGS
 70
     8
  9
$ATTDIA
 70
     0
  9
$ATTREQ
 70
     1
  9
$HANDLING
 70
     1
  9
$HANDSEED
  5
138
  9
$SURFTAB1
 70
     6
  9
$SURFTAB2
 70
     6
  9
$SURFTYPE
 70
     6
  9
$SURFU
 70
     6
  9
$SURFV
 70
     6
  9
$UCSNAME
  2

  9
$UCSORG
 10
0.0
 20
0.0
 30
0.0
  9
$UCSXDIR
 10
1.0
 20
0.0
 30
0.0
  9
$UCSYDIR
 10
0.0
 20
1.0
 30
0.0
  9
$PUCSNAME
  2

  9
$PUCSORG
 10
0.0
 20
0.0
 30
0.0
  9
$PUCSXDIR
 10
1.0
 20
0.0
 30
0.0
  9
$PUCSYDIR
 10
0.0
 20
1.0
 30
0.0
  9
$USERI1
 70
     0
  9
$USERI2
 70
     0
  9
$USERI3
 70
     0
  9
$USERI4
 70
     0
  9
$USERI5
 70
     0
  9
$USERR1
 40
0.0
  9
$USERR2
 40
0.0
  9
$USERR3
 40
0.0
  9
$USERR4
 40
0.0
  9
$USERR5
 40
0.0
  9
$WORLDVIEW
 70
     1
  9
$SHADEDGE
 70
     3
  9
$SHADEDIF
 70
    70
  9
$TILEMODE
 70
     1
  9
$MAXACTVP
 70
    64
  9
$PINSBASE
 10
0.0
 20
0.0
 30
0.0
  9
$PLIMCHECK
 70
     0
  9
$PEXTMIN
 10
1.000000000000000E+20
 20
1.000000000000000E+20
 30
1.000000000000000E+20
  9
$PEXTMAX
 10
-1.000000000000000E+20
 20
-1.000000000000000E+20
 30
-1.000000000000000E+20
  9
$PLIMMIN
 10
0.0
 20
0.0
  9
$PLIMMAX
 10
12.0
 20
9.0
  9
$UNITMODE
 70
     0
  9
$VISRETAIN
 70
     1
  9
$PLINEGEN
 70
     0
  9
$PSLTSCALE
 70
     1
  9
$TREEDEPTH
 70
  3020
  9
$PICKSTYLE
 70
     1
  9
$CMLSTYLE
  2
STANDARD
  9
$CMLJUST
 70
     0
  9
$CMLSCALE
 40
1.0
  9
$PROXYGRAPHICS
 70
     1
  9
$MEASUREMENT
 70
     0
  0
ENDSEC
  0
SECTION
  2
CLASSES
  0
CLASS
  1
ACDBDICTIONARYWDFLT
  2
AcDbDictionaryWithDefault
  3
ObjectDBX Classes
 90
        0
280
     0
281
     0
  0
CLASS
  1
VISUALSTYLE
  2
AcDbVisualStyle
  3
ObjectDBX Classes
 90
     4095
280
     0
281
     0
  0
CLASS
  1
MATERIAL
  2
AcDbMaterial
  3
ObjectDBX Classes
 90
     1153
280
     0
281
     0
  0
CLASS
  1
DICTIONARYVAR
  2
AcDbDictionaryVar
  3
ObjectDBX Classes
 90
        0
280
     0
281
     0
  0
CLASS
  1
XRECORD
  2
AcDbXrecord
  3
AutoCAD 2000
 90
        0
280
     0
281
     0
  0
CLASS
  1
LWPOLYLINE
  2
AcDbPolyline
  3
AutoCAD 2000
 90
        0
280
     0
281
     1
  0
CLASS
  1
HATCH
  2
AcDbHatch
  3
AutoCAD 2000
 90
        0
280
     0
281
     1
  0
CLASS
  1
ACDBPLACEHOLDER
  2
AcDbPlaceHolder
  3
ObjectDBX Classes
 90
        0
280
     0
281
     0
  0
CLASS
  1
LAYOUT
  2
AcDbLayout
  3
ObjectDBX Classes
 90
        0
280
     0
281
     0
  0
ENDSEC
  0
SECTION
  2
TABLES
  0
TABLE
  2
VPORT
  5
8
330
0
100
AcDbSymbolTable
 70
     1
  0
VPORT
  5
29
330
8
100
AcDbSymbolTableRecord
100
AcDbViewportTableRecord
  2
*ACTIVE
 70
     0
 10
0.0
 20
0.0
 11
1.0
 21
1.0
 12
10.42990654205607
 22
4.5
 13
0.0
 23
0.0
 14
0.5
 24
0.5
 15
0.5
 25
0.5
 16
0.0
 26
0.0
 36
1.0
 17
0.0
 27
0.0
 37
0.0
 40
9.0
 41
1.972972972850329
 42
50.0
 43
0.0
 44
0.0
 50
0.0
 51
0.0
 71
     0
 72
   100
 73
     1
 74
     3
 75
     0
 76
     0
 77
     0
 78
     0
  0
ENDTAB
  0
TABLE
  2
LTYPE
  5
5
330
0
100
AcDbSymbolTable
 70
     1
  0
LTYPE
  5
14
330
5
100
AcDbSymbolTableRecord
100
AcDbLinetypeTableRecord
  2
BYBLOCK
 70
     0
  3

 72
    65
 73
     0
 40
0.0
  0
LTYPE
  5
15
330
5
100
AcDbSymbolTableRecord
100
AcDbLinetypeTableRecord
  2
BYLAYER
 70
     0
  3

 72
    65
 73
     0
 40
0.0
  0
LTYPE
  5
16
330
5
100
AcDbSymbolTableRecord
100
AcDbLinetypeTableRecord
  2
CONTINUOUS
 70
     0
  3
Solid line
 72
    65
 73
     0
 40
0.0
  0
ENDTAB
  0
TABLE
  2
LAYER
  5
2
330
0
100
AcDbSymbolTable
 70
     2
  0
LAYER
  5
10
330
2
100
AcDbSymbolTableRecord
100
AcDbLayerTableRecord
  2
0
 70
     0
 62
     7
  6
CONTINUOUS
  0
LAYER
  5
40
330
2
100
AcDbSymbolTableRecord
100
AcDbLayerTableRecord
  2
ILUSTRACE
 70
     0
 62
     7
  6
CONTINUOUS
  0
ENDTAB
  0
TABLE
  2
STYLE
  5
3
330
0
100
AcDbSymbolTable
 70
     1
  0
STYLE
  5
11
330
3
100
AcDbSymbolTableRecord
100
AcDbTextStyleTableRecord
  2
STANDARD
 70
     0
 40
0.0
 41
1.0
 50
0.0
 71
     0
 42
0.2
  3
txt
  4

  0
ENDTAB
  0
TABLE
  2
VIEW
  5
6
330
0
100
AcDbSymbolTable
 70
     0
  0
ENDTAB
  0
TABLE
  2
UCS
  5
7
330
0
100
AcDbSymbolTable
 70
     0
  0
ENDTAB
  0
TABLE
  2
APPID
  5
9
330
0
100
AcDbSymbolTable
 70
     2
  0
APPID
  5
12
330
9
100
AcDbSymbolTableRecord
100
AcDbRegAppTableRecord
  2
ACAD
 70
     0
  0
APPID
  5
3F
330
9
100
AcDbSymbolTableRecord
100
AcDbRegAppTableRecord
  2
ODA
 70
     0
  0
ENDTAB
  0
TABLE
  2
DIMSTYLE
  5
A
330
0
100
AcDbSymbolTable
 70
     1
  0
DIMSTYLE
105
27
330
A
100
AcDbSymbolTableRecord
100
AcDbDimStyleTableRecord
  2
STANDARD
 70
     0
  3

  4

  5

  6

  7

 40
1.0
 41
0.18
 42
0.0625
 43
0.38
 44
0.18
 45
0.0
 46
0.0
 47
0.0
 48
0.0
140
0.18
141
0.09
142
0.0
143
25.4
144
1.0
145
0.0
146
1.0
147
0.09
 71
     0
 72
     0
 73
     1
 74
     1
 75
     0
 76
     0
 77
     0
 78
     0
170
     0
171
     2
172
     0
173
     0
174
     0
175
     0
176
     0
177
     0
178
     0
270
     2
271
     4
272
     4
273
     2
274
     2
340
11
275
     0
280
     0
281
     0
282
     0
283
     1
284
     0
285
     0
286
     0
287
     3
288
     0
  0
ENDTAB
  0
TABLE
  2
BLOCK_RECORD
  5
1
330
0
100
AcDbSymbolTable
 70
     1
  0
BLOCK_RECORD
  5
1F
330
1
100
AcDbSymbolTableRecord
100
AcDbBlockTableRecord
  2
*MODEL_SPACE
  0
BLOCK_RECORD
  5
1B
330
1
100
AcDbSymbolTableRecord
100
AcDbBlockTableRecord
  2
*PAPER_SPACE
  0
ENDTAB
  0
ENDSEC
  0
SECTION
  2
BLOCKS
  0
BLOCK
  5
20
330
1F
100
AcDbEntity
  8
0
100
AcDbBlockBegin
  2
*MODEL_SPACE
 70
     0
 10
0.0
 20
0.0
 30
0.0
  3
*MODEL_SPACE
  1

  0
ENDBLK
  5
21
330
1F
100
AcDbEntity
  8
0
100
AcDbBlockEnd
  0
BLOCK
  5
1C
330
1B
100
AcDbEntity
 67
     1
  8
0
100
AcDbBlockBegin
  2
*PAPER_SPACE
 70
     0
 10
0.0
 20
0.0
 30
0.0
  3
*PAPER_SPACE
  1

  0
ENDBLK
  5
1D
330
1B
100
AcDbEntity
 67
     1
  8
0
100
AcDbBlockEnd
  0
ENDSEC
  0
SECTION
  2
ENTITIES
  0
SPLINE
  5
41
330
1F
100
AcDbEntity
  8
ILUSTRACE
 62
   250
100
AcDbSpline
210
0.0
220
0.0
230
1.0
 70
    24
 71
     3
 72
     8
 73
     4
 74
     0
 42
0.0000000001
 43
0.0000000001
 40
0.0
 40
0.0
 40
0.0
 40
0.0
 40
1.0
 40
1.0
 40
1.0
 40
1.0
 10
-18.6769
 20
23.4148
 30
0.0
 10
-18.6769
 20
23.4148
 30
0.0
 10
-18.6769
 20
12.8619
 30
0.0
 10
-18.6769
 20
12.8619
 30
0.0
  0
SPLINE
  5
42
330
1F
100
AcDbEntity
  8
ILUSTRACE
 62
   250
100
AcDbSpline
210
0.0
220
0.0
230
1.0
 70
    24
 71
     3
 72
     8
 73
     4
 74
     0
 42
0.0000000001
 43
0.0000000001
 40
0.0
 40
0.0
 40
0.0
 40
0.0
 40
1.0
 40
1.0
 40
1.0
 40
1.0
 10
30.1024
 20
23.2748
 30
0.0
 10
30.1024
 20
23.2748
 30
0.0
 10
30.1024
 20
12.6646
 30
0.0
 10
30.1024
 20
12.6646
 30
0.0
  0
SPLINE
  5
43
330
1F
100
AcDbEntity
  8
ILUSTRACE
 62
   250
100
AcDbSpline
210
0.0
220
0.0
230
1.0
 70
    11
 71
     3
 72
    20
 73
    16
 74
     0
 42
0.0000000001
 43
0.0000000001
 40
0.0
 40
0.0
 40
0.0
 40
0.0
 40
0.2
 40
0.2
 40
0.2
 40
0.2
 40
0.4
 40
0.4
 40
0.4
 40
0.4
 40
0.6
 40
0.6
 40
0.6
 40
0.6
 40
1.0
 40
1.0
 40
1.0
 40
1.0
 10
27.6597
 20
23.0693
 30
0.0
 10
27.6597
 20
23.0693
 30
0.0
 10
30.0071
 20
22.738
 30
0.0
 10
30.0071
 20
22.738
 30
0.0
 10
30.0071
 20
22.738
 30
0.0
 10
30.0071
 20
22.738
 30
0.0
 10
30.0071
 20
22.6644
 30
0.0
 10
30.0071
 20
22.6644
 30
0.0
 10
30.0071
 20
22.6644
 30
0.0
 10
30.0071
 20
22.6644
 30
0.0
 10
27.6597
 20
22.3111
 30
0.0
 10
27.6597
 20
22.3111
 30
0.0
 10
27.6597
 20
22.3111
 30
0.0
 10
27.6597
 20
22.3111
 30
0.0
 10
27.6597
 20
23.0693
 30
0.0
 10
27.6597
 20
23.0693
 30
0.0
  0
SPLINE
  5
44
330
1F
100
AcDbEntity
  8
ILUSTRACE
 62
   250
100
AcDbSpline
210
0.0
220
0.0
230
1.0
 70
    11
 71
     3
 72
    20
 73
    16
 74
     0
 42
0.0000000001
 43
0.0000000001
 40
0.0
 40
0.0
 40
0.0
 40
0.0
 40
0.2
 40
0.2
 40
0.2
 40
0.2
 40
0.4
 40
0.4
 40
0.4
 40
0.4
 40
0.6
 40
0.6
 40
0.6
 40
0.6
 40
1.0
 40
1.0
 40
1.0
 40
1.0
 10
-16.24
 20
22.3119
 30
0.0
 10
-16.24
 20
22.3119
 30
0.0
 10
-18.5875
 20
22.6432
 30
0.0
 10
-18.5875
 20
22.6432
 30
0.0
 10
-18.5875
 20
22.6432
 30
0.0
 10
-18.5875
 20
22.6432
 30
0.0
 10
-18.5875
 20
22.7168
 30
0.0
 10
-18.5875
 20
22.7168
 30
0.0
 10
-18.5875
 20
22.7168
 30
0.0
 10
-18.5875
 20
22.7168
 30
0.0
 10
-16.24
 20
23.0701
 30
0.0
 10
-16.24
 20
23.0701
 30
0.0
 10
-16.24
 20
23.0701
 30
0.0
 10
-16.24
 20
23.0701
 30
0.0
 10
-16.24
 20
22.3119
 30
0.0
 10
-16.24
 20
22.3119
 30
0.0
  0
SPLINE
  5
45
330
1F
100
AcDbEntity
  8
ILUSTRACE
 62
   250
100
AcDbSpline
210
0.0
220
0.0
230
1.0
 70
    24
 71
     3
 72
     8
 73
     4
 74
     0
 42
0.0000000001
 43
0.0000000001
 40
0.0
 40
0.0
 40
0.0
 40
0.0
 40
1.0
 40
1.0
 40
1.0
 40
1.0
 10
29.2149
 20
22.6798
 30
0.0
 10
29.2149
 20
22.6798
 30
0.0
 10
-18.3719
 20
22.6798
 30
0.0
 10
-18.3719
 20
22.6798
 30
0.0
  0
SPLINE
  5
46
330
1F
100
AcDbEntity
  8
ILUSTRACE
 62
   250
100
AcDbSpline
210
0.0
220
0.0
230
1.0
 70
    24
 71
     3
 72
     8
 73
     4
 74
     0
 42
0.0000000001
 43
0.0000000001
 40
0.0
 40
0.0
 40
0.0
 40
0.0
 40
1.0
 40
1.0
 40
1.0
 40
1.0
 10
-11.5339
 20
-17.0218
 30
0.0
 10
-11.5339
 20
-17.0218
 30
0.0
 10
-28.4674
 20
-17.0218
 30
0.0
 10
-28.4674
 20
-17.0218
 30
0.0
  0
SPLINE
  5
47
330
1F
100
AcDbEntity
  8
ILUSTRACE
 62
   250
100
AcDbSpline
210
0.0
220
0.0
230
1.0
 70
    24
 71
     3
 72
     8
 73
     4
 74
     0
 42
0.0000000001
 43
0.0000000001
 40
0.0
 40
0.0
 40
0.0
 40
0.0
 40
1.0
 40
1.0
 40
1.0
 40
1.0
 10
-22.4697
 20
6.9365
 30
0.0
 10
-22.4697
 20
6.9365
 30
0.0
 10
-22.4697
 20
-16.3491
 30
0.0
 10
-22.4697
 20
-16.3491
 30
0.0
  0
SPLINE
  5
48
330
1F
100
AcDbEntity
  8
ILUSTRACE
 62
   250
100
AcDbSpline
210
0.0
220
0.0
230
1.0
 70
    11
 71
     3
 72
    20
 73
    16
 74
     0
 42
0.0000000001
 43
0.0000000001
 40
0.0
 40
0.0
 40
0.0
 40
0.0
 40
0.2
 40
0.2
 40
0.2
 40
0.2
 40
0.4
 40
0.4
 40
0.4
 40
0.4
 40
0.6
 40
0.6
 40
0.6
 40
0.6
 40
1.0
 40
1.0
 40
1.0
 40
1.0
 10
-22.7963
 20
4.7166
 30
0.0
 10
-22.7963
 20
4.7166
 30
0.0
 10
-22.465
 20
7.064
 30
0.0
 10
-22.465
 20
7.064
 30
0.0
 10
-22.465
 20
7.064
 30
0.0
 10
-22.465
 20
7.064
 30
0.0
 10
-22.3914
 20
7.064
 30
0.0
 10
-22.3914
 20
7.064
 30
0.0
 10
-22.3914
 20
7.064
 30
0.0
 10
-22.3914
 20
7.064
 30
0.0
 10
-22.0381
 20
4.7166
 30
0.0
 10
-22.0381
 20
4.7166
 30
0.0
 10
-22.0381
 20
4.7166
 30
0.0
 10
-22.0381
 20
4.7166
 30
0.0
 10
-22.7963
 20
4.7166
 30
0.0
 10
-22.7963
 20
4.7166
 30
0.0
  0
SPLINE
  5
49
330
1F
100
AcDbEntity
  8
ILUSTRACE
 62
   250
100
AcDbSpline
210
0.0
220
0.0
230
1.0
 70
    11
 71
     3
 72
    20
 73
    16
 74
     0
 42
0.0000000001
 43
0.0000000001
 40
0.0
 40
0.0
 40
0.0
 40
0.0
 40
0.2
 40
0.2
 40
0.2
 40
0.2
 40
0.4
 40
0.4
 40
0.4
 40
0.4
 40
0.6
 40
0.6
 40
0.6
 40
0.6
 40
1.0
 40
1.0
 40
1.0
 40
1.0
 10
-22.0859
 20
-14.5909
 30
0.0
 10
-22.0859
 20
-14.5909
 30
0.0
 10
-22.4172
 20
-16.9383
 30
0.0
 10
-22.4172
 20
-16.9383
 30
0.0
 10
-22.4172
 20
-16.9383
 30
0.0
 10
-22.4172
 20
-16.9383
 30
0.0
 10
-22.4908
 20
-16.9383
 30
0.0
 10
-22.4908
 20
-16.9383
 30
0.0
 10
-22.4908
 20
-16.9383
 30
0.0
 10
-22.4908
 20
-16.9383
 30
0.0
 10
-22.8441
 20
-14.5909
 30
0.0
 10
-22.8441
 20
-14.5909
 30
0.0
 10
-22.8441
 20
-14.5909
 30
0.0
 10
-22.8441
 20
-14.5909
 30
0.0
 10
-22.0859
 20
-14.5909
 30
0.0
 10
-22.0859
 20
-14.5909
 30
0.0
  0
SPLINE
  5
4A
330
1F
100
AcDbEntity
  8
ILUSTRACE
 62
   250
100
AcDbSpline
210
0.0
220
0.0
230
1.0
 70
    24
 71
     3
 72
     8
 73
     4
 74
     0
 42
0.0000000001
 43
0.0000000001
 40
0.0
 40
0.0
 40
0.0
 40
0.0
 40
1.0
 40
1.0
 40
1.0
 40
1.0
 10
-19.1073
 20
7.1413
 30
0.0
 10
-19.1073
 20
7.1413
 30
0.0
 10
-23.0105
 20
7.1413
 30
0.0
 10
-23.0105
 20
7.1413
 30
0.0
  0
SPLINE
  5
4B
330
1F
100
AcDbEntity
  8
ILUSTRACE
 62
   250
100
AcDbSpline
210
0.0
220
0.0
230
1.0
 70
    24
 71
     3
 72
     8
 73
     4
 74
     0
 42
0.0000000001
 43
0.0000000001
 40
0.0
 40
0.0
 40
0.0
 40
0.0
 40
1.0
 40
1.0
 40
1.0
 40
1.0
 10
-7.2011
 20
17.3895
 30
0.0
 10
-7.2011
 20
17.3895
 30
0.0
 10
-28.0702
 20
17.3895
 30
0.0
 10
-28.0702
 20
17.3895
 30
0.0
  0
SPLINE
  5
4C
330
1F
100
AcDbEntity
  8
ILUSTRACE
 62
   250
100
AcDbSpline
210
0.0
220
0.0
230
1.0
 70
    11
 71
     3
 72
    20
 73
    16
 74
     0
 42
0.0000000001
 43
0.0000000001
 40
0.0
 40
0.0
 40
0.0
 40
0.0
 40
0.2
 40
0.2
 40
0.2
 40
0.2
 40
0.4
 40
0.4
 40
0.4
 40
0.4
 40
0.6
 40
0.6
 40
0.6
 40
0.6
 40
1.0
 40
1.0
 40
1.0
 40
1.0
 10
-17.2386
 20
6.0277
 30
0.0
 10
-17.67
 20
6.0277
 30
0.0
 10
-18.0198
 20
5.6779
 30
0.0
 10
-18.0198
 20
5.2464
 30
0.0
 10
-18.0198
 20
5.2464
 30
0.0
 10
-18.0198
 20
4.815
 30
0.0
 10
-17.67
 20
4.4652
 30
0.0
 10
-17.2386
 20
4.4652
 30
0.0
 10
-17.2386
 20
4.4652
 30
0.0
 10
-16.8071
 20
4.4652
 30
0.0
 10
-16.4574
 20
4.815
 30
0.0
 10
-16.4574
 20
5.2464
 30
0.0
 10
-16.4574
 20
5.2464
 30
0.0
 10
-16.4574
 20
5.6779
 30
0.0
 10
-16.8071
 20
6.0277
 30
0.0
 10
-17.2386
 20
6.0277
 30
0.0
  0
SPLINE
  5
4D
330
1F
100
AcDbEntity
  8
ILUSTRACE
 62
   250
100
AcDbSpline
210
0.0
220
0.0
230
1.0
 70
    11
 71
     3
 72
    20
 73
    16
 74
     0
 42
0.0000000001
 43
0.0000000001
 40
0.0
 40
0.0
 40
0.0
 40
0.0
 40
0.2
 40
0.2
 40
0.2
 40
0.2
 40
0.4
 40
0.4
 40
0.4
 40
0.4
 40
0.6
 40
0.6
 40
0.6
 40
0.6
 40
1.0
 40
1.0
 40
1.0
 40
1.0
 10
28.3338
 20
6.0307
 30
0.0
 10
27.9024
 20
6.0307
 30
0.0
 10
27.5526
 20
5.6809
 30
0.0
 10
27.5526
 20
5.2494
 30
0.0
 10
27.5526
 20
5.2494
 30
0.0
 10
27.5526
 20
4.818
 30
0.0
 10
27.9024
 20
4.4682
 30
0.0
 10
28.3338
 20
4.4682
 30
0.0
 10
28.3338
 20
4.4682
 30
0.0
 10
28.7653
 20
4.4682
 30
0.0
 10
29.115
 20
4.818
 30
0.0
 10
29.115
 20
5.2494
 30
0.0
 10
29.115
 20
5.2494
 30
0.0
 10
29.115
 20
5.6809
 30
0.0
 10
28.7653
 20
6.0307
 30
0.0
 10
28.3338
 20
6.0307
 30
0.0
  0
SPLINE
  5
4E
330
1F
100
AcDbEntity
  8
ILUSTRACE
 62
   250
100
AcDbSpline
210
0.0
220
0.0
230
1.0
 70
    24
 71
     3
 72
     8
 73
     4
 74
     0
 42
0.0000000001
 43
0.0000000001
 40
0.0
 40
0.0
 40
0.0
 40
0.0
 40
1.0
 40
1.0
 40
1.0
 40
1.0
 10
-16.2453
 20
6.1372
 30
0.0
 10
-16.2453
 20
6.1372
 30
0.0
 10
-16.2453
 20
4.2992
 30
0.0
 10
-16.2453
 20
4.2992
 30
0.0
  0
SPLINE
  5
4F
330
1F
100
AcDbEntity
  8
ILUSTRACE
 62
   250
100
AcDbSpline
210
0.0
220
0.0
230
1.0
 70
    24
 71
     3
 72
     8
 73
     4
 74
     0
 42
0.0000000001
 43
0.0000000001
 40
0.0
 40
0.0
 40
0.0
 40
0.0
 40
1.0
 40
1.0
 40
1.0
 40
1.0
 10
27.3675
 20
6.1267
 30
0.0
 10
27.3675
 20
6.1267
 30
0.0
 10
27.3675
 20
4.2887
 30
0.0
 10
27.3675
 20
4.2887
 30
0.0
  0
SPLINE
  5
50
330
1F
100
AcDbEntity
  8
ILUSTRACE
 62
   250
100
AcDbSpline
210
0.0
220
0.0
230
1.0
 70
    11
 71
     3
 72
    48
 73
    44
 74
     0
 42
0.0000000001
 43
0.0000000001
 40
0.0
 40
0.0
 40
0.0
 40
0.0
 40
0.0833333333333333
 40
0.0833333333333333
 40
0.0833333333333333
 40
0.0833333333333333
 40
0.1666666666666667
 40
0.1666666666666667
 40
0.1666666666666667
 40
0.1666666666666667
 40
0.25
 40
0.25
 40
0.25
 40
0.25
 40
0.3333333333333333
 40
0.3333333333333333
 40
0.3333333333333333
 40
0.3333333333333333
 40
0.4166666666666667
 40
0.4166666666666667
 40
0.4166666666666667
 40
0.4166666666666667
 40
0.5
 40
0.5
 40
0.5
 40
0.5
 40
0.5833333333333334
 40
0.5833333333333334
 40
0.5833333333333334
 40
0.5833333333333334
 40
0.6666666666666666
 40
0.6666666666666666
 40
0.6666666666666666
 40
0.6666666666666666
 40
0.75
 40
0.75
 40
0.75
 40
0.75
 40
0.8333333333333334
 40
0.8333333333333334
 40
0.8333333333333334
 40
0.8333333333333334
 40
1.0
 40
1.0
 40
1.0
 40
1.0
 10
-22.9939
 20
-7.0765
 30
0.0
 10
-22.9939
 20
-7.0765
 30
0.0
 10
-23.4774
 20
-7.0765
 30
0.0
 10
-23.4774
 20
-7.0765
 30
0.0
 10
-23.4774
 20
-7.0765
 30
0.0
 10
-23.4774
 20
-7.0765
 30
0.0
 10
-23.4774
 20
-7.9528
 30
0.0
 10
-23.4774
 20
-7.9528
 30
0.0
 10
-23.4774
 20
-7.9528
 30
0.0
 10
-23.4774
 20
-7.9528
 30
0.0
 10
-23.7051
 20
-7.9528
 30
0.0
 10
-23.7051
 20
-7.9528
 30
0.0
 10
-23.7051
 20
-7.9528
 30
0.0
 10
-23.7051
 20
-7.9528
 30
0.0
 10
-25.0141
 20
-7.0308
 30
0.0
 10
-25.0141
 20
-7.0308
 30
0.0
 10
-25.0141
 20
-7.0308
 30
0.0
 10
-25.0141
 20
-7.0308
 30
0.0
 10
-25.0141
 20
-6.8281
 30
0.0
 10
-25.0141
 20
-6.8281
 30
0.0
 10
-25.0141
 20
-6.8281
 30
0.0
 10
-25.0141
 20
-6.8281
 30
0.0
 10
-23.7051
 20
-6.8281
 30
0.0
 10
-23.7051
 20
-6.8281
 30
0.0
 10
-23.7051
 20
-6.8281
 30
0.0
 10
-23.7051
 20
-6.8281
 30
0.0
 10
-23.7051
 20
-6.5553
 30
0.0
 10
-23.7051
 20
-6.5553
 30
0.0
 10
-23.7051
 20
-6.5553
 30
0.0
 10
-23.7051
 20
-6.5553
 30
0.0
 10
-23.4774
 20
-6.5553
 30
0.0
 10
-23.4774
 20
-6.5553
 30
0.0
 10
-23.4774
 20
-6.5553
 30
0.0
 10
-23.4774
 20
-6.5553
 30
0.0
 10
-23.4774
 20
-6.8281
 30
0.0
 10
-23.4774
 20
-6.8281
 30
0.0
 10
-23.4774
 20
-6.8281
 30
0.0
 10
-23.4774
 20
-6.8281
 30
0.0
 10
-22.9939
 20
-6.8281
 30
0.0
 10
-22.9939
 20
-6.8281
 30
0.0
 10
-22.9939
 20
-6.8281
 30
0.0
 10
-22.9939
 20
-6.8281
 30
0.0
 10
-22.9939
 20
-7.0765
 30
0.0
 10
-22.9939
 20
-7.0765
 30
0.0
  0
SPLINE
  5
51
330
1F
100
AcDbEntity
  8
ILUSTRACE
 62
   250
100
AcDbSpline
210
0.0
220
0.0
230
1.0
 70
    11
 71
     3
 72
    16
 73
    12
 74
     0
 42
0.0000000001
 43
0.0000000001
 40
0.0
 40
0.0
 40
0.0
 40
0.0
 40
0.25
 40
0.25
 40
0.25
 40
0.25
 40
0.5
 40
0.5
 40
0.5
 40
0.5
 40
1.0
 40
1.0
 40
1.0
 40
1.0
 10
-23.7051
 20
-7.0765
 30
0.0
 10
-23.7051
 20
-7.0765
 30
0.0
 10
-24.6157
 20
-7.0765
 30
0.0
 10
-24.6157
 20
-7.0765
 30
0.0
 10
-24.6157
 20
-7.0765
 30
0.0
 10
-24.6157
 20
-7.0765
 30
0.0
 10
-23.7051
 20
-7.7086
 30
0.0
 10
-23.7051
 20
-7.7086
 30
0.0
 10
-23.7051
 20
-7.7086
 30
0.0
 10
-23.7051
 20
-7.7086
 30
0.0
 10
-23.7051
 20
-7.0765
 30
0.0
 10
-23.7051
 20
-7.0765
 30
0.0
  0
SPLINE
  5
52
330
1F
100
AcDbEntity
  8
ILUSTRACE
 62
   250
100
AcDbSpline
210
0.0
220
0.0
230
1.0
 70
    11
 71
     3
 72
    48
 73
    44
 74
     0
 42
0.0000000001
 43
0.0000000001
 40
0.0
 40
0.0
 40
0.0
 40
0.0
 40
0.0833333333333333
 40
0.0833333333333333
 40
0.0833333333333333
 40
0.0833333333333333
 40
0.1666666666666667
 40
0.1666666666666667
 40
0.1666666666666667
 40
0.1666666666666667
 40
0.25
 40
0.25
 40
0.25
 40
0.25
 40
0.3333333333333333
 40
0.3333333333333333
 40
0.3333333333333333
 40
0.3333333333333333
 40
0.4166666666666667
 40
0.4166666666666667
 40
0.4166666666666667
 40
0.4166666666666667
 40
0.5
 40
0.5
 40
0.5
 40
0.5
 40
0.5833333333333334
 40
0.5833333333333334
 40
0.5833333333333334
 40
0.5833333333333334
 40
0.6666666666666666
 40
0.6666666666666666
 40
0.6666666666666666
 40
0.6666666666666666
 40
0.75
 40
0.75
 40
0.75
 40
0.75
 40
0.8333333333333334
 40
0.8333333333333334
 40
0.8333333333333334
 40
0.8333333333333334
 40
1.0
 40
1.0
 40
1.0
 40
1.0
 10
-24.7493
 20
-6.2853
 30
0.0
 10
-24.7493
 20
-6.2853
 30
0.0
 10
-24.9878
 20
-6.2853
 30
0.0
 10
-24.9878
 20
-6.2853
 30
0.0
 10
-24.9878
 20
-6.2853
 30
0.0
 10
-24.9878
 20
-6.2853
 30
0.0
 10
-24.9878
 20
-4.9777
 30
0.0
 10
-24.9878
 20
-4.9777
 30
0.0
 10
-24.9878
 20
-4.9777
 30
0.0
 10
-24.9878
 20
-4.9777
 30
0.0
 10
-24.7949
 20
-4.9777
 30
0.0
 10
-24.7949
 20
-4.9777
 30
0.0
 10
-24.7949
 20
-4.9777
 30
0.0
 10
-24.6581
 20
-5.1061
 30
0.0
 10
-24.476
 20
-5.2336
 30
0.0
 10
-24.2493
 20
-5.3601
 30
0.0
 10
-24.2493
 20
-5.3601
 30
0.0
 10
-24.0226
 20
-5.4862
 30
0.0
 10
-23.7888
 20
-5.584
 30
0.0
 10
-23.5494
 20
-5.6527
 30
0.0
 10
-23.5494
 20
-5.6527
 30
0.0
 10
-23.3801
 20
-5.7025
 30
0.0
 10
-23.1952
 20
-5.734
 30
0.0
 10
-22.9939
 20
-5.7477
 30
0.0
 10
-22.9939
 20
-5.7477
 30
0.0
 10
-22.9939
 20
-5.7477
 30
0.0
 10
-22.9939
 20
-6.0026
 30
0.0
 10
-22.9939
 20
-6.0026
 30
0.0
 10
-22.9939
 20
-6.0026
 30
0.0
 10
-23.1529
 20
-5.9998
 30
0.0
 10
-23.3448
 20
-5.9688
 30
0.0
 10
-23.5701
 20
-5.909
 30
0.0
 10
-23.5701
 20
-5.909
 30
0.0
 10
-23.7949
 20
-5.8493
 30
0.0
 10
-24.0122
 20
-5.7637
 30
0.0
 10
-24.2211
 20
-5.6522
 30
0.0
 10
-24.2211
 20
-5.6522
 30
0.0
 10
-24.4299
 20
-5.5403
 30
0.0
 10
-24.6063
 20
-5.4217
 30
0.0
 10
-24.7493
 20
-5.2957
 30
0.0
 10
-24.7493
 20
-5.2957
 30
0.0
 10
-24.7493
 20
-5.2957
 30
0.0
 10
-24.7493
 20
-6.2853
 30
0.0
 10
-24.7493
 20
-6.2853
 30
0.0
  0
SPLINE
  5
53
330
1F
100
AcDbEntity
  8
ILUSTRACE
 62
   250
100
AcDbSpline
210
0.0
220
0.0
230
1.0
 70
    11
 71
     3
 72
    40
 73
    36
 74
     0
 42
0.0000000001
 43
0.0000000001
 40
0.0
 40
0.0
 40
0.0
 40
0.0
 40
0.1
 40
0.1
 40
0.1
 40
0.1
 40
0.2
 40
0.2
 40
0.2
 40
0.2
 40
0.3
 40
0.3
 40
0.3
 40
0.3
 40
0.4
 40
0.4
 40
0.4
 40
0.4
 40
0.5
 40
0.5
 40
0.5
 40
0.5
 40
0.6
 40
0.6
 40
0.6
 40
0.6
 40
0.7
 40
0.7
 40
0.7
 40
0.7
 40
0.8
 40
0.8
 40
0.8
 40
0.8
 40
1.0
 40
1.0
 40
1.0
 40
1.0
 10
-22.9939
 20
-4.5986
 30
0.0
 10
-22.9939
 20
-4.5986
 30
0.0
 10
-23.2766
 20
-4.5986
 30
0.0
 10
-23.2766
 20
-4.5986
 30
0.0
 10
-23.2766
 20
-4.5986
 30
0.0
 10
-23.2766
 20
-4.5986
 30
0.0
 10
-23.2766
 20
-4.3159
 30
0.0
 10
-23.2766
 20
-4.3159
 30
0.0
 10
-23.2766
 20
-4.3159
 30
0.0
 10
-23.2766
 20
-4.3159
 30
0.0
 10
-22.9939
 20
-4.3159
 30
0.0
 10
-22.9939
 20
-4.3159
 30
0.0
 10
-22.9939
 20
-4.3159
 30
0.0
 10
-22.8899
 20
-4.3159
 30
0.0
 10
-22.8062
 20
-4.3342
 30
0.0
 10
-22.7423
 20
-4.3709
 30
0.0
 10
-22.7423
 20
-4.3709
 30
0.0
 10
-22.6788
 20
-4.4081
 30
0.0
 10
-22.6294
 20
-4.4664
 30
0.0
 10
-22.5941
 20
-4.5459
 30
0.0
 10
-22.5941
 20
-4.5459
 30
0.0
 10
-22.5941
 20
-4.5459
 30
0.0
 10
-22.7004
 20
-4.6151
 30
0.0
 10
-22.7004
 20
-4.6151
 30
0.0
 10
-22.7004
 20
-4.6151
 30
0.0
 10
-22.7234
 20
-4.5628
 30
0.0
 10
-22.7573
 20
-4.5243
 30
0.0
 10
-22.8015
 20
-4.4993
 30
0.0
 10
-22.8015
 20
-4.4993
 30
0.0
 10
-22.8462
 20
-4.4744
 30
0.0
 10
-22.9102
 20
-4.4608
 30
0.0
 10
-22.9939
 20
-4.458
 30
0.0
 10
-22.9939
 20
-4.458
 30
0.0
 10
-22.9939
 20
-4.458
 30
0.0
 10
-22.9939
 20
-4.5986
 30
0.0
 10
-22.9939
 20
-4.5986
 30
0.0
  0
SPLINE
  5
54
330
1F
100
AcDbEntity
  8
ILUSTRACE
 62
   250
100
AcDbSpline
210
0.0
220
0.0
230
1.0
 70
    11
 71
     3
 72
    92
 73
    88
 74
     0
 42
0.0000000001
 43
0.0000000001
 40
0.0
 40
0.0
 40
0.0
 40
0.0
 40
0.0434782608695652
 40
0.0434782608695652
 40
0.0434782608695652
 40
0.0434782608695652
 40
0.0869565217391304
 40
0.0869565217391304
 40
0.0869565217391304
 40
0.0869565217391304
 40
0.1304347826086956
 40
0.1304347826086956
 40
0.1304347826086956
 40
0.1304347826086956
 40
0.1739130434782609
 40
0.1739130434782609
 40
0.1739130434782609
 40
0.1739130434782609
 40
0.2173913043478261
 40
0.2173913043478261
 40
0.2173913043478261
 40
0.2173913043478261
 40
0.2608695652173913
 40
0.2608695652173913
 40
0.2608695652173913
 40
0.2608695652173913
 40
0.3043478260869565
 40
0.3043478260869565
 40
0.3043478260869565
 40
0.3043478260869565
 40
0.3478260869565217
 40
0.3478260869565217
 40
0.3478260869565217
 40
0.3478260869565217
 40
0.391304347826087
 40
0.391304347826087
 40
0.391304347826087
 40
0.391304347826087
 40
0.4347826086956522
 40
0.4347826086956522
 40
0.4347826086956522
 40
0.4347826086956522
 40
0.4782608695652174
 40
0.4782608695652174
 40
0.4782608695652174
 40
0.4782608695652174
 40
0.5217391304347826
 40
0.5217391304347826
 40
0.5217391304347826
 40
0.5217391304347826
 40
0.5652173913043478
 40
0.5652173913043478
 40
0.5652173913043478
 40
0.5652173913043478
 40
0.6086956521739131
 40
0.6086956521739131
 40
0.6086956521739131
 40
0.6086956521739131
 40
0.6521739130434783
 40
0.6521739130434783
 40
0.6521739130434783
 40
0.6521739130434783
 40
0.6956521739130435
 40
0.6956521739130435
 40
0.6956521739130435
 40
0.6956521739130435
 40
0.7391304347826086
 40
0.7391304347826086
 40
0.7391304347826086
 40
0.7391304347826086
 40
0.782608695652174
 40
0.782608695652174
 40
0.782608695652174
 40
0.782608695652174
 40
0.8260869565217391
 40
0.8260869565217391
 40
0.8260869565217391
 40
0.8260869565217391
 40
0.8695652173913043
 40
0.8695652173913043
 40
0.8695652173913043
 40
0.8695652173913043
 40
0.9130434782608695
 40
0.9130434782608695
 40
0.9130434782608695
 40
0.9130434782608695
 40
1.0
 40
1.0
 40
1.0
 40
1.0
 10
-23.5231
 20
-3.9481
 30
0.0
 10
-23.5231
 20
-3.9481
 30
0.0
 10
-23.5452
 20
-3.6875
 30
0.0
 10
-23.5452
 20
-3.6875
 30
0.0
 10
-23.5452
 20
-3.6875
 30
0.0
 10
-23.4182
 20
-3.6682
 30
0.0
 10
-23.3232
 20
-3.6235
 30
0.0
 10
-23.2592
 20
-3.5534
 30
0.0
 10
-23.2592
 20
-3.5534
 30
0.0
 10
-23.1952
 20
-3.4829
 30
0.0
 10
-23.1632
 20
-3.3982
 30
0.0
 10
-23.1632
 20
-3.299
 30
0.0
 10
-23.1632
 20
-3.299
 30
0.0
 10
-23.1632
 20
-3.1795
 30
0.0
 10
-23.2084
 20
-3.0784
 30
0.0
 10
-23.2982
 20
-2.9961
 30
0.0
 10
-23.2982
 20
-2.9961
 30
0.0
 10
-23.3885
 20
-2.9133
 30
0.0
 10
-23.508
 20
-2.8719
 30
0.0
 10
-23.6566
 20
-2.8719
 30
0.0
 10
-23.6566
 20
-2.8719
 30
0.0
 10
-23.7982
 20
-2.8719
 30
0.0
 10
-23.9097
 20
-2.9114
 30
0.0
 10
-23.9915
 20
-2.9909
 30
0.0
 10
-23.9915
 20
-2.9909
 30
0.0
 10
-24.0734
 20
-3.0704
 30
0.0
 10
-24.1143
 20
-3.1743
 30
0.0
 10
-24.1143
 20
-3.3032
 30
0.0
 10
-24.1143
 20
-3.3032
 30
0.0
 10
-24.1143
 20
-3.3832
 30
0.0
 10
-24.096
 20
-3.4551
 30
0.0
 10
-24.0598
 20
-3.5196
 30
0.0
 10
-24.0598
 20
-3.5196
 30
0.0
 10
-24.0235
 20
-3.584
 30
0.0
 10
-23.9765
 20
-3.6343
 30
0.0
 10
-23.9186
 20
-3.671
 30
0.0
 10
-23.9186
 20
-3.671
 30
0.0
 10
-23.9186
 20
-3.671
 30
0.0
 10
-23.9487
 20
-3.9039
 30
0.0
 10
-23.9487
 20
-3.9039
 30
0.0
 10
-23.9487
 20
-3.9039
 30
0.0
 10
-23.9487
 20
-3.9039
 30
0.0
 10
-24.9864
 20
-3.7082
 30
0.0
 10
-24.9864
 20
-3.7082
 30
0.0
 10
-24.9864
 20
-3.7082
 30
0.0
 10
-24.9864
 20
-3.7082
 30
0.0
 10
-24.9864
 20
-2.7035
 30
0.0
 10
-24.9864
 20
-2.7035
 30
0.0
 10
-24.9864
 20
-2.7035
 30
0.0
 10
-24.9864
 20
-2.7035
 30
0.0
 10
-24.7493
 20
-2.7035
 30
0.0
 10
-24.7493
 20
-2.7035
 30
0.0
 10
-24.7493
 20
-2.7035
 30
0.0
 10
-24.7493
 20
-2.7035
 30
0.0
 10
-24.7493
 20
-3.5097
 30
0.0
 10
-24.7493
 20
-3.5097
 30
0.0
 10
-24.7493
 20
-3.5097
 30
0.0
 10
-24.7493
 20
-3.5097
 30
0.0
 10
-24.2065
 20
-3.6188
 30
0.0
 10
-24.2065
 20
-3.6188
 30
0.0
 10
-24.2065
 20
-3.6188
 30
0.0
 10
-24.2912
 20
-3.4975
 30
0.0
 10
-24.3335
 20
-3.37
 30
0.0
 10
-24.3335
 20
-3.2369
 30
0.0
 10
-24.3335
 20
-3.2369
 30
0.0
 10
-24.3335
 20
-3.0605
 30
0.0
 10
-24.2724
 20
-2.9119
 30
0.0
 10
-24.1501
 20
-2.7905
 30
0.0
 10
-24.1501
 20
-2.7905
 30
0.0
 10
-24.0278
 20
-2.6692
 30
0.0
 10
-23.8707
 20
-2.6085
 30
0.0
 10
-23.6788
 20
-2.6085
 30
0.0
 10
-23.6788
 20
-2.6085
 30
0.0
 10
-23.4958
 20
-2.6085
 30
0.0
 10
-23.3377
 20
-2.6621
 30
0.0
 10
-23.2046
 20
-2.7684
 30
0.0
 10
-23.2046
 20
-2.7684
 30
0.0
 10
-23.0414
 20
-2.8982
 30
0.0
 10
-22.9596
 20
-3.0751
 30
0.0
 10
-22.9596
 20
-3.299
 30
0.0
 10
-22.9596
 20
-3.299
 30
0.0
 10
-22.9596
 20
-3.4829
 30
0.0
 10
-23.0108
 20
-3.6329
 30
0.0
 10
-23.1138
 20
-3.7491
 30
0.0
 10
-23.1138
 20
-3.7491
 30
0.0
 10
-23.2169
 20
-3.8653
 30
0.0
 10
-23.3533
 20
-3.9316
 30
0.0
 10
-23.5231
 20
-3.9481
 30
0.0
  0
SPLINE
  5
55
330
1F
100
AcDbEntity
  8
ILUSTRACE
 62
   250
100
AcDbSpline
210
0.0
220
0.0
230
1.0
 70
    24
 71
     3
 72
     8
 73
     4
 74
     0
 42
0.0000000001
 43
0.0000000001
 40
0.0
 40
0.0
 40
0.0
 40
0.0
 40
1.0
 40
1.0
 40
1.0
 40
1.0
 10
-27.5497
 20
16.8162
 30
0.0
 10
-27.5497
 20
16.8162
 30
0.0
 10
-27.5497
 20
-16.0184
 30
0.0
 10
-27.5497
 20
-16.0184
 30
0.0
  0
SPLINE
  5
56
330
1F
100
AcDbEntity
  8
ILUSTRACE
 62
   250
100
AcDbSpline
210
0.0
220
0.0
230
1.0
 70
    11
 71
     3
 72
    20
 73
    16
 74
     0
 42
0.0000000001
 43
0.0000000001
 40
0.0
 40
0.0
 40
0.0
 40
0.0
 40
0.2
 40
0.2
 40
0.2
 40
0.2
 40
0.4
 40
0.4
 40
0.4
 40
0.4
 40
0.6
 40
0.6
 40
0.6
 40
0.6
 40
1.0
 40
1.0
 40
1.0
 40
1.0
 10
-27.9164
 20
14.8943
 30
0.0
 10
-27.9164
 20
14.8943
 30
0.0
 10
-27.5851
 20
17.2417
 30
0.0
 10
-27.5851
 20
17.2417
 30
0.0
 10
-27.5851
 20
17.2417
 30
0.0
 10
-27.5851
 20
17.2417
 30
0.0
 10
-27.5115
 20
17.2417
 30
0.0
 10
-27.5115
 20
17.2417
 30
0.0
 10
-27.5115
 20
17.2417
 30
0.0
 10
-27.5115
 20
17.2417
 30
0.0
 10
-27.1582
 20
14.8943
 30
0.0
 10
-27.1582
 20
14.8943
 30
0.0
 10
-27.1582
 20
14.8943
 30
0.0
 10
-27.1582
 20
14.8943
 30
0.0
 10
-27.9164
 20
14.8943
 30
0.0
 10
-27.9164
 20
14.8943
 30
0.0
  0
SPLINE
  5
57
330
1F
100
AcDbEntity
  8
ILUSTRACE
 62
   250
100
AcDbSpline
210
0.0
220
0.0
230
1.0
 70
    11
 71
     3
 72
    20
 73
    16
 74
     0
 42
0.0000000001
 43
0.0000000001
 40
0.0
 40
0.0
 40
0.0
 40
0.0
 40
0.2
 40
0.2
 40
0.2
 40
0.2
 40
0.4
 40
0.4
 40
0.4
 40
0.4
 40
0.6
 40
0.6
 40
0.6
 40
0.6
 40
1.0
 40
1.0
 40
1.0
 40
1.0
 10
-27.1659
 20
-14.5909
 30
0.0
 10
-27.1659
 20
-14.5909
 30
0.0
 10
-27.4972
 20
-16.9383
 30
0.0
 10
-27.4972
 20
-16.9383
 30
0.0
 10
-27.4972
 20
-16.9383
 30
0.0
 10
-27.4972
 20
-16.9383
 30
0.0
 10
-27.5708
 20
-16.9383
 30
0.0
 10
-27.5708
 20
-16.9383
 30
0.0
 10
-27.5708
 20
-16.9383
 30
0.0
 10
-27.5708
 20
-16.9383
 30
0.0
 10
-27.9241
 20
-14.5909
 30
0.0
 10
-27.9241
 20
-14.5909
 30
0.0
 10
-27.9241
 20
-14.5909
 30
0.0
 10
-27.9241
 20
-14.5909
 30
0.0
 10
-27.1659
 20
-14.5909
 30
0.0
 10
-27.1659
 20
-14.5909
 30
0.0
  0
SPLINE
  5
58
330
1F
100
AcDbEntity
  8
ILUSTRACE
 62
   250
100
AcDbSpline
210
0.0
220
0.0
230
1.0
 70
    11
 71
     3
 72
    80
 73
    76
 74
     0
 42
0.0000000001
 43
0.0000000001
 40
0.0
 40
0.0
 40
0.0
 40
0.0
 40
0.05
 40
0.05
 40
0.05
 40
0.05
 40
0.1
 40
0.1
 40
0.1
 40
0.1
 40
0.15
 40
0.15
 40
0.15
 40
0.15
 40
0.2
 40
0.2
 40
0.2
 40
0.2
 40
0.25
 40
0.25
 40
0.25
 40
0.25
 40
0.3
 40
0.3
 40
0.3
 40
0.3
 40
0.35
 40
0.35
 40
0.35
 40
0.35
 40
0.4
 40
0.4
 40
0.4
 40
0.4
 40
0.45
 40
0.45
 40
0.45
 40
0.45
 40
0.5
 40
0.5
 40
0.5
 40
0.5
 40
0.55
 40
0.55
 40
0.55
 40
0.55
 40
0.6
 40
0.6
 40
0.6
 40
0.6
 40
0.65
 40
0.65
 40
0.65
 40
0.65
 40
0.7
 40
0.7
 40
0.7
 40
0.7
 40
0.75
 40
0.75
 40
0.75
 40
0.75
 40
0.8
 40
0.8
 40
0.8
 40
0.8
 40
0.85
 40
0.85
 40
0.85
 40
0.85
 40
0.9
 40
0.9
 40
0.9
 40
0.9
 40
1.0
 40
1.0
 40
1.0
 40
1.0
 10
-29.5993
 20
-0.8053
 30
0.0
 10
-29.5993
 20
-0.8053
 30
0.0
 10
-29.58
 20
-1.0517
 30
0.0
 10
-29.58
 20
-1.0517
 30
0.0
 10
-29.58
 20
-1.0517
 30
0.0
 10
-29.6774
 20
-1.0738
 30
0.0
 10
-29.7484
 20
-1.1049
 30
0.0
 10
-29.7921
 20
-1.1453
 30
0.0
 10
-29.7921
 20
-1.1453
 30
0.0
 10
-29.8632
 20
-1.2126
 30
0.0
 10
-29.8985
 20
-1.2954
 30
0.0
 10
-29.8985
 20
-1.3937
 30
0.0
 10
-29.8985
 20
-1.3937
 30
0.0
 10
-29.8985
 20
-1.4727
 30
0.0
 10
-29.8763
 20
-1.5418
 30
0.0
 10
-29.8321
 20
-1.6016
 30
0.0
 10
-29.8321
 20
-1.6016
 30
0.0
 10
-29.7752
 20
-1.6797
 30
0.0
 10
-29.692
 20
-1.7413
 30
0.0
 10
-29.5828
 20
-1.7864
 30
0.0
 10
-29.5828
 20
-1.7864
 30
0.0
 10
-29.4737
 20
-1.8311
 30
0.0
 10
-29.318
 20
-1.8546
 30
0.0
 10
-29.1158
 20
-1.8565
 30
0.0
 10
-29.1158
 20
-1.8565
 30
0.0
 10
-29.2065
 20
-1.7968
 30
0.0
 10
-29.2743
 20
-1.7239
 30
0.0
 10
-29.3185
 20
-1.6373
 30
0.0
 10
-29.3185
 20
-1.6373
 30
0.0
 10
-29.3622
 20
-1.5513
 30
0.0
 10
-29.3843
 20
-1.4605
 30
0.0
 10
-29.3843
 20
-1.3659
 30
0.0
 10
-29.3843
 20
-1.3659
 30
0.0
 10
-29.3843
 20
-1.2004
 30
0.0
 10
-29.3237
 20
-1.0597
 30
0.0
 10
-29.2018
 20
-0.9435
 30
0.0
 10
-29.2018
 20
-0.9435
 30
0.0
 10
-29.08
 20
-0.8274
 30
0.0
 10
-28.9229
 20
-0.769
 30
0.0
 10
-28.7301
 20
-0.769
 30
0.0
 10
-28.7301
 20
-0.769
 30
0.0
 10
-28.6031
 20
-0.769
 30
0.0
 10
-28.4855
 20
-0.7968
 30
0.0
 10
-28.3763
 20
-0.8514
 30
0.0
 10
-28.3763
 20
-0.8514
 30
0.0
 10
-28.2677
 20
-0.9059
 30
0.0
 10
-28.184
 20
-0.9812
 30
0.0
 10
-28.1261
 20
-1.0767
 30
0.0
 10
-28.1261
 20
-1.0767
 30
0.0
 10
-28.0683
 20
-1.1721
 30
0.0
 10
-28.0396
 20
-1.2803
 30
0.0
 10
-28.0396
 20
-1.4017
 30
0.0
 10
-28.0396
 20
-1.4017
 30
0.0
 10
-28.0396
 20
-1.6086
 30
0.0
 10
-28.1153
 20
-1.777
 30
0.0
 10
-28.2677
 20
-1.9073
 30
0.0
 10
-28.2677
 20
-1.9073
 30
0.0
 10
-28.4196
 20
-2.0381
 30
0.0
 10
-28.6703
 20
-2.103
 30
0.0
 10
-29.0193
 20
-2.103
 30
0.0
 10
-29.0193
 20
-2.103
 30
0.0
 10
-29.4097
 20
-2.103
 30
0.0
 10
-29.6934
 20
-2.031
 30
0.0
 10
-29.8707
 20
-1.8866
 30
0.0
 10
-29.8707
 20
-1.8866
 30
0.0
 10
-30.025
 20
-1.761
 30
0.0
 10
-30.1026
 20
-1.5917
 30
0.0
 10
-30.1026
 20
-1.3782
 30
0.0
 10
-30.1026
 20
-1.3782
 30
0.0
 10
-30.1026
 20
-1.2196
 30
0.0
 10
-30.0579
 20
-1.0894
 30
0.0
 10
-29.9685
 20
-0.9878
 30
0.0
 10
-29.9685
 20
-0.9878
 30
0.0
 10
-29.8796
 20
-0.8862
 30
0.0
 10
-29.7564
 20
-0.8255
 30
0.0
 10
-29.5993
 20
-0.8053
 30
0.0
  0
SPLINE
  5
59
330
1F
100
AcDbEntity
  8
ILUSTRACE
 62
   250
100
AcDbSpline
210
0.0
220
0.0
230
1.0
 70
    11
 71
     3
 72
    40
 73
    36
 74
     0
 42
0.0000000001
 43
0.0000000001
 40
0.0
 40
0.0
 40
0.0
 40
0.0
 40
0.1
 40
0.1
 40
0.1
 40
0.1
 40
0.2
 40
0.2
 40
0.2
 40
0.2
 40
0.3
 40
0.3
 40
0.3
 40
0.3
 40
0.4
 40
0.4
 40
0.4
 40
0.4
 40
0.5
 40
0.5
 40
0.5
 40
0.5
 40
0.6
 40
0.6
 40
0.6
 40
0.6
 40
0.7
 40
0.7
 40
0.7
 40
0.7
 40
0.8
 40
0.8
 40
0.8
 40
0.8
 40
1.0
 40
1.0
 40
1.0
 40
1.0
 10
-28.7287
 20
-1.818
 30
0.0
 10
-28.643
 20
-1.818
 30
0.0
 10
-28.5612
 20
-1.7996
 30
0.0
 10
-28.4831
 20
-1.7634
 30
0.0
 10
-28.4831
 20
-1.7634
 30
0.0
 10
-28.405
 20
-1.7272
 30
0.0
 10
-28.3458
 20
-1.6764
 30
0.0
 10
-28.3049
 20
-1.6115
 30
0.0
 10
-28.3049
 20
-1.6115
 30
0.0
 10
-28.2639
 20
-1.5461
 30
0.0
 10
-28.2432
 20
-1.4774
 30
0.0
 10
-28.2432
 20
-1.4059
 30
0.0
 10
-28.2432
 20
-1.4059
 30
0.0
 10
-28.2432
 20
-1.301
 30
0.0
 10
-28.2856
 20
-1.2112
 30
0.0
 10
-28.3702
 20
-1.1359
 30
0.0
 10
-28.3702
 20
-1.1359
 30
0.0
 10
-28.4549
 20
-1.0607
 30
0.0
 10
-28.5697
 20
-1.023
 30
0.0
 10
-28.7145
 20
-1.023
 30
0.0
 10
-28.7145
 20
-1.023
 30
0.0
 10
-28.8542
 20
-1.023
 30
0.0
 10
-28.9643
 20
-1.0602
 30
0.0
 10
-29.0447
 20
-1.1345
 30
0.0
 10
-29.0447
 20
-1.1345
 30
0.0
 10
-29.1252
 20
-1.2088
 30
0.0
 10
-29.1652
 20
-1.3024
 30
0.0
 10
-29.1652
 20
-1.4153
 30
0.0
 10
-29.1652
 20
-1.4153
 30
0.0
 10
-29.1652
 20
-1.5277
 30
0.0
 10
-29.1252
 20
-1.6228
 30
0.0
 10
-29.0447
 20
-1.7008
 30
0.0
 10
-29.0447
 20
-1.7008
 30
0.0
 10
-28.9643
 20
-1.7789
 30
0.0
 10
-28.8589
 20
-1.818
 30
0.0
 10
-28.7287
 20
-1.818
 30
0.0
  0
SPLINE
  5
5A
330
1F
100
AcDbEntity
  8
ILUSTRACE
 62
   250
100
AcDbSpline
210
0.0
220
0.0
230
1.0
 70
    11
 71
     3
 72
    92
 73
    88
 74
     0
 42
0.0000000001
 43
0.0000000001
 40
0.0
 40
0.0
 40
0.0
 40
0.0
 40
0.0434782608695652
 40
0.0434782608695652
 40
0.0434782608695652
 40
0.0434782608695652
 40
0.0869565217391304
 40
0.0869565217391304
 40
0.0869565217391304
 40
0.0869565217391304
 40
0.1304347826086956
 40
0.1304347826086956
 40
0.1304347826086956
 40
0.1304347826086956
 40
0.1739130434782609
 40
0.1739130434782609
 40
0.1739130434782609
 40
0.1739130434782609
 40
0.2173913043478261
 40
0.2173913043478261
 40
0.2173913043478261
 40
0.2173913043478261
 40
0.2608695652173913
 40
0.2608695652173913
 40
0.2608695652173913
 40
0.2608695652173913
 40
0.3043478260869565
 40
0.3043478260869565
 40
0.3043478260869565
 40
0.3043478260869565
 40
0.3478260869565217
 40
0.3478260869565217
 40
0.3478260869565217
 40
0.3478260869565217
 40
0.391304347826087
 40
0.391304347826087
 40
0.391304347826087
 40
0.391304347826087
 40
0.4347826086956522
 40
0.4347826086956522
 40
0.4347826086956522
 40
0.4347826086956522
 40
0.4782608695652174
 40
0.4782608695652174
 40
0.4782608695652174
 40
0.4782608695652174
 40
0.5217391304347826
 40
0.5217391304347826
 40
0.5217391304347826
 40
0.5217391304347826
 40
0.5652173913043478
 40
0.5652173913043478
 40
0.5652173913043478
 40
0.5652173913043478
 40
0.6086956521739131
 40
0.6086956521739131
 40
0.6086956521739131
 40
0.6086956521739131
 40
0.6521739130434783
 40
0.6521739130434783
 40
0.6521739130434783
 40
0.6521739130434783
 40
0.6956521739130435
 40
0.6956521739130435
 40
0.6956521739130435
 40
0.6956521739130435
 40
0.7391304347826086
 40
0.7391304347826086
 40
0.7391304347826086
 40
0.7391304347826086
 40
0.782608695652174
 40
0.782608695652174
 40
0.782608695652174
 40
0.782608695652174
 40
0.8260869565217391
 40
0.8260869565217391
 40
0.8260869565217391
 40
0.8260869565217391
 40
0.8695652173913043
 40
0.8695652173913043
 40
0.8695652173913043
 40
0.8695652173913043
 40
0.9130434782608695
 40
0.9130434782608695
 40
0.9130434782608695
 40
0.9130434782608695
 40
1.0
 40
1.0
 40
1.0
 40
1.0
 10
-28.541
 20
-0.4854
 30
0.0
 10
-28.541
 20
-0.4854
 30
0.0
 10
-28.5631
 20
-0.2469
 30
0.0
 10
-28.5631
 20
-0.2469
 30
0.0
 10
-28.5631
 20
-0.2469
 30
0.0
 10
-28.4511
 20
-0.2267
 30
0.0
 10
-28.3698
 20
-0.1881
 30
0.0
 10
-28.319
 20
-0.1312
 30
0.0
 10
-28.319
 20
-0.1312
 30
0.0
 10
-28.2686
 20
-0.0743
 30
0.0
 10
-28.2432
 20
-0.0014
 30
0.0
 10
-28.2432
 20
0.088
 30
0.0
 10
-28.2432
 20
0.088
 30
0.0
 10
-28.2432
 20
0.1642
 30
0.0
 10
-28.2606
 20
0.2309
 30
0.0
 10
-28.2959
 20
0.2883
 30
0.0
 10
-28.2959
 20
0.2883
 30
0.0
 10
-28.3307
 20
0.3457
 30
0.0
 10
-28.3773
 20
0.3928
 30
0.0
 10
-28.4356
 20
0.4294
 30
0.0
 10
-28.4356
 20
0.4294
 30
0.0
 10
-28.4939
 20
0.4666
 30
0.0
 10
-28.573
 20
0.4972
 30
0.0
 10
-28.6717
 20
0.5221
 30
0.0
 10
-28.6717
 20
0.5221
 30
0.0
 10
-28.771
 20
0.5466
 30
0.0
 10
-28.8721
 20
0.5593
 30
0.0
 10
-28.9751
 20
0.5593
 30
0.0
 10
-28.9751
 20
0.5593
 30
0.0
 10
-28.9859
 20
0.5593
 30
0.0
 10
-29.0029
 20
0.5588
 30
0.0
 10
-29.0245
 20
0.5579
 30
0.0
 10
-29.0245
 20
0.5579
 30
0.0
 10
-28.946
 20
0.508
 30
0.0
 10
-28.8815
 20
0.4403
 30
0.0
 10
-28.8326
 20
0.3547
 30
0.0
 10
-28.8326
 20
0.3547
 30
0.0
 10
-28.7832
 20
0.2686
 30
0.0
 10
-28.7588
 20
0.1754
 30
0.0
 10
-28.7588
 20
0.0757
 30
0.0
 10
-28.7588
 20
0.0757
 30
0.0
 10
-28.7588
 20
-0.0917
 30
0.0
 10
-28.8194
 20
-0.2333
 30
0.0
 10
-28.9408
 20
-0.349
 30
0.0
 10
-28.9408
 20
-0.349
 30
0.0
 10
-29.0621
 20
-0.4647
 30
0.0
 10
-29.2216
 20
-0.5226
 30
0.0
 10
-29.4201
 20
-0.5226
 30
0.0
 10
-29.4201
 20
-0.5226
 30
0.0
 10
-29.6252
 20
-0.5226
 30
0.0
 10
-29.7898
 20
-0.4624
 30
0.0
 10
-29.9149
 20
-0.3415
 30
0.0
 10
-29.9149
 20
-0.3415
 30
0.0
 10
-30.04
 20
-0.2206
 30
0.0
 10
-30.1026
 20
-0.0691
 30
0.0
 10
-30.1026
 20
0.1129
 30
0.0
 10
-30.1026
 20
0.1129
 30
0.0
 10
-30.1026
 20
0.2441
 30
0.0
 10
-30.0668
 20
0.3641
 30
0.0
 10
-29.9963
 20
0.4732
 30
0.0
 10
-29.9963
 20
0.4732
 30
0.0
 10
-29.9257
 20
0.5818
 30
0.0
 10
-29.8246
 20
0.6646
 30
0.0
 10
-29.6938
 20
0.7211
 30
0.0
 10
-29.6938
 20
0.7211
 30
0.0
 10
-29.5631
 20
0.7775
 30
0.0
 10
-29.3735
 20
0.8057
 30
0.0
 10
-29.1252
 20
0.8057
 30
0.0
 10
-29.1252
 20
0.8057
 30
0.0
 10
-28.8674
 20
0.8057
 30
0.0
 10
-28.6619
 20
0.778
 30
0.0
 10
-28.5085
 20
0.722
 30
0.0
 10
-28.5085
 20
0.722
 30
0.0
 10
-28.3556
 20
0.6656
 30
0.0
 10
-28.2395
 20
0.5823
 30
0.0
 10
-28.1595
 20
0.4718
 30
0.0
 10
-28.1595
 20
0.4718
 30
0.0
 10
-28.0795
 20
0.3608
 30
0.0
 10
-28.0396
 20
0.2314
 30
0.0
 10
-28.0396
 20
0.0823
 30
0.0
 10
-28.0396
 20
0.0823
 30
0.0
 10
-28.0396
 20
-0.0757
 30
0.0
 10
-28.0833
 20
-0.2046
 30
0.0
 10
-28.1713
 20
-0.3048
 30
0.0
 10
-28.1713
 20
-0.3048
 30
0.0
 10
-28.2588
 20
-0.405
 30
0.0
 10
-28.382
 20
-0.4652
 30
0.0
 10
-28.541
 20
-0.4854
 30
0.0
  0
SPLINE
  5
5B
330
1F
100
AcDbEntity
  8
ILUSTRACE
 62
   250
100
AcDbSpline
210
0.0
220
0.0
230
1.0
 70
    11
 71
     3
 72
    36
 73
    32
 74
     0
 42
0.0000000001
 43
0.0000000001
 40
0.0
 40
0.0
 40
0.0
 40
0.0
 40
0.1111111111111111
 40
0.1111111111111111
 40
0.1111111111111111
 40
0.1111111111111111
 40
0.2222222222222222
 40
0.2222222222222222
 40
0.2222222222222222
 40
0.2222222222222222
 40
0.3333333333333333
 40
0.3333333333333333
 40
0.3333333333333333
 40
0.3333333333333333
 40
0.4444444444444444
 40
0.4444444444444444
 40
0.4444444444444444
 40
0.4444444444444444
 40
0.5555555555555556
 40
0.5555555555555556
 40
0.5555555555555556
 40
0.5555555555555556
 40
0.6666666666666666
 40
0.6666666666666666
 40
0.6666666666666666
 40
0.6666666666666666
 40
0.7777777777777778
 40
0.7777777777777778
 40
0.7777777777777778
 40
0.7777777777777778
 40
1.0
 40
1.0
 40
1.0
 40
1.0
 10
-29.4328
 20
0.5301
 30
0.0
 10
-29.5748
 20
0.5301
 30
0.0
 10
-29.6882
 20
0.4925
 30
0.0
 10
-29.7715
 20
0.4167
 30
0.0
 10
-29.7715
 20
0.4167
 30
0.0
 10
-29.8552
 20
0.3405
 30
0.0
 10
-29.897
 20
0.2498
 30
0.0
 10
-29.897
 20
0.143
 30
0.0
 10
-29.897
 20
0.143
 30
0.0
 10
-29.897
 20
0.0329
 30
0.0
 10
-29.8519
 20
-0.063
 30
0.0
 10
-29.762
 20
-0.1449
 30
0.0
 10
-29.762
 20
-0.1449
 30
0.0
 10
-29.6717
 20
-0.2267
 30
0.0
 10
-29.5551
 20
-0.2676
 30
0.0
 10
-29.4121
 20
-0.2676
 30
0.0
 10
-29.4121
 20
-0.2676
 30
0.0
 10
-29.2832
 20
-0.2676
 30
0.0
 10
-29.1788
 20
-0.2286
 30
0.0
 10
-29.0984
 20
-0.151
 30
0.0
 10
-29.0984
 20
-0.151
 30
0.0
 10
-29.0179
 20
-0.0734
 30
0.0
 10
-28.9779
 20
0.0221
 30
0.0
 10
-28.9779
 20
0.1359
 30
0.0
 10
-28.9779
 20
0.1359
 30
0.0
 10
-28.9779
 20
0.2512
 30
0.0
 10
-29.0179
 20
0.3452
 30
0.0
 10
-29.0984
 20
0.4191
 30
0.0
 10
-29.0984
 20
0.4191
 30
0.0
 10
-29.1788
 20
0.4934
 30
0.0
 10
-29.2903
 20
0.5301
 30
0.0
 10
-29.4328
 20
0.5301
 30
0.0
  0
SPLINE
  5
5C
330
1F
100
AcDbEntity
  8
ILUSTRACE
 62
   250
100
AcDbSpline
210
0.0
220
0.0
230
1.0
 70
    11
 71
     3
 72
    44
 73
    40
 74
     0
 42
0.0000000001
 43
0.0000000001
 40
0.0
 40
0.0
 40
0.0
 40
0.0
 40
0.0909090909090909
 40
0.0909090909090909
 40
0.0909090909090909
 40
0.0909090909090909
 40
0.1818181818181818
 40
0.1818181818181818
 40
0.1818181818181818
 40
0.1818181818181818
 40
0.2727272727272727
 40
0.2727272727272727
 40
0.2727272727272727
 40
0.2727272727272727
 40
0.3636363636363636
 40
0.3636363636363636
 40
0.3636363636363636
 40
0.3636363636363636
 40
0.4545454545454545
 40
0.4545454545454545
 40
0.4545454545454545
 40
0.4545454545454545
 40
0.5454545454545454
 40
0.5454545454545454
 40
0.5454545454545454
 40
0.5454545454545454
 40
0.6363636363636364
 40
0.6363636363636364
 40
0.6363636363636364
 40
0.6363636363636364
 40
0.7272727272727273
 40
0.7272727272727273
 40
0.7272727272727273
 40
0.7272727272727273
 40
0.8181818181818182
 40
0.8181818181818182
 40
0.8181818181818182
 40
0.8181818181818182
 40
1.0
 40
1.0
 40
1.0
 40
1.0
 10
2.5046
 20
23.4743
 30
0.0
 10
2.3677
 20
23.647
 30
0.0
 10
2.252
 20
23.8492
 30
0.0
 10
2.1575
 20
24.0806
 30
0.0
 10
2.1575
 20
24.0806
 30
0.0
 10
2.063
 20
24.3125
 30
0.0
 10
2.0154
 20
24.5519
 30
0.0
 10
2.0154
 20
24.8003
 30
0.0
 10
2.0154
 20
24.8003
 30
0.0
 10
2.0154
 20
25.019
 30
0.0
 10
2.0507
 20
25.2283
 30
0.0
 10
2.1217
 20
25.4287
 30
0.0
 10
2.1217
 20
25.4287
 30
0.0
 10
2.2045
 20
25.6611
 30
0.0
 10
2.332
 20
25.8925
 30
0.0
 10
2.5046
 20
26.123
 30
0.0
 10
2.5046
 20
26.123
 30
0.0
 10
2.5046
 20
26.123
 30
0.0
 10
2.6824
 20
26.123
 30
0.0
 10
2.6824
 20
26.123
 30
0.0
 10
2.6824
 20
26.123
 30
0.0
 10
2.5714
 20
25.932
 30
0.0
 10
2.498
 20
25.7956
 30
0.0
 10
2.4623
 20
25.7137
 30
0.0
 10
2.4623
 20
25.7137
 30
0.0
 10
2.4058
 20
25.5872
 30
0.0
 10
2.3621
 20
25.4546
 30
0.0
 10
2.3296
 20
25.3168
 30
0.0
 10
2.3296
 20
25.3168
 30
0.0
 10
2.2901
 20
25.1451
 30
0.0
 10
2.2704
 20
24.9724
 30
0.0
 10
2.2704
 20
24.7989
 30
0.0
 10
2.2704
 20
24.7989
 30
0.0
 10
2.2704
 20
24.3567
 30
0.0
 10
2.4077
 20
23.9155
 30
0.0
 10
2.6824
 20
23.4743
 30
0.0
 10
2.6824
 20
23.4743
 30
0.0
 10
2.6824
 20
23.4743
 30
0.0
 10
2.5046
 20
23.4743
 30
0.0
 10
2.5046
 20
23.4743
 30
0.0
  0
SPLINE
  5
5D
330
1F
100
AcDbEntity
  8
ILUSTRACE
 62
   250
100
AcDbSpline
210
0.0
220
0.0
230
1.0
 70
    11
 71
     3
 72
    84
 73
    80
 74
     0
 42
0.0000000001
 43
0.0000000001
 40
0.0
 40
0.0
 40
0.0
 40
0.0
 40
0.0476190476190476
 40
0.0476190476190476
 40
0.0476190476190476
 40
0.0476190476190476
 40
0.0952380952380952
 40
0.0952380952380952
 40
0.0952380952380952
 40
0.0952380952380952
 40
0.1428571428571428
 40
0.1428571428571428
 40
0.1428571428571428
 40
0.1428571428571428
 40
0.1904761904761905
 40
0.1904761904761905
 40
0.1904761904761905
 40
0.1904761904761905
 40
0.2380952380952381
 40
0.2380952380952381
 40
0.2380952380952381
 40
0.2380952380952381
 40
0.2857142857142857
 40
0.2857142857142857
 40
0.2857142857142857
 40
0.2857142857142857
 40
0.3333333333333333
 40
0.3333333333333333
 40
0.3333333333333333
 40
0.3333333333333333
 40
0.3809523809523809
 40
0.3809523809523809
 40
0.3809523809523809
 40
0.3809523809523809
 40
0.4285714285714285
 40
0.4285714285714285
 40
0.4285714285714285
 40
0.4285714285714285
 40
0.4761904761904762
 40
0.4761904761904762
 40
0.4761904761904762
 40
0.4761904761904762
 40
0.5238095238095238
 40
0.5238095238095238
 40
0.5238095238095238
 40
0.5238095238095238
 40
0.5714285714285714
 40
0.5714285714285714
 40
0.5714285714285714
 40
0.5714285714285714
 40
0.6190476190476191
 40
0.6190476190476191
 40
0.6190476190476191
 40
0.6190476190476191
 40
0.6666666666666666
 40
0.6666666666666666
 40
0.6666666666666666
 40
0.6666666666666666
 40
0.7142857142857143
 40
0.7142857142857143
 40
0.7142857142857143
 40
0.7142857142857143
 40
0.7619047619047619
 40
0.7619047619047619
 40
0.7619047619047619
 40
0.7619047619047619
 40
0.8095238095238095
 40
0.8095238095238095
 40
0.8095238095238095
 40
0.8095238095238095
 40
0.8571428571428571
 40
0.8571428571428571
 40
0.8571428571428571
 40
0.8571428571428571
 40
0.9047619047619048
 40
0.9047619047619048
 40
0.9047619047619048
 40
0.9047619047619048
 40
1.0
 40
1.0
 40
1.0
 40
1.0
 10
5.2911
 20
25.9038
 30
0.0
 10
5.2911
 20
25.9038
 30
0.0
 10
5.5225
 20
26.1629
 30
0.0
 10
5.5225
 20
26.1629
 30
0.0
 10
5.5225
 20
26.1629
 30
0.0
 10
5.5225
 20
26.1629
 30
0.0
 10
5.6589
 20
26.0472
 30
0.0
 10
5.6589
 20
26.0472
 30
0.0
 10
5.6589
 20
26.0472
 30
0.0
 10
5.6589
 20
26.0472
 30
0.0
 10
5.4167
 20
25.7744
 30
0.0
 10
5.4167
 20
25.7744
 30
0.0
 10
5.4167
 20
25.7744
 30
0.0
 10
5.4957
 20
25.6568
 30
0.0
 10
5.5488
 20
25.5538
 30
0.0
 10
5.5766
 20
25.4659
 30
0.0
 10
5.5766
 20
25.4659
 30
0.0
 10
5.6133
 20
25.3501
 30
0.0
 10
5.6316
 20
25.2203
 30
0.0
 10
5.6316
 20
25.0773
 30
0.0
 10
5.6316
 20
25.0773
 30
0.0
 10
5.6316
 20
24.8704
 30
0.0
 10
5.5898
 20
24.686
 30
0.0
 10
5.506
 20
24.5247
 30
0.0
 10
5.506
 20
24.5247
 30
0.0
 10
5.4223
 20
24.3628
 30
0.0
 10
5.3052
 20
24.2406
 30
0.0
 10
5.1542
 20
24.1578
 30
0.0
 10
5.1542
 20
24.1578
 30
0.0
 10
5.0027
 20
24.0755
 30
0.0
 10
4.8424
 20
24.0341
 30
0.0
 10
4.6726
 20
24.0341
 30
0.0
 10
4.6726
 20
24.0341
 30
0.0
 10
4.5456
 20
24.0341
 30
0.0
 10
4.4308
 20
24.0519
 30
0.0
 10
4.3278
 20
24.0877
 30
0.0
 10
4.3278
 20
24.0877
 30
0.0
 10
4.2488
 20
24.1154
 30
0.0
 10
4.1566
 20
24.1681
 30
0.0
 10
4.0507
 20
24.2462
 30
0.0
 10
4.0507
 20
24.2462
 30
0.0
 10
4.0507
 20
24.2462
 30
0.0
 10
3.8193
 20
23.987
 30
0.0
 10
3.8193
 20
23.987
 30
0.0
 10
3.8193
 20
23.987
 30
0.0
 10
3.8193
 20
23.987
 30
0.0
 10
3.6829
 20
24.1027
 30
0.0
 10
3.6829
 20
24.1027
 30
0.0
 10
3.6829
 20
24.1027
 30
0.0
 10
3.6829
 20
24.1027
 30
0.0
 10
3.9256
 20
24.3741
 30
0.0
 10
3.9256
 20
24.3741
 30
0.0
 10
3.9256
 20
24.3741
 30
0.0
 10
3.8353
 20
24.511
 30
0.0
 10
3.7751
 20
24.6281
 30
0.0
 10
3.745
 20
24.725
 30
0.0
 10
3.745
 20
24.725
 30
0.0
 10
3.7149
 20
24.8219
 30
0.0
 10
3.6994
 20
24.9386
 30
0.0
 10
3.6994
 20
25.0745
 30
0.0
 10
3.6994
 20
25.0745
 30
0.0
 10
3.6994
 20
25.2819
 30
0.0
 10
3.7408
 20
25.4668
 30
0.0
 10
3.8235
 20
25.6291
 30
0.0
 10
3.8235
 20
25.6291
 30
0.0
 10
3.9063
 20
25.7914
 30
0.0
 10
4.022
 20
25.9141
 30
0.0
 10
4.1716
 20
25.9978
 30
0.0
 10
4.1716
 20
25.9978
 30
0.0
 10
4.3207
 20
26.0811
 30
0.0
 10
4.4868
 20
26.123
 30
0.0
 10
4.6697
 20
26.123
 30
0.0
 10
4.6697
 20
26.123
 30
0.0
 10
4.793
 20
26.123
 30
0.0
 10
4.9007
 20
26.107
 30
0.0
 10
4.9929
 20
26.074
 30
0.0
 10
4.9929
 20
26.074
 30
0.0
 10
5.0851
 20
26.0416
 30
0.0
 10
5.1848
 20
25.9847
 30
0.0
 10
5.2911
 20
25.9038
 30
0.0
  0
SPLINE
  5
5E
330
1F
100
AcDbEntity
  8
ILUSTRACE
 62
   250
100
AcDbSpline
210
0.0
220
0.0
230
1.0
 70
    11
 71
     3
 72
    32
 73
    28
 74
     0
 42
0.0000000001
 43
0.0000000001
 40
0.0
 40
0.0
 40
0.0
 40
0.0
 40
0.125
 40
0.125
 40
0.125
 40
0.125
 40
0.25
 40
0.25
 40
0.25
 40
0.25
 40
0.375
 40
0.375
 40
0.375
 40
0.375
 40
0.5
 40
0.5
 40
0.5
 40
0.5
 40
0.625
 40
0.625
 40
0.625
 40
0.625
 40
0.75
 40
0.75
 40
0.75
 40
0.75
 40
1.0
 40
1.0
 40
1.0
 40
1.0
 10
5.126
 20
25.718
 30
0.0
 10
5.0394
 20
25.7857
 30
0.0
 10
4.9637
 20
25.8323
 30
0.0
 10
4.8993
 20
25.8572
 30
0.0
 10
4.8993
 20
25.8572
 30
0.0
 10
4.8344
 20
25.8817
 30
0.0
 10
4.7582
 20
25.8944
 30
0.0
 10
4.6711
 20
25.8944
 30
0.0
 10
4.6711
 20
25.8944
 30
0.0
 10
4.4698
 20
25.8944
 30
0.0
 10
4.3038
 20
25.8262
 30
0.0
 10
4.1721
 20
25.6898
 30
0.0
 10
4.1721
 20
25.6898
 30
0.0
 10
4.0408
 20
25.5533
 30
0.0
 10
3.975
 20
25.3497
 30
0.0
 10
3.975
 20
25.0783
 30
0.0
 10
3.975
 20
25.0783
 30
0.0
 10
3.975
 20
24.972
 30
0.0
 10
3.9853
 20
24.8774
 30
0.0
 10
4.0056
 20
24.7946
 30
0.0
 10
4.0056
 20
24.7946
 30
0.0
 10
4.0202
 20
24.733
 30
0.0
 10
4.0507
 20
24.6573
 30
0.0
 10
4.0978
 20
24.5675
 30
0.0
 10
4.0978
 20
24.5675
 30
0.0
 10
4.0978
 20
24.5675
 30
0.0
 10
5.126
 20
25.718
 30
0.0
 10
5.126
 20
25.718
 30
0.0
  0
SPLINE
  5
5F
330
1F
100
AcDbEntity
  8
ILUSTRACE
 62
   250
100
AcDbSpline
210
0.0
220
0.0
230
1.0
 70
    11
 71
     3
 72
    28
 73
    24
 74
     0
 42
0.0000000001
 43
0.0000000001
 40
0.0
 40
0.0
 40
0.0
 40
0.0
 40
0.1428571428571428
 40
0.1428571428571428
 40
0.1428571428571428
 40
0.1428571428571428
 40
0.2857142857142857
 40
0.2857142857142857
 40
0.2857142857142857
 40
0.2857142857142857
 40
0.4285714285714285
 40
0.4285714285714285
 40
0.4285714285714285
 40
0.4285714285714285
 40
0.5714285714285714
 40
0.5714285714285714
 40
0.5714285714285714
 40
0.5714285714285714
 40
0.7142857142857143
 40
0.7142857142857143
 40
0.7142857142857143
 40
0.7142857142857143
 40
1.0
 40
1.0
 40
1.0
 40
1.0
 10
5.2389
 20
25.5759
 30
0.0
 10
5.2389
 20
25.5759
 30
0.0
 10
4.2149
 20
24.4296
 30
0.0
 10
4.2149
 20
24.4296
 30
0.0
 10
4.2149
 20
24.4296
 30
0.0
 10
4.2854
 20
24.3718
 30
0.0
 10
4.3508
 20
24.3313
 30
0.0
 10
4.4106
 20
24.3083
 30
0.0
 10
4.4106
 20
24.3083
 30
0.0
 10
4.4886
 20
24.2777
 30
0.0
 10
4.5733
 20
24.2627
 30
0.0
 10
4.6641
 20
24.2627
 30
0.0
 10
4.6641
 20
24.2627
 30
0.0
 10
4.8645
 20
24.2627
 30
0.0
 10
5.0296
 20
24.3332
 30
0.0
 10
5.1603
 20
24.4748
 30
0.0
 10
5.1603
 20
24.4748
 30
0.0
 10
5.2906
 20
24.6164
 30
0.0
 10
5.356
 20
24.8149
 30
0.0
 10
5.356
 20
25.0703
 30
0.0
 10
5.356
 20
25.0703
 30
0.0
 10
5.356
 20
25.2612
 30
0.0
 10
5.317
 20
25.4301
 30
0.0
 10
5.2389
 20
25.5759
 30
0.0
  0
SPLINE
  5
60
330
1F
100
AcDbEntity
  8
ILUSTRACE
 62
   250
100
AcDbSpline
210
0.0
220
0.0
230
1.0
 70
    11
 71
     3
 72
    92
 73
    88
 74
     0
 42
0.0000000001
 43
0.0000000001
 40
0.0
 40
0.0
 40
0.0
 40
0.0
 40
0.0434782608695652
 40
0.0434782608695652
 40
0.0434782608695652
 40
0.0434782608695652
 40
0.0869565217391304
 40
0.0869565217391304
 40
0.0869565217391304
 40
0.0869565217391304
 40
0.1304347826086956
 40
0.1304347826086956
 40
0.1304347826086956
 40
0.1304347826086956
 40
0.1739130434782609
 40
0.1739130434782609
 40
0.1739130434782609
 40
0.1739130434782609
 40
0.2173913043478261
 40
0.2173913043478261
 40
0.2173913043478261
 40
0.2173913043478261
 40
0.2608695652173913
 40
0.2608695652173913
 40
0.2608695652173913
 40
0.2608695652173913
 40
0.3043478260869565
 40
0.3043478260869565
 40
0.3043478260869565
 40
0.3043478260869565
 40
0.3478260869565217
 40
0.3478260869565217
 40
0.3478260869565217
 40
0.3478260869565217
 40
0.391304347826087
 40
0.391304347826087
 40
0.391304347826087
 40
0.391304347826087
 40
0.4347826086956522
 40
0.4347826086956522
 40
0.4347826086956522
 40
0.4347826086956522
 40
0.4782608695652174
 40
0.4782608695652174
 40
0.4782608695652174
 40
0.4782608695652174
 40
0.5217391304347826
 40
0.5217391304347826
 40
0.5217391304347826
 40
0.5217391304347826
 40
0.5652173913043478
 40
0.5652173913043478
 40
0.5652173913043478
 40
0.5652173913043478
 40
0.6086956521739131
 40
0.6086956521739131
 40
0.6086956521739131
 40
0.6086956521739131
 40
0.6521739130434783
 40
0.6521739130434783
 40
0.6521739130434783
 40
0.6521739130434783
 40
0.6956521739130435
 40
0.6956521739130435
 40
0.6956521739130435
 40
0.6956521739130435
 40
0.7391304347826086
 40
0.7391304347826086
 40
0.7391304347826086
 40
0.7391304347826086
 40
0.782608695652174
 40
0.782608695652174
 40
0.782608695652174
 40
0.782608695652174
 40
0.8260869565217391
 40
0.8260869565217391
 40
0.8260869565217391
 40
0.8260869565217391
 40
0.8695652173913043
 40
0.8695652173913043
 40
0.8695652173913043
 40
0.8695652173913043
 40
0.9130434782608695
 40
0.9130434782608695
 40
0.9130434782608695
 40
0.9130434782608695
 40
1.0
 40
1.0
 40
1.0
 40
1.0
 10
5.9181
 20
24.5355
 30
0.0
 10
5.9181
 20
24.5355
 30
0.0
 10
6.1566
 20
24.5576
 30
0.0
 10
6.1566
 20
24.5576
 30
0.0
 10
6.1566
 20
24.5576
 30
0.0
 10
6.1768
 20
24.4456
 30
0.0
 10
6.2154
 20
24.3643
 30
0.0
 10
6.2723
 20
24.3135
 30
0.0
 10
6.2723
 20
24.3135
 30
0.0
 10
6.3292
 20
24.2631
 30
0.0
 10
6.4021
 20
24.2377
 30
0.0
 10
6.4915
 20
24.2377
 30
0.0
 10
6.4915
 20
24.2377
 30
0.0
 10
6.5677
 20
24.2377
 30
0.0
 10
6.6344
 20
24.2551
 30
0.0
 10
6.6918
 20
24.2904
 30
0.0
 10
6.6918
 20
24.2904
 30
0.0
 10
6.7492
 20
24.3252
 30
0.0
 10
6.7963
 20
24.3718
 30
0.0
 10
6.8329
 20
24.4301
 30
0.0
 10
6.8329
 20
24.4301
 30
0.0
 10
6.8701
 20
24.4884
 30
0.0
 10
6.9007
 20
24.5675
 30
0.0
 10
6.9256
 20
24.6662
 30
0.0
 10
6.9256
 20
24.6662
 30
0.0
 10
6.9501
 20
24.7655
 30
0.0
 10
6.9628
 20
24.8666
 30
0.0
 10
6.9628
 20
24.9696
 30
0.0
 10
6.9628
 20
24.9696
 30
0.0
 10
6.9628
 20
24.9804
 30
0.0
 10
6.9623
 20
24.9974
 30
0.0
 10
6.9614
 20
25.019
 30
0.0
 10
6.9614
 20
25.019
 30
0.0
 10
6.9115
 20
24.9405
 30
0.0
 10
6.8438
 20
24.876
 30
0.0
 10
6.7582
 20
24.8271
 30
0.0
 10
6.7582
 20
24.8271
 30
0.0
 10
6.6721
 20
24.7777
 30
0.0
 10
6.5789
 20
24.7533
 30
0.0
 10
6.4792
 20
24.7533
 30
0.0
 10
6.4792
 20
24.7533
 30
0.0
 10
6.3118
 20
24.7533
 30
0.0
 10
6.1702
 20
24.8139
 30
0.0
 10
6.0545
 20
24.9353
 30
0.0
 10
6.0545
 20
24.9353
 30
0.0
 10
5.9388
 20
25.0566
 30
0.0
 10
5.8809
 20
25.2161
 30
0.0
 10
5.8809
 20
25.4146
 30
0.0
 10
5.8809
 20
25.4146
 30
0.0
 10
5.8809
 20
25.6197
 30
0.0
 10
5.9411
 20
25.7843
 30
0.0
 10
6.062
 20
25.9094
 30
0.0
 10
6.062
 20
25.9094
 30
0.0
 10
6.1829
 20
26.0345
 30
0.0
 10
6.3344
 20
26.0971
 30
0.0
 10
6.5164
 20
26.0971
 30
0.0
 10
6.5164
 20
26.0971
 30
0.0
 10
6.6476
 20
26.0971
 30
0.0
 10
6.7676
 20
26.0613
 30
0.0
 10
6.8767
 20
25.9908
 30
0.0
 10
6.8767
 20
25.9908
 30
0.0
 10
6.9853
 20
25.9202
 30
0.0
 10
7.0681
 20
25.8191
 30
0.0
 10
7.1246
 20
25.6883
 30
0.0
 10
7.1246
 20
25.6883
 30
0.0
 10
7.181
 20
25.5576
 30
0.0
 10
7.2092
 20
25.368
 30
0.0
 10
7.2092
 20
25.1197
 30
0.0
 10
7.2092
 20
25.1197
 30
0.0
 10
7.2092
 20
24.8619
 30
0.0
 10
7.1815
 20
24.6564
 30
0.0
 10
7.1255
 20
24.503
 30
0.0
 10
7.1255
 20
24.503
 30
0.0
 10
7.0691
 20
24.3501
 30
0.0
 10
6.9858
 20
24.234
 30
0.0
 10
6.8753
 20
24.154
 30
0.0
 10
6.8753
 20
24.154
 30
0.0
 10
6.7643
 20
24.074
 30
0.0
 10
6.6349
 20
24.0341
 30
0.0
 10
6.4858
 20
24.0341
 30
0.0
 10
6.4858
 20
24.0341
 30
0.0
 10
6.3278
 20
24.0341
 30
0.0
 10
6.1989
 20
24.0778
 30
0.0
 10
6.0987
 20
24.1658
 30
0.0
 10
6.0987
 20
24.1658
 30
0.0
 10
5.9985
 20
24.2533
 30
0.0
 10
5.9383
 20
24.3765
 30
0.0
 10
5.9181
 20
24.5355
 30
0.0
  0
SPLINE
  5
61
330
1F
100
AcDbEntity
  8
ILUSTRACE
 62
   250
100
AcDbSpline
210
0.0
220
0.0
230
1.0
 70
    11
 71
     3
 72
    36
 73
    32
 74
     0
 42
0.0000000001
 43
0.0000000001
 40
0.0
 40
0.0
 40
0.0
 40
0.0
 40
0.1111111111111111
 40
0.1111111111111111
 40
0.1111111111111111
 40
0.1111111111111111
 40
0.2222222222222222
 40
0.2222222222222222
 40
0.2222222222222222
 40
0.2222222222222222
 40
0.3333333333333333
 40
0.3333333333333333
 40
0.3333333333333333
 40
0.3333333333333333
 40
0.4444444444444444
 40
0.4444444444444444
 40
0.4444444444444444
 40
0.4444444444444444
 40
0.5555555555555556
 40
0.5555555555555556
 40
0.5555555555555556
 40
0.5555555555555556
 40
0.6666666666666666
 40
0.6666666666666666
 40
0.6666666666666666
 40
0.6666666666666666
 40
0.7777777777777778
 40
0.7777777777777778
 40
0.7777777777777778
 40
0.7777777777777778
 40
1.0
 40
1.0
 40
1.0
 40
1.0
 10
6.9336
 20
25.4273
 30
0.0
 10
6.9336
 20
25.5693
 30
0.0
 10
6.896
 20
25.6827
 30
0.0
 10
6.8202
 20
25.766
 30
0.0
 10
6.8202
 20
25.766
 30
0.0
 10
6.744
 20
25.8497
 30
0.0
 10
6.6533
 20
25.8915
 30
0.0
 10
6.5465
 20
25.8915
 30
0.0
 10
6.5465
 20
25.8915
 30
0.0
 10
6.4364
 20
25.8915
 30
0.0
 10
6.3405
 20
25.8464
 30
0.0
 10
6.2586
 20
25.7565
 30
0.0
 10
6.2586
 20
25.7565
 30
0.0
 10
6.1768
 20
25.6662
 30
0.0
 10
6.1359
 20
25.5496
 30
0.0
 10
6.1359
 20
25.4066
 30
0.0
 10
6.1359
 20
25.4066
 30
0.0
 10
6.1359
 20
25.2777
 30
0.0
 10
6.1749
 20
25.1733
 30
0.0
 10
6.2525
 20
25.0929
 30
0.0
 10
6.2525
 20
25.0929
 30
0.0
 10
6.3301
 20
25.0124
 30
0.0
 10
6.4256
 20
24.9724
 30
0.0
 10
6.5394
 20
24.9724
 30
0.0
 10
6.5394
 20
24.9724
 30
0.0
 10
6.6547
 20
24.9724
 30
0.0
 10
6.7487
 20
25.0124
 30
0.0
 10
6.8226
 20
25.0929
 30
0.0
 10
6.8226
 20
25.0929
 30
0.0
 10
6.8969
 20
25.1733
 30
0.0
 10
6.9336
 20
25.2848
 30
0.0
 10
6.9336
 20
25.4273
 30
0.0
  0
SPLINE
  5
62
330
1F
100
AcDbEntity
  8
ILUSTRACE
 62
   250
100
AcDbSpline
210
0.0
220
0.0
230
1.0
 70
    11
 71
     3
 72
    48
 73
    44
 74
     0
 42
0.0000000001
 43
0.0000000001
 40
0.0
 40
0.0
 40
0.0
 40
0.0
 40
0.0833333333333333
 40
0.0833333333333333
 40
0.0833333333333333
 40
0.0833333333333333
 40
0.1666666666666667
 40
0.1666666666666667
 40
0.1666666666666667
 40
0.1666666666666667
 40
0.25
 40
0.25
 40
0.25
 40
0.25
 40
0.3333333333333333
 40
0.3333333333333333
 40
0.3333333333333333
 40
0.3333333333333333
 40
0.4166666666666667
 40
0.4166666666666667
 40
0.4166666666666667
 40
0.4166666666666667
 40
0.5
 40
0.5
 40
0.5
 40
0.5
 40
0.5833333333333334
 40
0.5833333333333334
 40
0.5833333333333334
 40
0.5833333333333334
 40
0.6666666666666666
 40
0.6666666666666666
 40
0.6666666666666666
 40
0.6666666666666666
 40
0.75
 40
0.75
 40
0.75
 40
0.75
 40
0.8333333333333334
 40
0.8333333333333334
 40
0.8333333333333334
 40
0.8333333333333334
 40
1.0
 40
1.0
 40
1.0
 40
1.0
 10
7.467
 20
25.8238
 30
0.0
 10
7.467
 20
25.8238
 30
0.0
 10
7.467
 20
26.0623
 30
0.0
 10
7.467
 20
26.0623
 30
0.0
 10
7.467
 20
26.0623
 30
0.0
 10
7.467
 20
26.0623
 30
0.0
 10
8.7746
 20
26.0623
 30
0.0
 10
8.7746
 20
26.0623
 30
0.0
 10
8.7746
 20
26.0623
 30
0.0
 10
8.7746
 20
26.0623
 30
0.0
 10
8.7746
 20
25.8694
 30
0.0
 10
8.7746
 20
25.8694
 30
0.0
 10
8.7746
 20
25.8694
 30
0.0
 10
8.6462
 20
25.7326
 30
0.0
 10
8.5187
 20
25.5505
 30
0.0
 10
8.3922
 20
25.3238
 30
0.0
 10
8.3922
 20
25.3238
 30
0.0
 10
8.2661
 20
25.0971
 30
0.0
 10
8.1683
 20
24.8633
 30
0.0
 10
8.0996
 20
24.6239
 30
0.0
 10
8.0996
 20
24.6239
 30
0.0
 10
8.0498
 20
24.4546
 30
0.0
 10
8.0183
 20
24.2697
 30
0.0
 10
8.0046
 20
24.0684
 30
0.0
 10
8.0046
 20
24.0684
 30
0.0
 10
8.0046
 20
24.0684
 30
0.0
 10
7.7497
 20
24.0684
 30
0.0
 10
7.7497
 20
24.0684
 30
0.0
 10
7.7497
 20
24.0684
 30
0.0
 10
7.7525
 20
24.2274
 30
0.0
 10
7.7835
 20
24.4193
 30
0.0
 10
7.8433
 20
24.6446
 30
0.0
 10
7.8433
 20
24.6446
 30
0.0
 10
7.903
 20
24.8694
 30
0.0
 10
7.9886
 20
25.0867
 30
0.0
 10
8.1001
 20
25.2956
 30
0.0
 10
8.1001
 20
25.2956
 30
0.0
 10
8.212
 20
25.5044
 30
0.0
 10
8.3306
 20
25.6808
 30
0.0
 10
8.4566
 20
25.8238
 30
0.0
 10
8.4566
 20
25.8238
 30
0.0
 10
8.4566
 20
25.8238
 30
0.0
 10
7.467
 20
25.8238
 30
0.0
 10
7.467
 20
25.8238
 30
0.0
  0
SPLINE
  5
63
330
1F
100
AcDbEntity
  8
ILUSTRACE
 62
   250
100
AcDbSpline
210
0.0
220
0.0
230
1.0
 70
    11
 71
     3
 72
    40
 73
    36
 74
     0
 42
0.0000000001
 43
0.0000000001
 40
0.0
 40
0.0
 40
0.0
 40
0.0
 40
0.1
 40
0.1
 40
0.1
 40
0.1
 40
0.2
 40
0.2
 40
0.2
 40
0.2
 40
0.3
 40
0.3
 40
0.3
 40
0.3
 40
0.4
 40
0.4
 40
0.4
 40
0.4
 40
0.5
 40
0.5
 40
0.5
 40
0.5
 40
0.6
 40
0.6
 40
0.6
 40
0.6
 40
0.7
 40
0.7
 40
0.7
 40
0.7
 40
0.8
 40
0.8
 40
0.8
 40
0.8
 40
1.0
 40
1.0
 40
1.0
 40
1.0
 10
9.1537
 20
24.0684
 30
0.0
 10
9.1537
 20
24.0684
 30
0.0
 10
9.1537
 20
24.3511
 30
0.0
 10
9.1537
 20
24.3511
 30
0.0
 10
9.1537
 20
24.3511
 30
0.0
 10
9.1537
 20
24.3511
 30
0.0
 10
9.4364
 20
24.3511
 30
0.0
 10
9.4364
 20
24.3511
 30
0.0
 10
9.4364
 20
24.3511
 30
0.0
 10
9.4364
 20
24.3511
 30
0.0
 10
9.4364
 20
24.0684
 30
0.0
 10
9.4364
 20
24.0684
 30
0.0
 10
9.4364
 20
24.0684
 30
0.0
 10
9.4364
 20
23.9644
 30
0.0
 10
9.4181
 20
23.8807
 30
0.0
 10
9.3814
 20
23.8168
 30
0.0
 10
9.3814
 20
23.8168
 30
0.0
 10
9.3442
 20
23.7533
 30
0.0
 10
9.2859
 20
23.7039
 30
0.0
 10
9.2064
 20
23.6686
 30
0.0
 10
9.2064
 20
23.6686
 30
0.0
 10
9.2064
 20
23.6686
 30
0.0
 10
9.1372
 20
23.7749
 30
0.0
 10
9.1372
 20
23.7749
 30
0.0
 10
9.1372
 20
23.7749
 30
0.0
 10
9.1895
 20
23.7979
 30
0.0
 10
9.228
 20
23.8318
 30
0.0
 10
9.253
 20
23.876
 30
0.0
 10
9.253
 20
23.876
 30
0.0
 10
9.2779
 20
23.9207
 30
0.0
 10
9.2915
 20
23.9847
 30
0.0
 10
9.2943
 20
24.0684
 30
0.0
 10
9.2943
 20
24.0684
 30
0.0
 10
9.2943
 20
24.0684
 30
0.0
 10
9.1537
 20
24.0684
 30
0.0
 10
9.1537
 20
24.0684
 30
0.0
  0
SPLINE
  5
64
330
1F
100
AcDbEntity
  8
ILUSTRACE
 62
   250
100
AcDbSpline
210
0.0
220
0.0
230
1.0
 70
    11
 71
     3
 72
    92
 73
    88
 74
     0
 42
0.0000000001
 43
0.0000000001
 40
0.0
 40
0.0
 40
0.0
 40
0.0
 40
0.0434782608695652
 40
0.0434782608695652
 40
0.0434782608695652
 40
0.0434782608695652
 40
0.0869565217391304
 40
0.0869565217391304
 40
0.0869565217391304
 40
0.0869565217391304
 40
0.1304347826086956
 40
0.1304347826086956
 40
0.1304347826086956
 40
0.1304347826086956
 40
0.1739130434782609
 40
0.1739130434782609
 40
0.1739130434782609
 40
0.1739130434782609
 40
0.2173913043478261
 40
0.2173913043478261
 40
0.2173913043478261
 40
0.2173913043478261
 40
0.2608695652173913
 40
0.2608695652173913
 40
0.2608695652173913
 40
0.2608695652173913
 40
0.3043478260869565
 40
0.3043478260869565
 40
0.3043478260869565
 40
0.3043478260869565
 40
0.3478260869565217
 40
0.3478260869565217
 40
0.3478260869565217
 40
0.3478260869565217
 40
0.391304347826087
 40
0.391304347826087
 40
0.391304347826087
 40
0.391304347826087
 40
0.4347826086956522
 40
0.4347826086956522
 40
0.4347826086956522
 40
0.4347826086956522
 40
0.4782608695652174
 40
0.4782608695652174
 40
0.4782608695652174
 40
0.4782608695652174
 40
0.5217391304347826
 40
0.5217391304347826
 40
0.5217391304347826
 40
0.5217391304347826
 40
0.5652173913043478
 40
0.5652173913043478
 40
0.5652173913043478
 40
0.5652173913043478
 40
0.6086956521739131
 40
0.6086956521739131
 40
0.6086956521739131
 40
0.6086956521739131
 40
0.6521739130434783
 40
0.6521739130434783
 40
0.6521739130434783
 40
0.6521739130434783
 40
0.6956521739130435
 40
0.6956521739130435
 40
0.6956521739130435
 40
0.6956521739130435
 40
0.7391304347826086
 40
0.7391304347826086
 40
0.7391304347826086
 40
0.7391304347826086
 40
0.782608695652174
 40
0.782608695652174
 40
0.782608695652174
 40
0.782608695652174
 40
0.8260869565217391
 40
0.8260869565217391
 40
0.8260869565217391
 40
0.8260869565217391
 40
0.8695652173913043
 40
0.8695652173913043
 40
0.8695652173913043
 40
0.8695652173913043
 40
0.9130434782608695
 40
0.9130434782608695
 40
0.9130434782608695
 40
0.9130434782608695
 40
1.0
 40
1.0
 40
1.0
 40
1.0
 10
9.8042
 20
24.5976
 30
0.0
 10
9.8042
 20
24.5976
 30
0.0
 10
10.0648
 20
24.6197
 30
0.0
 10
10.0648
 20
24.6197
 30
0.0
 10
10.0648
 20
24.6197
 30
0.0
 10
10.0841
 20
24.4927
 30
0.0
 10
10.1288
 20
24.3977
 30
0.0
 10
10.1989
 20
24.3337
 30
0.0
 10
10.1989
 20
24.3337
 30
0.0
 10
10.2694
 20
24.2697
 30
0.0
 10
10.3541
 20
24.2377
 30
0.0
 10
10.4533
 20
24.2377
 30
0.0
 10
10.4533
 20
24.2377
 30
0.0
 10
10.5728
 20
24.2377
 30
0.0
 10
10.6739
 20
24.2829
 30
0.0
 10
10.7562
 20
24.3727
 30
0.0
 10
10.7562
 20
24.3727
 30
0.0
 10
10.839
 20
24.463
 30
0.0
 10
10.8804
 20
24.5825
 30
0.0
 10
10.8804
 20
24.7311
 30
0.0
 10
10.8804
 20
24.7311
 30
0.0
 10
10.8804
 20
24.8727
 30
0.0
 10
10.8409
 20
24.9842
 30
0.0
 10
10.7614
 20
25.066
 30
0.0
 10
10.7614
 20
25.066
 30
0.0
 10
10.6819
 20
25.1479
 30
0.0
 10
10.578
 20
25.1888
 30
0.0
 10
10.4491
 20
25.1888
 30
0.0
 10
10.4491
 20
25.1888
 30
0.0
 10
10.3691
 20
25.1888
 30
0.0
 10
10.2972
 20
25.1705
 30
0.0
 10
10.2327
 20
25.1343
 30
0.0
 10
10.2327
 20
25.1343
 30
0.0
 10
10.1683
 20
25.098
 30
0.0
 10
10.118
 20
25.051
 30
0.0
 10
10.0813
 20
24.9931
 30
0.0
 10
10.0813
 20
24.9931
 30
0.0
 10
10.0813
 20
24.9931
 30
0.0
 10
9.8484
 20
25.0232
 30
0.0
 10
9.8484
 20
25.0232
 30
0.0
 10
9.8484
 20
25.0232
 30
0.0
 10
9.8484
 20
25.0232
 30
0.0
 10
10.0441
 20
26.0609
 30
0.0
 10
10.0441
 20
26.0609
 30
0.0
 10
10.0441
 20
26.0609
 30
0.0
 10
10.0441
 20
26.0609
 30
0.0
 10
11.0488
 20
26.0609
 30
0.0
 10
11.0488
 20
26.0609
 30
0.0
 10
11.0488
 20
26.0609
 30
0.0
 10
11.0488
 20
26.0609
 30
0.0
 10
11.0488
 20
25.8238
 30
0.0
 10
11.0488
 20
25.8238
 30
0.0
 10
11.0488
 20
25.8238
 30
0.0
 10
11.0488
 20
25.8238
 30
0.0
 10
10.2426
 20
25.8238
 30
0.0
 10
10.2426
 20
25.8238
 30
0.0
 10
10.2426
 20
25.8238
 30
0.0
 10
10.2426
 20
25.8238
 30
0.0
 10
10.1335
 20
25.281
 30
0.0
 10
10.1335
 20
25.281
 30
0.0
 10
10.1335
 20
25.281
 30
0.0
 10
10.2548
 20
25.3657
 30
0.0
 10
10.3823
 20
25.408
 30
0.0
 10
10.5154
 20
25.408
 30
0.0
 10
10.5154
 20
25.408
 30
0.0
 10
10.6918
 20
25.408
 30
0.0
 10
10.8404
 20
25.3469
 30
0.0
 10
10.9618
 20
25.2246
 30
0.0
 10
10.9618
 20
25.2246
 30
0.0
 10
11.0831
 20
25.1023
 30
0.0
 10
11.1438
 20
24.9452
 30
0.0
 10
11.1438
 20
24.7533
 30
0.0
 10
11.1438
 20
24.7533
 30
0.0
 10
11.1438
 20
24.5703
 30
0.0
 10
11.0902
 20
24.4122
 30
0.0
 10
10.9839
 20
24.2791
 30
0.0
 10
10.9839
 20
24.2791
 30
0.0
 10
10.8541
 20
24.1159
 30
0.0
 10
10.6772
 20
24.0341
 30
0.0
 10
10.4533
 20
24.0341
 30
0.0
 10
10.4533
 20
24.0341
 30
0.0
 10
10.2694
 20
24.0341
 30
0.0
 10
10.1194
 20
24.0853
 30
0.0
 10
10.0032
 20
24.1883
 30
0.0
 10
10.0032
 20
24.1883
 30
0.0
 10
9.887
 20
24.2914
 30
0.0
 10
9.8207
 20
24.4278
 30
0.0
 10
9.8042
 20
24.5976
 30
0.0
  0
SPLINE
  5
65
330
1F
100
AcDbEntity
  8
ILUSTRACE
 62
   250
100
AcDbSpline
210
0.0
220
0.0
230
1.0
 70
    11
 71
     3
 72
    44
 73
    40
 74
     0
 42
0.0000000001
 43
0.0000000001
 40
0.0
 40
0.0
 40
0.0
 40
0.0
 40
0.0909090909090909
 40
0.0909090909090909
 40
0.0909090909090909
 40
0.0909090909090909
 40
0.1818181818181818
 40
0.1818181818181818
 40
0.1818181818181818
 40
0.1818181818181818
 40
0.2727272727272727
 40
0.2727272727272727
 40
0.2727272727272727
 40
0.2727272727272727
 40
0.3636363636363636
 40
0.3636363636363636
 40
0.3636363636363636
 40
0.3636363636363636
 40
0.4545454545454545
 40
0.4545454545454545
 40
0.4545454545454545
 40
0.4545454545454545
 40
0.5454545454545454
 40
0.5454545454545454
 40
0.5454545454545454
 40
0.5454545454545454
 40
0.6363636363636364
 40
0.6363636363636364
 40
0.6363636363636364
 40
0.6363636363636364
 40
0.7272727272727273
 40
0.7272727272727273
 40
0.7272727272727273
 40
0.7272727272727273
 40
0.8181818181818182
 40
0.8181818181818182
 40
0.8181818181818182
 40
0.8181818181818182
 40
1.0
 40
1.0
 40
1.0
 40
1.0
 10
12.3893
 20
23.4743
 30
0.0
 10
12.3893
 20
23.4743
 30
0.0
 10
12.2115
 20
23.4743
 30
0.0
 10
12.2115
 20
23.4743
 30
0.0
 10
12.2115
 20
23.4743
 30
0.0
 10
12.4862
 20
23.9155
 30
0.0
 10
12.6236
 20
24.3567
 30
0.0
 10
12.6236
 20
24.7989
 30
0.0
 10
12.6236
 20
24.7989
 30
0.0
 10
12.6236
 20
24.9715
 30
0.0
 10
12.6038
 20
25.1427
 30
0.0
 10
12.5643
 20
25.313
 30
0.0
 10
12.5643
 20
25.313
 30
0.0
 10
12.5333
 20
25.4503
 30
0.0
 10
12.4895
 20
25.583
 30
0.0
 10
12.4336
 20
25.7095
 30
0.0
 10
12.4336
 20
25.7095
 30
0.0
 10
12.3978
 20
25.7923
 30
0.0
 10
12.324
 20
25.9301
 30
0.0
 10
12.2115
 20
26.123
 30
0.0
 10
12.2115
 20
26.123
 30
0.0
 10
12.2115
 20
26.123
 30
0.0
 10
12.3893
 20
26.123
 30
0.0
 10
12.3893
 20
26.123
 30
0.0
 10
12.3893
 20
26.123
 30
0.0
 10
12.562
 20
25.8925
 30
0.0
 10
12.6899
 20
25.6611
 30
0.0
 10
12.7727
 20
25.4287
 30
0.0
 10
12.7727
 20
25.4287
 30
0.0
 10
12.8432
 20
25.2283
 30
0.0
 10
12.8785
 20
25.019
 30
0.0
 10
12.8785
 20
24.8003
 30
0.0
 10
12.8785
 20
24.8003
 30
0.0
 10
12.8785
 20
24.5519
 30
0.0
 10
12.831
 20
24.3125
 30
0.0
 10
12.736
 20
24.0806
 30
0.0
 10
12.736
 20
24.0806
 30
0.0
 10
12.641
 20
23.8492
 30
0.0
 10
12.5253
 20
23.647
 30
0.0
 10
12.3893
 20
23.4743
 30
0.0
  0
SPLINE
  5
66
330
1F
100
AcDbEntity
  8
ILUSTRACE
 62
   250
100
AcDbSpline
210
0.0
220
0.0
230
1.0
 70
    24
 71
     3
 72
     8
 73
     4
 74
     0
 42
0.0000000001
 43
0.0000000001
 40
0.0
 40
0.0
 40
0.0
 40
0.0
 40
1.0
 40
1.0
 40
1.0
 40
1.0
 10
-17.5017
 20
2.2747
 30
0.0
 10
-17.5017
 20
2.2747
 30
0.0
 10
-17.5017
 20
-26.1024
 30
0.0
 10
-17.5017
 20
-26.1024
 30
0.0
  0
SPLINE
  5
67
330
1F
100
AcDbEntity
  8
ILUSTRACE
 62
   250
100
AcDbSpline
210
0.0
220
0.0
230
1.0
 70
    24
 71
     3
 72
     8
 73
     4
 74
     0
 42
0.0000000001
 43
0.0000000001
 40
0.0
 40
0.0
 40
0.0
 40
0.0
 40
1.0
 40
1.0
 40
1.0
 40
1.0
 10
29.0602
 20
2.8421
 30
0.0
 10
29.0602
 20
2.8421
 30
0.0
 10
29.0602
 20
-26.163
 30
0.0
 10
29.0602
 20
-26.163
 30
0.0
  0
SPLINE
  5
68
330
1F
100
AcDbEntity
  8
ILUSTRACE
 62
   250
100
AcDbSpline
210
0.0
220
0.0
230
1.0
 70
    11
 71
     3
 72
    20
 73
    16
 74
     0
 42
0.0000000001
 43
0.0000000001
 40
0.0
 40
0.0
 40
0.0
 40
0.0
 40
0.2
 40
0.2
 40
0.2
 40
0.2
 40
0.4
 40
0.4
 40
0.4
 40
0.4
 40
0.6
 40
0.6
 40
0.6
 40
0.6
 40
1.0
 40
1.0
 40
1.0
 40
1.0
 10
26.6344
 20
-25.1907
 30
0.0
 10
26.6344
 20
-25.1907
 30
0.0
 10
28.9818
 20
-25.522
 30
0.0
 10
28.9818
 20
-25.522
 30
0.0
 10
28.9818
 20
-25.522
 30
0.0
 10
28.9818
 20
-25.522
 30
0.0
 10
28.9818
 20
-25.5956
 30
0.0
 10
28.9818
 20
-25.5956
 30
0.0
 10
28.9818
 20
-25.5956
 30
0.0
 10
28.9818
 20
-25.5956
 30
0.0
 10
26.6344
 20
-25.9489
 30
0.0
 10
26.6344
 20
-25.9489
 30
0.0
 10
26.6344
 20
-25.9489
 30
0.0
 10
26.6344
 20
-25.9489
 30
0.0
 10
26.6344
 20
-25.1907
 30
0.0
 10
26.6344
 20
-25.1907
 30
0.0
  0
SPLINE
  5
69
330
1F
100
AcDbEntity
  8
ILUSTRACE
 62
   250
100
AcDbSpline
210
0.0
220
0.0
230
1.0
 70
    11
 71
     3
 72
    20
 73
    16
 74
     0
 42
0.0000000001
 43
0.0000000001
 40
0.0
 40
0.0
 40
0.0
 40
0.0
 40
0.2
 40
0.2
 40
0.2
 40
0.2
 40
0.4
 40
0.4
 40
0.4
 40
0.4
 40
0.6
 40
0.6
 40
0.6
 40
0.6
 40
1.0
 40
1.0
 40
1.0
 40
1.0
 10
-15.0401
 20
-25.9099
 30
0.0
 10
-15.0401
 20
-25.9099
 30
0.0
 10
-17.3876
 20
-25.5786
 30
0.0
 10
-17.3876
 20
-25.5786
 30
0.0
 10
-17.3876
 20
-25.5786
 30
0.0
 10
-17.3876
 20
-25.5786
 30
0.0
 10
-17.3876
 20
-25.505
 30
0.0
 10
-17.3876
 20
-25.505
 30
0.0
 10
-17.3876
 20
-25.505
 30
0.0
 10
-17.3876
 20
-25.505
 30
0.0
 10
-15.0401
 20
-25.1517
 30
0.0
 10
-15.0401
 20
-25.1517
 30
0.0
 10
-15.0401
 20
-25.1517
 30
0.0
 10
-15.0401
 20
-25.1517
 30
0.0
 10
-15.0401
 20
-25.9099
 30
0.0
 10
-15.0401
 20
-25.9099
 30
0.0
  0
SPLINE
  5
6A
330
1F
100
AcDbEntity
  8
ILUSTRACE
 62
   250
100
AcDbSpline
210
0.0
220
0.0
230
1.0
 70
    24
 71
     3
 72
     8
 73
     4
 74
     0
 42
0.0000000001
 43
0.0000000001
 40
0.0
 40
0.0
 40
0.0
 40
0.0
 40
1.0
 40
1.0
 40
1.0
 40
1.0
 10
28.1396
 20
-25.5802
 30
0.0
 10
28.1396
 20
-25.5802
 30
0.0
 10
-16.3866
 20
-25.5802
 30
0.0
 10
-16.3866
 20
-25.5802
 30
0.0
  0
SPLINE
  5
6B
330
1F
100
AcDbEntity
  8
ILUSTRACE
 62
   250
100
AcDbSpline
210
0.0
220
0.0
230
1.0
 70
    11
 71
     3
 72
    84
 73
    80
 74
     0
 42
0.0000000001
 43
0.0000000001
 40
0.0
 40
0.0
 40
0.0
 40
0.0
 40
0.0476190476190476
 40
0.0476190476190476
 40
0.0476190476190476
 40
0.0476190476190476
 40
0.0952380952380952
 40
0.0952380952380952
 40
0.0952380952380952
 40
0.0952380952380952
 40
0.1428571428571428
 40
0.1428571428571428
 40
0.1428571428571428
 40
0.1428571428571428
 40
0.1904761904761905
 40
0.1904761904761905
 40
0.1904761904761905
 40
0.1904761904761905
 40
0.2380952380952381
 40
0.2380952380952381
 40
0.2380952380952381
 40
0.2380952380952381
 40
0.2857142857142857
 40
0.2857142857142857
 40
0.2857142857142857
 40
0.2857142857142857
 40
0.3333333333333333
 40
0.3333333333333333
 40
0.3333333333333333
 40
0.3333333333333333
 40
0.3809523809523809
 40
0.3809523809523809
 40
0.3809523809523809
 40
0.3809523809523809
 40
0.4285714285714285
 40
0.4285714285714285
 40
0.4285714285714285
 40
0.4285714285714285
 40
0.4761904761904762
 40
0.4761904761904762
 40
0.4761904761904762
 40
0.4761904761904762
 40
0.5238095238095238
 40
0.5238095238095238
 40
0.5238095238095238
 40
0.5238095238095238
 40
0.5714285714285714
 40
0.5714285714285714
 40
0.5714285714285714
 40
0.5714285714285714
 40
0.6190476190476191
 40
0.6190476190476191
 40
0.6190476190476191
 40
0.6190476190476191
 40
0.6666666666666666
 40
0.6666666666666666
 40
0.6666666666666666
 40
0.6666666666666666
 40
0.7142857142857143
 40
0.7142857142857143
 40
0.7142857142857143
 40
0.7142857142857143
 40
0.7619047619047619
 40
0.7619047619047619
 40
0.7619047619047619
 40
0.7619047619047619
 40
0.8095238095238095
 40
0.8095238095238095
 40
0.8095238095238095
 40
0.8095238095238095
 40
0.8571428571428571
 40
0.8571428571428571
 40
0.8571428571428571
 40
0.8571428571428571
 40
0.9047619047619048
 40
0.9047619047619048
 40
0.9047619047619048
 40
0.9047619047619048
 40
1.0
 40
1.0
 40
1.0
 40
1.0
 10
4.2749
 20
-22.8535
 30
0.0
 10
4.2749
 20
-22.8535
 30
0.0
 10
4.5063
 20
-22.5944
 30
0.0
 10
4.5063
 20
-22.5944
 30
0.0
 10
4.5063
 20
-22.5944
 30
0.0
 10
4.5063
 20
-22.5944
 30
0.0
 10
4.6427
 20
-22.7101
 30
0.0
 10
4.6427
 20
-22.7101
 30
0.0
 10
4.6427
 20
-22.7101
 30
0.0
 10
4.6427
 20
-22.7101
 30
0.0
 10
4.4005
 20
-22.9829
 30
0.0
 10
4.4005
 20
-22.9829
 30
0.0
 10
4.4005
 20
-22.9829
 30
0.0
 10
4.4795
 20
-23.1005
 30
0.0
 10
4.5326
 20
-23.2035
 30
0.0
 10
4.5604
 20
-23.2914
 30
0.0
 10
4.5604
 20
-23.2914
 30
0.0
 10
4.5971
 20
-23.4072
 30
0.0
 10
4.6154
 20
-23.537
 30
0.0
 10
4.6154
 20
-23.68
 30
0.0
 10
4.6154
 20
-23.68
 30
0.0
 10
4.6154
 20
-23.8869
 30
0.0
 10
4.5736
 20
-24.0713
 30
0.0
 10
4.4898
 20
-24.2326
 30
0.0
 10
4.4898
 20
-24.2326
 30
0.0
 10
4.4061
 20
-24.3945
 30
0.0
 10
4.289
 20
-24.5167
 30
0.0
 10
4.138
 20
-24.5995
 30
0.0
 10
4.138
 20
-24.5995
 30
0.0
 10
3.9865
 20
-24.6818
 30
0.0
 10
3.8262
 20
-24.7232
 30
0.0
 10
3.6564
 20
-24.7232
 30
0.0
 10
3.6564
 20
-24.7232
 30
0.0
 10
3.5294
 20
-24.7232
 30
0.0
 10
3.4146
 20
-24.7054
 30
0.0
 10
3.3116
 20
-24.6696
 30
0.0
 10
3.3116
 20
-24.6696
 30
0.0
 10
3.2326
 20
-24.6419
 30
0.0
 10
3.1404
 20
-24.5892
 30
0.0
 10
3.0345
 20
-24.5111
 30
0.0
 10
3.0345
 20
-24.5111
 30
0.0
 10
3.0345
 20
-24.5111
 30
0.0
 10
2.8031
 20
-24.7703
 30
0.0
 10
2.8031
 20
-24.7703
 30
0.0
 10
2.8031
 20
-24.7703
 30
0.0
 10
2.8031
 20
-24.7703
 30
0.0
 10
2.6667
 20
-24.6546
 30
0.0
 10
2.6667
 20
-24.6546
 30
0.0
 10
2.6667
 20
-24.6546
 30
0.0
 10
2.6667
 20
-24.6546
 30
0.0
 10
2.9094
 20
-24.3832
 30
0.0
 10
2.9094
 20
-24.3832
 30
0.0
 10
2.9094
 20
-24.3832
 30
0.0
 10
2.8191
 20
-24.2463
 30
0.0
 10
2.7589
 20
-24.1292
 30
0.0
 10
2.7288
 20
-24.0323
 30
0.0
 10
2.7288
 20
-24.0323
 30
0.0
 10
2.6987
 20
-23.9354
 30
0.0
 10
2.6832
 20
-23.8187
 30
0.0
 10
2.6832
 20
-23.6828
 30
0.0
 10
2.6832
 20
-23.6828
 30
0.0
 10
2.6832
 20
-23.4754
 30
0.0
 10
2.7246
 20
-23.2905
 30
0.0
 10
2.8073
 20
-23.1282
 30
0.0
 10
2.8073
 20
-23.1282
 30
0.0
 10
2.8901
 20
-22.9659
 30
0.0
 10
3.0058
 20
-22.8432
 30
0.0
 10
3.1554
 20
-22.7595
 30
0.0
 10
3.1554
 20
-22.7595
 30
0.0
 10
3.3045
 20
-22.6762
 30
0.0
 10
3.4706
 20
-22.6343
 30
0.0
 10
3.6535
 20
-22.6343
 30
0.0
 10
3.6535
 20
-22.6343
 30
0.0
 10
3.7768
 20
-22.6343
 30
0.0
 10
3.8845
 20
-22.6503
 30
0.0
 10
3.9767
 20
-22.6833
 30
0.0
 10
3.9767
 20
-22.6833
 30
0.0
 10
4.0689
 20
-22.7157
 30
0.0
 10
4.1686
 20
-22.7726
 30
0.0
 10
4.2749
 20
-22.8535
 30
0.0
  0
SPLINE
  5
6C
330
1F
100
AcDbEntity
  8
ILUSTRACE
 62
   250
100
AcDbSpline
210
0.0
220
0.0
230
1.0
 70
    11
 71
     3
 72
    32
 73
    28
 74
     0
 42
0.0000000001
 43
0.0000000001
 40
0.0
 40
0.0
 40
0.0
 40
0.0
 40
0.125
 40
0.125
 40
0.125
 40
0.125
 40
0.25
 40
0.25
 40
0.25
 40
0.25
 40
0.375
 40
0.375
 40
0.375
 40
0.375
 40
0.5
 40
0.5
 40
0.5
 40
0.5
 40
0.625
 40
0.625
 40
0.625
 40
0.625
 40
0.75
 40
0.75
 40
0.75
 40
0.75
 40
1.0
 40
1.0
 40
1.0
 40
1.0
 10
4.1098
 20
-23.0393
 30
0.0
 10
4.0232
 20
-22.9716
 30
0.0
 10
3.9475
 20
-22.925
 30
0.0
 10
3.8831
 20
-22.9001
 30
0.0
 10
3.8831
 20
-22.9001
 30
0.0
 10
3.8182
 20
-22.8756
 30
0.0
 10
3.742
 20
-22.8629
 30
0.0
 10
3.6549
 20
-22.8629
 30
0.0
 10
3.6549
 20
-22.8629
 30
0.0
 10
3.4536
 20
-22.8629
 30
0.0
 10
3.2876
 20
-22.9311
 30
0.0
 10
3.1559
 20
-23.0675
 30
0.0
 10
3.1559
 20
-23.0675
 30
0.0
 10
3.0246
 20
-23.204
 30
0.0
 10
2.9588
 20
-23.4076
 30
0.0
 10
2.9588
 20
-23.679
 30
0.0
 10
2.9588
 20
-23.679
 30
0.0
 10
2.9588
 20
-23.7853
 30
0.0
 10
2.9691
 20
-23.8799
 30
0.0
 10
2.9894
 20
-23.9627
 30
0.0
 10
2.9894
 20
-23.9627
 30
0.0
 10
3.004
 20
-24.0243
 30
0.0
 10
3.0345
 20
-24.1
 30
0.0
 10
3.0816
 20
-24.1898
 30
0.0
 10
3.0816
 20
-24.1898
 30
0.0
 10
3.0816
 20
-24.1898
 30
0.0
 10
4.1098
 20
-23.0393
 30
0.0
 10
4.1098
 20
-23.0393
 30
0.0
  0
SPLINE
  5
6D
330
1F
100
AcDbEntity
  8
ILUSTRACE
 62
   250
100
AcDbSpline
210
0.0
220
0.0
230
1.0
 70
    11
 71
     3
 72
    28
 73
    24
 74
     0
 42
0.0000000001
 43
0.0000000001
 40
0.0
 40
0.0
 40
0.0
 40
0.0
 40
0.1428571428571428
 40
0.1428571428571428
 40
0.1428571428571428
 40
0.1428571428571428
 40
0.2857142857142857
 40
0.2857142857142857
 40
0.2857142857142857
 40
0.2857142857142857
 40
0.4285714285714285
 40
0.4285714285714285
 40
0.4285714285714285
 40
0.4285714285714285
 40
0.5714285714285714
 40
0.5714285714285714
 40
0.5714285714285714
 40
0.5714285714285714
 40
0.7142857142857143
 40
0.7142857142857143
 40
0.7142857142857143
 40
0.7142857142857143
 40
1.0
 40
1.0
 40
1.0
 40
1.0
 10
4.2227
 20
-23.1814
 30
0.0
 10
4.2227
 20
-23.1814
 30
0.0
 10
3.1987
 20
-24.3277
 30
0.0
 10
3.1987
 20
-24.3277
 30
0.0
 10
3.1987
 20
-24.3277
 30
0.0
 10
3.2692
 20
-24.3855
 30
0.0
 10
3.3346
 20
-24.426
 30
0.0
 10
3.3944
 20
-24.449
 30
0.0
 10
3.3944
 20
-24.449
 30
0.0
 10
3.4724
 20
-24.4796
 30
0.0
 10
3.5571
 20
-24.4946
 30
0.0
 10
3.6479
 20
-24.4946
 30
0.0
 10
3.6479
 20
-24.4946
 30
0.0
 10
3.8483
 20
-24.4946
 30
0.0
 10
4.0134
 20
-24.4241
 30
0.0
 10
4.1441
 20
-24.2825
 30
0.0
 10
4.1441
 20
-24.2825
 30
0.0
 10
4.2744
 20
-24.1409
 30
0.0
 10
4.3398
 20
-23.9424
 30
0.0
 10
4.3398
 20
-23.687
 30
0.0
 10
4.3398
 20
-23.687
 30
0.0
 10
4.3398
 20
-23.4961
 30
0.0
 10
4.3008
 20
-23.3272
 30
0.0
 10
4.2227
 20
-23.1814
 30
0.0
  0
SPLINE
  5
6E
330
1F
100
AcDbEntity
  8
ILUSTRACE
 62
   250
100
AcDbSpline
210
0.0
220
0.0
230
1.0
 70
    11
 71
     3
 72
    92
 73
    88
 74
     0
 42
0.0000000001
 43
0.0000000001
 40
0.0
 40
0.0
 40
0.0
 40
0.0
 40
0.0434782608695652
 40
0.0434782608695652
 40
0.0434782608695652
 40
0.0434782608695652
 40
0.0869565217391304
 40
0.0869565217391304
 40
0.0869565217391304
 40
0.0869565217391304
 40
0.1304347826086956
 40
0.1304347826086956
 40
0.1304347826086956
 40
0.1304347826086956
 40
0.1739130434782609
 40
0.1739130434782609
 40
0.1739130434782609
 40
0.1739130434782609
 40
0.2173913043478261
 40
0.2173913043478261
 40
0.2173913043478261
 40
0.2173913043478261
 40
0.2608695652173913
 40
0.2608695652173913
 40
0.2608695652173913
 40
0.2608695652173913
 40
0.3043478260869565
 40
0.3043478260869565
 40
0.3043478260869565
 40
0.3043478260869565
 40
0.3478260869565217
 40
0.3478260869565217
 40
0.3478260869565217
 40
0.3478260869565217
 40
0.391304347826087
 40
0.391304347826087
 40
0.391304347826087
 40
0.391304347826087
 40
0.4347826086956522
 40
0.4347826086956522
 40
0.4347826086956522
 40
0.4347826086956522
 40
0.4782608695652174
 40
0.4782608695652174
 40
0.4782608695652174
 40
0.4782608695652174
 40
0.5217391304347826
 40
0.5217391304347826
 40
0.5217391304347826
 40
0.5217391304347826
 40
0.5652173913043478
 40
0.5652173913043478
 40
0.5652173913043478
 40
0.5652173913043478
 40
0.6086956521739131
 40
0.6086956521739131
 40
0.6086956521739131
 40
0.6086956521739131
 40
0.6521739130434783
 40
0.6521739130434783
 40
0.6521739130434783
 40
0.6521739130434783
 40
0.6956521739130435
 40
0.6956521739130435
 40
0.6956521739130435
 40
0.6956521739130435
 40
0.7391304347826086
 40
0.7391304347826086
 40
0.7391304347826086
 40
0.7391304347826086
 40
0.782608695652174
 40
0.782608695652174
 40
0.782608695652174
 40
0.782608695652174
 40
0.8260869565217391
 40
0.8260869565217391
 40
0.8260869565217391
 40
0.8260869565217391
 40
0.8695652173913043
 40
0.8695652173913043
 40
0.8695652173913043
 40
0.8695652173913043
 40
0.9130434782608695
 40
0.9130434782608695
 40
0.9130434782608695
 40
0.9130434782608695
 40
1.0
 40
1.0
 40
1.0
 40
1.0
 10
4.9019
 20
-24.2218
 30
0.0
 10
4.9019
 20
-24.2218
 30
0.0
 10
5.1404
 20
-24.1997
 30
0.0
 10
5.1404
 20
-24.1997
 30
0.0
 10
5.1404
 20
-24.1997
 30
0.0
 10
5.1606
 20
-24.3117
 30
0.0
 10
5.1992
 20
-24.393
 30
0.0
 10
5.2561
 20
-24.4438
 30
0.0
 10
5.2561
 20
-24.4438
 30
0.0
 10
5.313
 20
-24.4942
 30
0.0
 10
5.3859
 20
-24.5196
 30
0.0
 10
5.4753
 20
-24.5196
 30
0.0
 10
5.4753
 20
-24.5196
 30
0.0
 10
5.5515
 20
-24.5196
 30
0.0
 10
5.6182
 20
-24.5022
 30
0.0
 10
5.6756
 20
-24.4669
 30
0.0
 10
5.6756
 20
-24.4669
 30
0.0
 10
5.733
 20
-24.4321
 30
0.0
 10
5.7801
 20
-24.3855
 30
0.0
 10
5.8167
 20
-24.3272
 30
0.0
 10
5.8167
 20
-24.3272
 30
0.0
 10
5.8539
 20
-24.2689
 30
0.0
 10
5.8845
 20
-24.1898
 30
0.0
 10
5.9094
 20
-24.0911
 30
0.0
 10
5.9094
 20
-24.0911
 30
0.0
 10
5.9339
 20
-23.9918
 30
0.0
 10
5.9466
 20
-23.8907
 30
0.0
 10
5.9466
 20
-23.7877
 30
0.0
 10
5.9466
 20
-23.7877
 30
0.0
 10
5.9466
 20
-23.7769
 30
0.0
 10
5.9461
 20
-23.7599
 30
0.0
 10
5.9452
 20
-23.7383
 30
0.0
 10
5.9452
 20
-23.7383
 30
0.0
 10
5.8953
 20
-23.8168
 30
0.0
 10
5.8276
 20
-23.8813
 30
0.0
 10
5.742
 20
-23.9302
 30
0.0
 10
5.742
 20
-23.9302
 30
0.0
 10
5.6559
 20
-23.9796
 30
0.0
 10
5.5627
 20
-24.004
 30
0.0
 10
5.463
 20
-24.004
 30
0.0
 10
5.463
 20
-24.004
 30
0.0
 10
5.2956
 20
-24.004
 30
0.0
 10
5.154
 20
-23.9434
 30
0.0
 10
5.0383
 20
-23.822
 30
0.0
 10
5.0383
 20
-23.822
 30
0.0
 10
4.9226
 20
-23.7007
 30
0.0
 10
4.8647
 20
-23.5412
 30
0.0
 10
4.8647
 20
-23.3427
 30
0.0
 10
4.8647
 20
-23.3427
 30
0.0
 10
4.8647
 20
-23.1376
 30
0.0
 10
4.9249
 20
-22.973
 30
0.0
 10
5.0458
 20
-22.8479
 30
0.0
 10
5.0458
 20
-22.8479
 30
0.0
 10
5.1667
 20
-22.7228
 30
0.0
 10
5.3182
 20
-22.6602
 30
0.0
 10
5.5002
 20
-22.6602
 30
0.0
 10
5.5002
 20
-22.6602
 30
0.0
 10
5.6314
 20
-22.6602
 30
0.0
 10
5.7514
 20
-22.696
 30
0.0
 10
5.8605
 20
-22.7665
 30
0.0
 10
5.8605
 20
-22.7665
 30
0.0
 10
5.9691
 20
-22.8371
 30
0.0
 10
6.0519
 20
-22.9382
 30
0.0
 10
6.1084
 20
-23.069
 30
0.0
 10
6.1084
 20
-23.069
 30
0.0
 10
6.1648
 20
-23.1997
 30
0.0
 10
6.193
 20
-23.3893
 30
0.0
 10
6.193
 20
-23.6376
 30
0.0
 10
6.193
 20
-23.6376
 30
0.0
 10
6.193
 20
-23.8954
 30
0.0
 10
6.1653
 20
-24.1009
 30
0.0
 10
6.1093
 20
-24.2543
 30
0.0
 10
6.1093
 20
-24.2543
 30
0.0
 10
6.0529
 20
-24.4072
 30
0.0
 10
5.9696
 20
-24.5233
 30
0.0
 10
5.8591
 20
-24.6033
 30
0.0
 10
5.8591
 20
-24.6033
 30
0.0
 10
5.7481
 20
-24.6833
 30
0.0
 10
5.6187
 20
-24.7232
 30
0.0
 10
5.4696
 20
-24.7232
 30
0.0
 10
5.4696
 20
-24.7232
 30
0.0
 10
5.3116
 20
-24.7232
 30
0.0
 10
5.1827
 20
-24.6795
 30
0.0
 10
5.0825
 20
-24.5915
 30
0.0
 10
5.0825
 20
-24.5915
 30
0.0
 10
4.9823
 20
-24.504
 30
0.0
 10
4.9221
 20
-24.3808
 30
0.0
 10
4.9019
 20
-24.2218
 30
0.0
  0
SPLINE
  5
6F
330
1F
100
AcDbEntity
  8
ILUSTRACE
 62
   250
100
AcDbSpline
210
0.0
220
0.0
230
1.0
 70
    11
 71
     3
 72
    36
 73
    32
 74
     0
 42
0.0000000001
 43
0.0000000001
 40
0.0
 40
0.0
 40
0.0
 40
0.0
 40
0.1111111111111111
 40
0.1111111111111111
 40
0.1111111111111111
 40
0.1111111111111111
 40
0.2222222222222222
 40
0.2222222222222222
 40
0.2222222222222222
 40
0.2222222222222222
 40
0.3333333333333333
 40
0.3333333333333333
 40
0.3333333333333333
 40
0.3333333333333333
 40
0.4444444444444444
 40
0.4444444444444444
 40
0.4444444444444444
 40
0.4444444444444444
 40
0.5555555555555556
 40
0.5555555555555556
 40
0.5555555555555556
 40
0.5555555555555556
 40
0.6666666666666666
 40
0.6666666666666666
 40
0.6666666666666666
 40
0.6666666666666666
 40
0.7777777777777778
 40
0.7777777777777778
 40
0.7777777777777778
 40
0.7777777777777778
 40
1.0
 40
1.0
 40
1.0
 40
1.0
 10
5.9174
 20
-23.33
 30
0.0
 10
5.9174
 20
-23.188
 30
0.0
 10
5.8798
 20
-23.0746
 30
0.0
 10
5.804
 20
-22.9913
 30
0.0
 10
5.804
 20
-22.9913
 30
0.0
 10
5.7278
 20
-22.9076
 30
0.0
 10
5.6371
 20
-22.8658
 30
0.0
 10
5.5303
 20
-22.8658
 30
0.0
 10
5.5303
 20
-22.8658
 30
0.0
 10
5.4202
 20
-22.8658
 30
0.0
 10
5.3243
 20
-22.9109
 30
0.0
 10
5.2424
 20
-23.0008
 30
0.0
 10
5.2424
 20
-23.0008
 30
0.0
 10
5.1606
 20
-23.0911
 30
0.0
 10
5.1197
 20
-23.2077
 30
0.0
 10
5.1197
 20
-23.3507
 30
0.0
 10
5.1197
 20
-23.3507
 30
0.0
 10
5.1197
 20
-23.4796
 30
0.0
 10
5.1587
 20
-23.584
 30
0.0
 10
5.2363
 20
-23.6644
 30
0.0
 10
5.2363
 20
-23.6644
 30
0.0
 10
5.3139
 20
-23.7449
 30
0.0
 10
5.4094
 20
-23.7849
 30
0.0
 10
5.5232
 20
-23.7849
 30
0.0
 10
5.5232
 20
-23.7849
 30
0.0
 10
5.6385
 20
-23.7849
 30
0.0
 10
5.7325
 20
-23.7449
 30
0.0
 10
5.8064
 20
-23.6644
 30
0.0
 10
5.8064
 20
-23.6644
 30
0.0
 10
5.8807
 20
-23.584
 30
0.0
 10
5.9174
 20
-23.4725
 30
0.0
 10
5.9174
 20
-23.33
 30
0.0
  0
SPLINE
  5
70
330
1F
100
AcDbEntity
  8
ILUSTRACE
 62
   250
100
AcDbSpline
210
0.0
220
0.0
230
1.0
 70
    11
 71
     3
 72
   124
 73
   120
 74
     0
 42
0.0000000001
 43
0.0000000001
 40
0.0
 40
0.0
 40
0.0
 40
0.0
 40
0.032258064516129
 40
0.032258064516129
 40
0.032258064516129
 40
0.032258064516129
 40
0.0645161290322581
 40
0.0645161290322581
 40
0.0645161290322581
 40
0.0645161290322581
 40
0.0967741935483871
 40
0.0967741935483871
 40
0.0967741935483871
 40
0.0967741935483871
 40
0.1290322580645161
 40
0.1290322580645161
 40
0.1290322580645161
 40
0.1290322580645161
 40
0.1612903225806452
 40
0.1612903225806452
 40
0.1612903225806452
 40
0.1612903225806452
 40
0.1935483870967742
 40
0.1935483870967742
 40
0.1935483870967742
 40
0.1935483870967742
 40
0.2258064516129032
 40
0.2258064516129032
 40
0.2258064516129032
 40
0.2258064516129032
 40
0.2580645161290323
 40
0.2580645161290323
 40
0.2580645161290323
 40
0.2580645161290323
 40
0.2903225806451613
 40
0.2903225806451613
 40
0.2903225806451613
 40
0.2903225806451613
 40
0.3225806451612903
 40
0.3225806451612903
 40
0.3225806451612903
 40
0.3225806451612903
 40
0.3548387096774194
 40
0.3548387096774194
 40
0.3548387096774194
 40
0.3548387096774194
 40
0.3870967741935484
 40
0.3870967741935484
 40
0.3870967741935484
 40
0.3870967741935484
 40
0.4193548387096774
 40
0.4193548387096774
 40
0.4193548387096774
 40
0.4193548387096774
 40
0.4516129032258064
 40
0.4516129032258064
 40
0.4516129032258064
 40
0.4516129032258064
 40
0.4838709677419355
 40
0.4838709677419355
 40
0.4838709677419355
 40
0.4838709677419355
 40
0.5161290322580645
 40
0.5161290322580645
 40
0.5161290322580645
 40
0.5161290322580645
 40
0.5483870967741935
 40
0.5483870967741935
 40
0.5483870967741935
 40
0.5483870967741935
 40
0.5806451612903226
 40
0.5806451612903226
 40
0.5806451612903226
 40
0.5806451612903226
 40
0.6129032258064516
 40
0.6129032258064516
 40
0.6129032258064516
 40
0.6129032258064516
 40
0.6451612903225806
 40
0.6451612903225806
 40
0.6451612903225806
 40
0.6451612903225806
 40
0.6774193548387096
 40
0.6774193548387096
 40
0.6774193548387096
 40
0.6774193548387096
 40
0.7096774193548387
 40
0.7096774193548387
 40
0.7096774193548387
 40
0.7096774193548387
 40
0.7419354838709677
 40
0.7419354838709677
 40
0.7419354838709677
 40
0.7419354838709677
 40
0.7741935483870968
 40
0.7741935483870968
 40
0.7741935483870968
 40
0.7741935483870968
 40
0.8064516129032258
 40
0.8064516129032258
 40
0.8064516129032258
 40
0.8064516129032258
 40
0.8387096774193549
 40
0.8387096774193549
 40
0.8387096774193549
 40
0.8387096774193549
 40
0.8709677419354839
 40
0.8709677419354839
 40
0.8709677419354839
 40
0.8709677419354839
 40
0.9032258064516129
 40
0.9032258064516129
 40
0.9032258064516129
 40
0.9032258064516129
 40
0.9354838709677419
 40
0.9354838709677419
 40
0.9354838709677419
 40
0.9354838709677419
 40
1.0
 40
1.0
 40
1.0
 40
1.0
 10
6.4357
 20
-24.1555
 30
0.0
 10
6.4357
 20
-24.1555
 30
0.0
 10
6.6836
 20
-24.1226
 30
0.0
 10
6.6836
 20
-24.1226
 30
0.0
 10
6.6836
 20
-24.1226
 30
0.0
 10
6.7123
 20
-24.2632
 30
0.0
 10
6.7608
 20
-24.3643
 30
0.0
 10
6.829
 20
-24.4264
 30
0.0
 10
6.829
 20
-24.4264
 30
0.0
 10
6.8976
 20
-24.4885
 30
0.0
 10
6.9809
 20
-24.5196
 30
0.0
 10
7.0792
 20
-24.5196
 30
0.0
 10
7.0792
 20
-24.5196
 30
0.0
 10
7.1958
 20
-24.5196
 30
0.0
 10
7.2946
 20
-24.4791
 30
0.0
 10
7.3751
 20
-24.3982
 30
0.0
 10
7.3751
 20
-24.3982
 30
0.0
 10
7.455
 20
-24.3173
 30
0.0
 10
7.4955
 20
-24.2171
 30
0.0
 10
7.4955
 20
-24.0976
 30
0.0
 10
7.4955
 20
-24.0976
 30
0.0
 10
7.4955
 20
-23.9838
 30
0.0
 10
7.4583
 20
-23.8897
 30
0.0
 10
7.384
 20
-23.8159
 30
0.0
 10
7.384
 20
-23.8159
 30
0.0
 10
7.3092
 20
-23.7421
 30
0.0
 10
7.2147
 20
-23.7049
 30
0.0
 10
7.0999
 20
-23.7049
 30
0.0
 10
7.0999
 20
-23.7049
 30
0.0
 10
7.0529
 20
-23.7049
 30
0.0
 10
6.9945
 20
-23.7143
 30
0.0
 10
6.9249
 20
-23.7326
 30
0.0
 10
6.9249
 20
-23.7326
 30
0.0
 10
6.9249
 20
-23.7326
 30
0.0
 10
6.9527
 20
-23.5149
 30
0.0
 10
6.9527
 20
-23.5149
 30
0.0
 10
6.9527
 20
-23.5149
 30
0.0
 10
6.9691
 20
-23.5167
 30
0.0
 10
6.9823
 20
-23.5177
 30
0.0
 10
6.9926
 20
-23.5177
 30
0.0
 10
6.9926
 20
-23.5177
 30
0.0
 10
7.098
 20
-23.5177
 30
0.0
 10
7.193
 20
-23.4899
 30
0.0
 10
7.2777
 20
-23.4349
 30
0.0
 10
7.2777
 20
-23.4349
 30
0.0
 10
7.3624
 20
-23.3799
 30
0.0
 10
7.4047
 20
-23.2947
 30
0.0
 10
7.4047
 20
-23.18
 30
0.0
 10
7.4047
 20
-23.18
 30
0.0
 10
7.4047
 20
-23.0892
 30
0.0
 10
7.3736
 20
-23.0135
 30
0.0
 10
7.312
 20
-22.9542
 30
0.0
 10
7.312
 20
-22.9542
 30
0.0
 10
7.2504
 20
-22.8945
 30
0.0
 10
7.1709
 20
-22.8643
 30
0.0
 10
7.0735
 20
-22.8643
 30
0.0
 10
7.0735
 20
-22.8643
 30
0.0
 10
6.9771
 20
-22.8643
 30
0.0
 10
6.8967
 20
-22.8949
 30
0.0
 10
6.8327
 20
-22.9551
 30
0.0
 10
6.8327
 20
-22.9551
 30
0.0
 10
6.7683
 20
-23.0158
 30
0.0
 10
6.7269
 20
-23.1071
 30
0.0
 10
6.7085
 20
-23.2284
 30
0.0
 10
6.7085
 20
-23.2284
 30
0.0
 10
6.7085
 20
-23.2284
 30
0.0
 10
6.4607
 20
-23.1842
 30
0.0
 10
6.4607
 20
-23.1842
 30
0.0
 10
6.4607
 20
-23.1842
 30
0.0
 10
6.4908
 20
-23.0177
 30
0.0
 10
6.5599
 20
-22.8888
 30
0.0
 10
6.6672
 20
-22.7976
 30
0.0
 10
6.6672
 20
-22.7976
 30
0.0
 10
6.7749
 20
-22.7063
 30
0.0
 10
6.9085
 20
-22.6602
 30
0.0
 10
7.0684
 20
-22.6602
 30
0.0
 10
7.0684
 20
-22.6602
 30
0.0
 10
7.1784
 20
-22.6602
 30
0.0
 10
7.28
 20
-22.6842
 30
0.0
 10
7.3727
 20
-22.7312
 30
0.0
 10
7.3727
 20
-22.7312
 30
0.0
 10
7.4654
 20
-22.7787
 30
0.0
 10
7.5364
 20
-22.8432
 30
0.0
 10
7.5858
 20
-22.925
 30
0.0
 10
7.5858
 20
-22.925
 30
0.0
 10
7.6347
 20
-23.0069
 30
0.0
 10
7.6596
 20
-23.0934
 30
0.0
 10
7.6596
 20
-23.1856
 30
0.0
 10
7.6596
 20
-23.1856
 30
0.0
 10
7.6596
 20
-23.2726
 30
0.0
 10
7.6361
 20
-23.3521
 30
0.0
 10
7.5891
 20
-23.4241
 30
0.0
 10
7.5891
 20
-23.4241
 30
0.0
 10
7.542
 20
-23.4956
 30
0.0
 10
7.4729
 20
-23.5525
 30
0.0
 10
7.3812
 20
-23.5948
 30
0.0
 10
7.3812
 20
-23.5948
 30
0.0
 10
7.5006
 20
-23.6221
 30
0.0
 10
7.5933
 20
-23.6795
 30
0.0
 10
7.6596
 20
-23.7665
 30
0.0
 10
7.6596
 20
-23.7665
 30
0.0
 10
7.7255
 20
-23.8531
 30
0.0
 10
7.7584
 20
-23.9617
 30
0.0
 10
7.7584
 20
-24.092
 30
0.0
 10
7.7584
 20
-24.092
 30
0.0
 10
7.7584
 20
-24.2684
 30
0.0
 10
7.6944
 20
-24.418
 30
0.0
 10
7.5656
 20
-24.5407
 30
0.0
 10
7.5656
 20
-24.5407
 30
0.0
 10
7.4371
 20
-24.6635
 30
0.0
 10
7.2744
 20
-24.7246
 30
0.0
 10
7.0778
 20
-24.7246
 30
0.0
 10
7.0778
 20
-24.7246
 30
0.0
 10
6.9005
 20
-24.7246
 30
0.0
 10
6.7532
 20
-24.672
 30
0.0
 10
6.6361
 20
-24.5661
 30
0.0
 10
6.6361
 20
-24.5661
 30
0.0
 10
6.519
 20
-24.4608
 30
0.0
 10
6.4522
 20
-24.3239
 30
0.0
 10
6.4357
 20
-24.1555
 30
0.0
  0
SPLINE
  5
71
330
1F
100
AcDbEntity
  8
ILUSTRACE
 62
   250
100
AcDbSpline
210
0.0
220
0.0
230
1.0
 70
    24
 71
     3
 72
     8
 73
     4
 74
     0
 42
0.0000000001
 43
0.0000000001
 40
0.0
 40
0.0
 40
0.0
 40
0.0
 40
1.0
 40
1.0
 40
1.0
 40
1.0
 10
29.0018
 20
11.3138
 30
0.0
 10
29.0018
 20
11.3138
 30
0.0
 10
29.7851
 20
11.3138
 30
0.0
 10
29.7851
 20
11.3138
 30
0.0
  0
SPLINE
  5
72
330
1F
100
AcDbEntity
  8
ILUSTRACE
 62
   250
100
AcDbSpline
210
0.0
220
0.0
230
1.0
 70
    24
 71
     3
 72
     8
 73
     4
 74
     0
 42
0.0000000001
 43
0.0000000001
 40
0.0
 40
0.0
 40
0.0
 40
0.0
 40
1.0
 40
1.0
 40
1.0
 40
1.0
 10
23.1951
 20
11.1503
 30
0.0
 10
23.1951
 20
11.1503
 30
0.0
 10
23.0954
 20
11.169
 30
0.0
 10
23.0954
 20
11.169
 30
0.0
  0
SPLINE
  5
73
330
1F
100
AcDbEntity
  8
ILUSTRACE
 62
   250
100
AcDbSpline
210
0.0
220
0.0
230
1.0
 70
    24
 71
     3
 72
     8
 73
     4
 74
     0
 42
0.0000000001
 43
0.0000000001
 40
0.0
 40
0.0
 40
0.0
 40
0.0
 40
1.0
 40
1.0
 40
1.0
 40
1.0
 10
5.3038
 20
8.4315
 30
0.0
 10
5.3038
 20
8.4315
 30
0.0
 10
5.3806
 20
12.8237
 30
0.0
 10
5.3806
 20
12.8237
 30
0.0
  0
SPLINE
  5
74
330
1F
100
AcDbEntity
  8
ILUSTRACE
 62
   250
100
AcDbSpline
210
0.0
220
0.0
230
1.0
 70
    24
 71
     3
 72
     8
 73
     4
 74
     0
 42
0.0000000001
 43
0.0000000001
 40
0.0
 40
0.0
 40
0.0
 40
0.0
 40
1.0
 40
1.0
 40
1.0
 40
1.0
 10
5.7768
 20
12.8237
 30
0.0
 10
5.7768
 20
12.8237
 30
0.0
 10
5.8536
 20
8.4315
 30
0.0
 10
5.8536
 20
8.4315
 30
0.0
  0
SPLINE
  5
75
330
1F
100
AcDbEntity
  8
ILUSTRACE
 62
   250
100
AcDbSpline
210
0.0
220
0.0
230
1.0
 70
    24
 71
     3
 72
     8
 73
     4
 74
     0
 42
0.0000000001
 43
0.0000000001
 40
0.0
 40
0.0
 40
0.0
 40
0.0
 40
1.0
 40
1.0
 40
1.0
 40
1.0
 10
21.8203
 20
8.3321
 30
0.0
 10
21.8203
 20
8.3321
 30
0.0
 10
-18.3394
 20
8.3321
 30
0.0
 10
-18.3394
 20
8.3321
 30
0.0
  0
SPLINE
  5
76
330
1F
100
AcDbEntity
  8
ILUSTRACE
 62
   250
100
AcDbSpline
210
0.0
220
0.0
230
1.0
 70
    24
 71
     3
 72
     8
 73
     4
 74
     0
 42
0.0000000001
 43
0.0000000001
 40
0.0
 40
0.0
 40
0.0
 40
0.0
 40
1.0
 40
1.0
 40
1.0
 40
1.0
 10
-18.3401
 20
8.3406
 30
0.0
 10
-18.3401
 20
8.3406
 30
0.0
 10
-18.3394
 20
8.3321
 30
0.0
 10
-18.3394
 20
8.3321
 30
0.0
  0
SPLINE
  5
77
330
1F
100
AcDbEntity
  8
ILUSTRACE
 62
   250
100
AcDbSpline
210
0.0
220
0.0
230
1.0
 70
    24
 71
     3
 72
     8
 73
     4
 74
     0
 42
0.0000000001
 43
0.0000000001
 40
0.0
 40
0.0
 40
0.0
 40
0.0
 40
1.0
 40
1.0
 40
1.0
 40
1.0
 10
29.7805
 20
7.1892
 30
0.0
 10
29.7805
 20
7.1892
 30
0.0
 10
8.6442
 20
7.1892
 30
0.0
 10
8.6442
 20
7.1892
 30
0.0
  0
SPLINE
  5
78
330
1F
100
AcDbEntity
  8
ILUSTRACE
 62
   250
100
AcDbSpline
210
0.0
220
0.0
230
1.0
 70
    24
 71
     3
 72
     8
 73
     4
 74
     0
 42
0.0000000001
 43
0.0000000001
 40
0.0
 40
0.0
 40
0.0
 40
0.0
 40
1.0
 40
1.0
 40
1.0
 40
1.0
 10
-18.6277
 20
7.1892
 30
0.0
 10
-18.6277
 20
7.1892
 30
0.0
 10
8.0342
 20
7.1892
 30
0.0
 10
8.0342
 20
7.1892
 30
0.0
  0
SPLINE
  5
79
330
1F
100
AcDbEntity
  8
ILUSTRACE
 62
   250
100
AcDbSpline
210
0.0
220
0.0
230
1.0
 70
    24
 71
     3
 72
     8
 73
     4
 74
     0
 42
0.0000000001
 43
0.0000000001
 40
0.0
 40
0.0
 40
0.0
 40
0.0
 40
1.0
 40
1.0
 40
1.0
 40
1.0
 10
-18.6277
 20
8.4315
 30
0.0
 10
-18.6277
 20
8.4315
 30
0.0
 10
-18.6277
 20
7.1892
 30
0.0
 10
-18.6277
 20
7.1892
 30
0.0
  0
SPLINE
  5
7A
330
1F
100
AcDbEntity
  8
ILUSTRACE
 62
   250
100
AcDbSpline
210
0.0
220
0.0
230
1.0
 70
    24
 71
     3
 72
     8
 73
     4
 74
     0
 42
0.0000000001
 43
0.0000000001
 40
0.0
 40
0.0
 40
0.0
 40
0.0
 40
1.0
 40
1.0
 40
1.0
 40
1.0
 10
-18.6277
 20
11.4132
 30
0.0
 10
-18.6277
 20
11.4132
 30
0.0
 10
-18.6277
 20
7.1892
 30
0.0
 10
-18.6277
 20
7.1892
 30
0.0
  0
SPLINE
  5
7B
330
1F
100
AcDbEntity
  8
ILUSTRACE
 62
   250
100
AcDbSpline
210
0.0
220
0.0
230
1.0
 70
    24
 71
     3
 72
     8
 73
     4
 74
     0
 42
0.0000000001
 43
0.0000000001
 40
0.0
 40
0.0
 40
0.0
 40
0.0
 40
1.0
 40
1.0
 40
1.0
 40
1.0
 10
-18.2517
 20
8.4315
 30
0.0
 10
-18.2517
 20
8.4315
 30
0.0
 10
22.4437
 20
8.4315
 30
0.0
 10
22.4437
 20
8.4315
 30
0.0
  0
SPLINE
  5
7C
330
1F
100
AcDbEntity
  8
ILUSTRACE
 62
   250
100
AcDbSpline
210
0.0
220
0.0
230
1.0
 70
    24
 71
     3
 72
     8
 73
     4
 74
     0
 42
0.0000000001
 43
0.0000000001
 40
0.0
 40
0.0
 40
0.0
 40
0.0
 40
1.0
 40
1.0
 40
1.0
 40
1.0
 10
22.4437
 20
8.4315
 30
0.0
 10
22.4437
 20
8.4315
 30
0.0
 10
22.2353
 20
8.4315
 30
0.0
 10
22.2353
 20
8.4315
 30
0.0
  0
SPLINE
  5
7D
330
1F
100
AcDbEntity
  8
ILUSTRACE
 62
   250
100
AcDbSpline
210
0.0
220
0.0
230
1.0
 70
    24
 71
     3
 72
     8
 73
     4
 74
     0
 42
0.0000000001
 43
0.0000000001
 40
0.0
 40
0.0
 40
0.0
 40
0.0
 40
1.0
 40
1.0
 40
1.0
 40
1.0
 10
16.2054
 20
8.4315
 30
0.0
 10
16.2054
 20
8.4315
 30
0.0
 10
17.3509
 20
8.4315
 30
0.0
 10
17.3509
 20
8.4315
 30
0.0
  0
SPLINE
  5
7E
330
1F
100
AcDbEntity
  8
ILUSTRACE
 62
   250
100
AcDbSpline
210
0.0
220
0.0
230
1.0
 70
    24
 71
     3
 72
     8
 73
     4
 74
     0
 42
0.0000000001
 43
0.0000000001
 40
0.0
 40
0.0
 40
0.0
 40
0.0
 40
1.0
 40
1.0
 40
1.0
 40
1.0
 10
9.745
 20
8.4315
 30
0.0
 10
9.745
 20
8.4315
 30
0.0
 10
9.8395
 20
8.4315
 30
0.0
 10
9.8395
 20
8.4315
 30
0.0
  0
SPLINE
  5
7F
330
1F
100
AcDbEntity
  8
ILUSTRACE
 62
   250
100
AcDbSpline
210
0.0
220
0.0
230
1.0
 70
    24
 71
     3
 72
     8
 73
     4
 74
     0
 42
0.0000000001
 43
0.0000000001
 40
0.0
 40
0.0
 40
0.0
 40
0.0
 40
1.0
 40
1.0
 40
1.0
 40
1.0
 10
7.7742
 20
8.4315
 30
0.0
 10
7.7742
 20
8.4315
 30
0.0
 10
8.0216
 20
8.4315
 30
0.0
 10
8.0216
 20
8.4315
 30
0.0
  0
SPLINE
  5
80
330
1F
100
AcDbEntity
  8
ILUSTRACE
 62
   250
100
AcDbSpline
210
0.0
220
0.0
230
1.0
 70
    24
 71
     3
 72
     8
 73
     4
 74
     0
 42
0.0000000001
 43
0.0000000001
 40
0.0
 40
0.0
 40
0.0
 40
0.0
 40
1.0
 40
1.0
 40
1.0
 40
1.0
 10
7.3088
 20
8.4315
 30
0.0
 10
7.3088
 20
8.4315
 30
0.0
 10
7.3032
 20
8.4315
 30
0.0
 10
7.3032
 20
8.4315
 30
0.0
  0
SPLINE
  5
81
330
1F
100
AcDbEntity
  8
ILUSTRACE
 62
   250
100
AcDbSpline
210
0.0
220
0.0
230
1.0
 70
    24
 71
     3
 72
     8
 73
     4
 74
     0
 42
0.0000000001
 43
0.0000000001
 40
0.0
 40
0.0
 40
0.0
 40
0.0
 40
1.0
 40
1.0
 40
1.0
 40
1.0
 10
5.9385
 20
8.4315
 30
0.0
 10
5.9385
 20
8.4315
 30
0.0
 10
5.9482
 20
8.4315
 30
0.0
 10
5.9482
 20
8.4315
 30
0.0
  0
SPLINE
  5
82
330
1F
100
AcDbEntity
  8
ILUSTRACE
 62
   250
100
AcDbSpline
210
0.0
220
0.0
230
1.0
 70
    24
 71
     3
 72
     8
 73
     4
 74
     0
 42
0.0000000001
 43
0.0000000001
 40
0.0
 40
0.0
 40
0.0
 40
0.0
 40
1.0
 40
1.0
 40
1.0
 40
1.0
 10
5.9162
 20
8.4315
 30
0.0
 10
5.9162
 20
8.4315
 30
0.0
 10
5.9229
 20
8.4315
 30
0.0
 10
5.9229
 20
8.4315
 30
0.0
  0
SPLINE
  5
83
330
1F
100
AcDbEntity
  8
ILUSTRACE
 62
   250
100
AcDbSpline
210
0.0
220
0.0
230
1.0
 70
    24
 71
     3
 72
     8
 73
     4
 74
     0
 42
0.0000000001
 43
0.0000000001
 40
0.0
 40
0.0
 40
0.0
 40
0.0
 40
1.0
 40
1.0
 40
1.0
 40
1.0
 10
5.9515
 20
8.4315
 30
0.0
 10
5.9515
 20
8.4315
 30
0.0
 10
5.8768
 20
12.7039
 30
0.0
 10
5.8768
 20
12.7039
 30
0.0
  0
SPLINE
  5
84
330
1F
100
AcDbEntity
  8
ILUSTRACE
 62
   250
100
AcDbSpline
210
0.0
220
0.0
230
1.0
 70
    24
 71
     3
 72
     8
 73
     4
 74
     0
 42
0.0000000001
 43
0.0000000001
 40
0.0
 40
0.0
 40
0.0
 40
0.0
 40
1.0
 40
1.0
 40
1.0
 40
1.0
 10
5.2807
 20
12.7039
 30
0.0
 10
5.2807
 20
12.7039
 30
0.0
 10
5.2058
 20
8.4315
 30
0.0
 10
5.2058
 20
8.4315
 30
0.0
  0
SPLINE
  5
85
330
1F
100
AcDbEntity
  8
ILUSTRACE
 62
   250
100
AcDbSpline
210
0.0
220
0.0
230
1.0
 70
    24
 71
     3
 72
     8
 73
     4
 74
     0
 42
0.0000000001
 43
0.0000000001
 40
0.0
 40
0.0
 40
0.0
 40
0.0
 40
1.0
 40
1.0
 40
1.0
 40
1.0
 10
3.3832
 20
8.4315
 30
0.0
 10
3.3832
 20
8.4315
 30
0.0
 10
3.1359
 20
8.4315
 30
0.0
 10
3.1359
 20
8.4315
 30
0.0
  0
SPLINE
  5
86
330
1F
100
AcDbEntity
  8
ILUSTRACE
 62
   250
100
AcDbSpline
210
0.0
220
0.0
230
1.0
 70
    24
 71
     3
 72
     8
 73
     4
 74
     0
 42
0.0000000001
 43
0.0000000001
 40
0.0
 40
0.0
 40
0.0
 40
0.0
 40
1.0
 40
1.0
 40
1.0
 40
1.0
 10
3.6978
 20
8.4315
 30
0.0
 10
3.6978
 20
8.4315
 30
0.0
 10
3.5375
 20
8.4315
 30
0.0
 10
3.5375
 20
8.4315
 30
0.0
  0
SPLINE
  5
87
330
1F
100
AcDbEntity
  8
ILUSTRACE
 62
   250
100
AcDbSpline
210
0.0
220
0.0
230
1.0
 70
    24
 71
     3
 72
     8
 73
     4
 74
     0
 42
0.0000000001
 43
0.0000000001
 40
0.0
 40
0.0
 40
0.0
 40
0.0
 40
1.0
 40
1.0
 40
1.0
 40
1.0
 10
3.8361
 20
8.4315
 30
0.0
 10
3.8361
 20
8.4315
 30
0.0
 10
3.854
 20
8.4315
 30
0.0
 10
3.854
 20
8.4315
 30
0.0
  0
SPLINE
  5
88
330
1F
100
AcDbEntity
  8
ILUSTRACE
 62
   250
100
AcDbSpline
210
0.0
220
0.0
230
1.0
 70
    24
 71
     3
 72
     8
 73
     4
 74
     0
 42
0.0000000001
 43
0.0000000001
 40
0.0
 40
0.0
 40
0.0
 40
0.0
 40
1.0
 40
1.0
 40
1.0
 40
1.0
 10
-7.5152
 20
8.4315
 30
0.0
 10
-7.5152
 20
8.4315
 30
0.0
 10
-6.3875
 20
8.4315
 30
0.0
 10
-6.3875
 20
8.4315
 30
0.0
  0
SPLINE
  5
89
330
1F
100
AcDbEntity
  8
ILUSTRACE
 62
   250
100
AcDbSpline
210
0.0
220
0.0
230
1.0
 70
    24
 71
     3
 72
     8
 73
     4
 74
     0
 42
0.0000000001
 43
0.0000000001
 40
0.0
 40
0.0
 40
0.0
 40
0.0
 40
1.0
 40
1.0
 40
1.0
 40
1.0
 10
-9.5988
 20
8.4315
 30
0.0
 10
-9.5988
 20
8.4315
 30
0.0
 10
-9.9377
 20
8.4315
 30
0.0
 10
-9.9377
 20
8.4315
 30
0.0
  0
SPLINE
  5
8A
330
1F
100
AcDbEntity
  8
ILUSTRACE
 62
   250
100
AcDbSpline
210
0.0
220
0.0
230
1.0
 70
    24
 71
     3
 72
     8
 73
     4
 74
     0
 42
0.0000000001
 43
0.0000000001
 40
0.0
 40
0.0
 40
0.0
 40
0.0
 40
1.0
 40
1.0
 40
1.0
 40
1.0
 10
-12.9824
 20
8.4315
 30
0.0
 10
-12.9824
 20
8.4315
 30
0.0
 10
-12.2458
 20
8.4315
 30
0.0
 10
-12.2458
 20
8.4315
 30
0.0
  0
SPLINE
  5
8B
330
1F
100
AcDbEntity
  8
ILUSTRACE
 62
   250
100
AcDbSpline
210
0.0
220
0.0
230
1.0
 70
    24
 71
     3
 72
     8
 73
     4
 74
     0
 42
0.0000000001
 43
0.0000000001
 40
0.0
 40
0.0
 40
0.0
 40
0.0
 40
1.0
 40
1.0
 40
1.0
 40
1.0
 10
-17.5302
 20
8.4315
 30
0.0
 10
-17.5302
 20
8.4315
 30
0.0
 10
-18.2517
 20
8.4315
 30
0.0
 10
-18.2517
 20
8.4315
 30
0.0
  0
SPLINE
  5
8C
330
1F
100
AcDbEntity
  8
ILUSTRACE
 62
   250
100
AcDbSpline
210
0.0
220
0.0
230
1.0
 70
    24
 71
     3
 72
     8
 73
     4
 74
     0
 42
0.0000000001
 43
0.0000000001
 40
0.0
 40
0.0
 40
0.0
 40
0.0
 40
1.0
 40
1.0
 40
1.0
 40
1.0
 10
-17.0668
 20
8.4315
 30
0.0
 10
-17.0668
 20
8.4315
 30
0.0
 10
-17.1662
 20
8.4315
 30
0.0
 10
-17.1662
 20
8.4315
 30
0.0
  0
SPLINE
  5
8D
330
1F
100
AcDbEntity
  8
ILUSTRACE
 62
   250
100
AcDbSpline
210
0.0
220
0.0
230
1.0
 70
    24
 71
     3
 72
     8
 73
     4
 74
     0
 42
0.0000000001
 43
0.0000000001
 40
0.0
 40
0.0
 40
0.0
 40
0.0
 40
1.0
 40
1.0
 40
1.0
 40
1.0
 10
-13.5617
 20
10.5968
 30
0.0
 10
-13.5617
 20
10.5968
 30
0.0
 10
-12.9945
 20
9.9402
 30
0.0
 10
-12.9945
 20
9.9402
 30
0.0
  0
SPLINE
  5
8E
330
1F
100
AcDbEntity
  8
ILUSTRACE
 62
   250
100
AcDbSpline
210
0.0
220
0.0
230
1.0
 70
    24
 71
     3
 72
     8
 73
     4
 74
     0
 42
0.0000000001
 43
0.0000000001
 40
0.0
 40
0.0
 40
0.0
 40
0.0
 40
1.0
 40
1.0
 40
1.0
 40
1.0
 10
-15.2261
 20
8.4309
 30
0.0
 10
-15.2261
 20
8.4309
 30
0.0
 10
-15.2351
 20
8.4315
 30
0.0
 10
-15.2351
 20
8.4315
 30
0.0
  0
SPLINE
  5
8F
330
1F
100
AcDbEntity
  8
ILUSTRACE
 62
   250
100
AcDbSpline
210
0.0
220
0.0
230
1.0
 70
    24
 71
     3
 72
     8
 73
     4
 74
     0
 42
0.0000000001
 43
0.0000000001
 40
0.0
 40
0.0
 40
0.0
 40
0.0
 40
1.0
 40
1.0
 40
1.0
 40
1.0
 10
-15.1558
 20
8.4315
 30
0.0
 10
-15.1558
 20
8.4315
 30
0.0
 10
-15.2351
 20
8.4315
 30
0.0
 10
-15.2351
 20
8.4315
 30
0.0
  0
SPLINE
  5
90
330
1F
100
AcDbEntity
  8
ILUSTRACE
 62
   250
100
AcDbSpline
210
0.0
220
0.0
230
1.0
 70
    24
 71
     3
 72
     8
 73
     4
 74
     0
 42
0.0000000001
 43
0.0000000001
 40
0.0
 40
0.0
 40
0.0
 40
0.0
 40
1.0
 40
1.0
 40
1.0
 40
1.0
 10
-18.6277
 20
11.4132
 30
0.0
 10
-18.6277
 20
11.4132
 30
0.0
 10
-17.8414
 20
11.4132
 30
0.0
 10
-17.8414
 20
11.4132
 30
0.0
  0
SPLINE
  5
91
330
1F
100
AcDbEntity
  8
ILUSTRACE
 62
   250
100
AcDbSpline
210
0.0
220
0.0
230
1.0
 70
    24
 71
     3
 72
     8
 73
     4
 74
     0
 42
0.0000000001
 43
0.0000000001
 40
0.0
 40
0.0
 40
0.0
 40
0.0
 40
1.0
 40
1.0
 40
1.0
 40
1.0
 10
15.7641
 20
14.1384
 30
0.0
 10
15.7641
 20
14.1384
 30
0.0
 10
22.6145
 20
12.4352
 30
0.0
 10
22.6145
 20
12.4352
 30
0.0
  0
SPLINE
  5
92
330
1F
100
AcDbEntity
  8
ILUSTRACE
 62
   250
100
AcDbSpline
210
0.0
220
0.0
230
1.0
 70
    24
 71
     3
 72
     8
 73
     4
 74
     0
 42
0.0000000001
 43
0.0000000001
 40
0.0
 40
0.0
 40
0.0
 40
0.0
 40
1.0
 40
1.0
 40
1.0
 40
1.0
 10
15.7732
 20
14.1333
 30
0.0
 10
15.7732
 20
14.1333
 30
0.0
 10
15.8069
 20
14.1144
 30
0.0
 10
15.8069
 20
14.1144
 30
0.0
  0
SPLINE
  5
93
330
1F
100
AcDbEntity
  8
ILUSTRACE
 62
   250
100
AcDbSpline
210
0.0
220
0.0
230
1.0
 70
    24
 71
     3
 72
     8
 73
     4
 74
     0
 42
0.0000000001
 43
0.0000000001
 40
0.0
 40
0.0
 40
0.0
 40
0.0
 40
1.0
 40
1.0
 40
1.0
 40
1.0
 10
-13.1693
 20
9.8178
 30
0.0
 10
-13.1693
 20
9.8178
 30
0.0
 10
-13.7557
 20
10.5388
 30
0.0
 10
-13.7557
 20
10.5388
 30
0.0
  0
SPLINE
  5
94
330
1F
100
AcDbEntity
  8
ILUSTRACE
 62
   250
100
AcDbSpline
210
0.0
220
0.0
230
1.0
 70
    24
 71
     3
 72
     8
 73
     4
 74
     0
 42
0.0000000001
 43
0.0000000001
 40
0.0
 40
0.0
 40
0.0
 40
0.0
 40
1.0
 40
1.0
 40
1.0
 40
1.0
 10
-13.7557
 20
10.5388
 30
0.0
 10
-13.7557
 20
10.5388
 30
0.0
 10
-13.7785
 20
9.3913
 30
0.0
 10
-13.7785
 20
9.3913
 30
0.0
  0
SPLINE
  5
95
330
1F
100
AcDbEntity
  8
ILUSTRACE
 62
   250
100
AcDbSpline
210
0.0
220
0.0
230
1.0
 70
    24
 71
     3
 72
     8
 73
     4
 74
     0
 42
0.0000000001
 43
0.0000000001
 40
0.0
 40
0.0
 40
0.0
 40
0.0
 40
1.0
 40
1.0
 40
1.0
 40
1.0
 10
14.5844
 20
17.5259
 30
0.0
 10
14.5844
 20
17.5259
 30
0.0
 10
10.7969
 20
17.5259
 30
0.0
 10
10.7969
 20
17.5259
 30
0.0
  0
SPLINE
  5
96
330
1F
100
AcDbEntity
  8
ILUSTRACE
 62
   250
100
AcDbSpline
210
0.0
220
0.0
230
1.0
 70
    24
 71
     3
 72
     8
 73
     4
 74
     0
 42
0.0000000001
 43
0.0000000001
 40
0.0
 40
0.0
 40
0.0
 40
0.0
 40
1.0
 40
1.0
 40
1.0
 40
1.0
 10
13.839
 20
17.6247
 30
0.0
 10
13.839
 20
17.6247
 30
0.0
 10
13.839
 20
17.6094
 30
0.0
 10
13.839
 20
17.6094
 30
0.0
  0
SPLINE
  5
97
330
1F
100
AcDbEntity
  8
ILUSTRACE
 62
   250
100
AcDbSpline
210
0.0
220
0.0
230
1.0
 70
    24
 71
     3
 72
     8
 73
     4
 74
     0
 42
0.0000000001
 43
0.0000000001
 40
0.0
 40
0.0
 40
0.0
 40
0.0
 40
1.0
 40
1.0
 40
1.0
 40
1.0
 10
0.3606
 20
17.4762
 30
0.0
 10
0.3606
 20
17.4762
 30
0.0
 10
-3.1182
 20
17.4762
 30
0.0
 10
-3.1182
 20
17.4762
 30
0.0
  0
SPLINE
  5
98
330
1F
100
AcDbEntity
  8
ILUSTRACE
 62
   250
100
AcDbSpline
210
0.0
220
0.0
230
1.0
 70
    24
 71
     3
 72
     8
 73
     4
 74
     0
 42
0.0000000001
 43
0.0000000001
 40
0.0
 40
0.0
 40
0.0
 40
0.0
 40
1.0
 40
1.0
 40
1.0
 40
1.0
 10
-2.3726
 20
17.3768
 30
0.0
 10
-2.3726
 20
17.3768
 30
0.0
 10
-2.3726
 20
17.6202
 30
0.0
 10
-2.3726
 20
17.6202
 30
0.0
  0
SPLINE
  5
99
330
1F
100
AcDbEntity
  8
ILUSTRACE
 62
   250
100
AcDbSpline
210
0.0
220
0.0
230
1.0
 70
    24
 71
     3
 72
     8
 73
     4
 74
     0
 42
0.0000000001
 43
0.0000000001
 40
0.0
 40
0.0
 40
0.0
 40
0.0
 40
1.0
 40
1.0
 40
1.0
 40
1.0
 10
-2.3726
 20
17.6135
 30
0.0
 10
-2.3726
 20
17.6135
 30
0.0
 10
-2.3726
 20
17.623
 30
0.0
 10
-2.3726
 20
17.623
 30
0.0
  0
SPLINE
  5
9A
330
1F
100
AcDbEntity
  8
ILUSTRACE
 62
   250
100
AcDbSpline
210
0.0
220
0.0
230
1.0
 70
    24
 71
     3
 72
     8
 73
     4
 74
     0
 42
0.0000000001
 43
0.0000000001
 40
0.0
 40
0.0
 40
0.0
 40
0.0
 40
1.0
 40
1.0
 40
1.0
 40
1.0
 10
-1.5833
 20
17.5816
 30
0.0
 10
-1.5833
 20
17.5816
 30
0.0
 10
-1.607
 20
17.5506
 30
0.0
 10
-1.607
 20
17.5506
 30
0.0
  0
SPLINE
  5
9B
330
1F
100
AcDbEntity
  8
ILUSTRACE
 62
   250
100
AcDbSpline
210
0.0
220
0.0
230
1.0
 70
    24
 71
     3
 72
     8
 73
     4
 74
     0
 42
0.0000000001
 43
0.0000000001
 40
0.0
 40
0.0
 40
0.0
 40
0.0
 40
1.0
 40
1.0
 40
1.0
 40
1.0
 10
0.3403
 20
17.5506
 30
0.0
 10
0.3403
 20
17.5506
 30
0.0
 10
0.3168
 20
17.5816
 30
0.0
 10
0.3168
 20
17.5816
 30
0.0
  0
SPLINE
  5
9C
330
1F
100
AcDbEntity
  8
ILUSTRACE
 62
   250
100
AcDbSpline
210
0.0
220
0.0
230
1.0
 70
    24
 71
     3
 72
     8
 73
     4
 74
     0
 42
0.0000000001
 43
0.0000000001
 40
0.0
 40
0.0
 40
0.0
 40
0.0
 40
1.0
 40
1.0
 40
1.0
 40
1.0
 10
22.7098
 20
8.3321
 30
0.0
 10
22.7098
 20
8.3321
 30
0.0
 10
21.8203
 20
8.3321
 30
0.0
 10
21.8203
 20
8.3321
 30
0.0
  0
SPLINE
  5
9D
330
1F
100
AcDbEntity
  8
ILUSTRACE
 62
   250
100
AcDbSpline
210
0.0
220
0.0
230
1.0
 70
    24
 71
     3
 72
     8
 73
     4
 74
     0
 42
0.0000000001
 43
0.0000000001
 40
0.0
 40
0.0
 40
0.0
 40
0.0
 40
1.0
 40
1.0
 40
1.0
 40
1.0
 10
5.9385
 20
8.4315
 30
0.0
 10
5.9385
 20
8.4315
 30
0.0
 10
5.9229
 20
8.4315
 30
0.0
 10
5.9229
 20
8.4315
 30
0.0
  0
SPLINE
  5
9E
330
1F
100
AcDbEntity
  8
ILUSTRACE
 62
   250
100
AcDbSpline
210
0.0
220
0.0
230
1.0
 70
    24
 71
     3
 72
     8
 73
     4
 74
     0
 42
0.0000000001
 43
0.0000000001
 40
0.0
 40
0.0
 40
0.0
 40
0.0
 40
1.0
 40
1.0
 40
1.0
 40
1.0
 10
5.2346
 20
8.4315
 30
0.0
 10
5.2346
 20
8.4315
 30
0.0
 10
5.219
 20
8.4315
 30
0.0
 10
5.219
 20
8.4315
 30
0.0
  0
SPLINE
  5
9F
330
1F
100
AcDbEntity
  8
ILUSTRACE
 62
   250
100
AcDbSpline
210
0.0
220
0.0
230
1.0
 70
    24
 71
     3
 72
     8
 73
     4
 74
     0
 42
0.0000000001
 43
0.0000000001
 40
0.0
 40
0.0
 40
0.0
 40
0.0
 40
1.0
 40
1.0
 40
1.0
 40
1.0
 10
-8.8949
 20
12.8103
 30
0.0
 10
-8.8949
 20
12.8103
 30
0.0
 10
-8.9698
 20
8.4315
 30
0.0
 10
-8.9698
 20
8.4315
 30
0.0
  0
SPLINE
  5
A0
330
1F
100
AcDbEntity
  8
ILUSTRACE
 62
   250
100
AcDbSpline
210
0.0
220
0.0
230
1.0
 70
     8
 71
     3
 72
    12
 73
     8
 74
     0
 42
0.0000000001
 43
0.0000000001
 40
0.0
 40
0.0
 40
0.0
 40
0.0
 40
0.3333333333333333
 40
0.3333333333333333
 40
0.3333333333333333
 40
0.3333333333333333
 40
1.0
 40
1.0
 40
1.0
 40
1.0
 10
29.0703
 20
11.3899
 30
0.0
 10
29.0486
 20
11.3699
 30
0.0
 10
29.035
 20
11.3437
 30
0.0
 10
29.035
 20
11.3138
 30
0.0
 10
29.035
 20
11.3138
 30
0.0
 10
29.0348
 20
10.6271
 30
0.0
 10
29.035
 20
9.9402
 30
0.0
 10
29.035
 20
9.2533
 30
0.0
  0
SPLINE
  5
A1
330
1F
100
AcDbEntity
  8
ILUSTRACE
 62
   250
100
AcDbSpline
210
0.0
220
0.0
230
1.0
 70
    24
 71
     3
 72
     8
 73
     4
 74
     0
 42
0.0000000001
 43
0.0000000001
 40
0.0
 40
0.0
 40
0.0
 40
0.0
 40
1.0
 40
1.0
 40
1.0
 40
1.0
 10
28.1247
 20
9.7467
 30
0.0
 10
28.1247
 20
9.7467
 30
0.0
 10
28.232
 20
9.6957
 30
0.0
 10
28.232
 20
9.6957
 30
0.0
  0
SPLINE
  5
A2
330
1F
100
AcDbEntity
  8
ILUSTRACE
 62
   250
100
AcDbSpline
210
0.0
220
0.0
230
1.0
 70
    24
 71
     3
 72
     8
 73
     4
 74
     0
 42
0.0000000001
 43
0.0000000001
 40
0.0
 40
0.0
 40
0.0
 40
0.0
 40
1.0
 40
1.0
 40
1.0
 40
1.0
 10
27.5584
 20
9.9891
 30
0.0
 10
27.5584
 20
9.9891
 30
0.0
 10
27.6762
 20
9.942
 30
0.0
 10
27.6762
 20
9.942
 30
0.0
  0
SPLINE
  5
A3
330
1F
100
AcDbEntity
  8
ILUSTRACE
 62
   250
100
AcDbSpline
210
0.0
220
0.0
230
1.0
 70
     8
 71
     3
 72
    12
 73
     8
 74
     0
 42
0.0000000001
 43
0.0000000001
 40
0.0
 40
0.0
 40
0.0
 40
0.0
 40
0.3333333333333333
 40
0.3333333333333333
 40
0.3333333333333333
 40
0.3333333333333333
 40
1.0
 40
1.0
 40
1.0
 40
1.0
 10
22.7098
 20
11.1559
 30
0.0
 10
24.4896
 20
10.8261
 30
0.0
 10
26.3256
 20
10.4828
 30
0.0
 10
27.9953
 20
9.7549
 30
0.0
 10
27.9953
 20
9.7549
 30
0.0
 10
28.6915
 20
9.4514
 30
0.0
 10
29.4801
 20
9.0754
 30
0.0
 10
29.7799
 20
8.3321
 30
0.0
  0
SPLINE
  5
A4
330
1F
100
AcDbEntity
  8
ILUSTRACE
 62
   250
100
AcDbSpline
210
0.0
220
0.0
230
1.0
 70
     8
 71
     3
 72
     8
 73
     4
 74
     0
 42
0.0000000001
 43
0.0000000001
 40
0.0
 40
0.0
 40
0.0
 40
0.0
 40
1.0
 40
1.0
 40
1.0
 40
1.0
 10
29.1343
 20
9.1792
 30
0.0
 10
29.1343
 20
9.9201
 30
0.0
 10
29.1459
 20
10.6652
 30
0.0
 10
29.1342
 20
11.4057
 30
0.0
  0
SPLINE
  5
A5
330
1F
100
AcDbEntity
  8
ILUSTRACE
 62
   250
100
AcDbSpline
210
0.0
220
0.0
230
1.0
 70
     8
 71
     3
 72
    20
 73
    16
 74
     0
 42
0.0000000001
 43
0.0000000001
 40
0.0
 40
0.0
 40
0.0
 40
0.0
 40
0.2
 40
0.2
 40
0.2
 40
0.2
 40
0.4
 40
0.4
 40
0.4
 40
0.4
 40
0.6
 40
0.6
 40
0.6
 40
0.6
 40
1.0
 40
1.0
 40
1.0
 40
1.0
 10
22.2353
 20
8.4315
 30
0.0
 10
22.2353
 20
8.4315
 30
0.0
 10
22.2477
 20
9.4251
 30
0.0
 10
22.2477
 20
9.4251
 30
0.0
 10
22.2477
 20
9.4251
 30
0.0
 10
22.2477
 20
9.4251
 30
0.0
 10
22.2696
 20
11.209
 30
0.0
 10
22.2696
 20
11.209
 30
0.0
 10
22.2696
 20
11.209
 30
0.0
 10
22.2696
 20
11.209
 30
0.0
 10
22.2819
 20
12.2031
 30
0.0
 10
22.2819
 20
12.2031
 30
0.0
 10
22.2819
 20
12.2031
 30
0.0
 10
22.2819
 20
12.2031
 30
0.0
 10
22.2903
 20
12.2447
 30
0.0
 10
22.2903
 20
12.2447
 30
0.0
  0
SPLINE
  5
A6
330
1F
100
AcDbEntity
  8
ILUSTRACE
 62
   250
100
AcDbSpline
210
0.0
220
0.0
230
1.0
 70
     8
 71
     3
 72
     8
 73
     4
 74
     0
 42
0.0000000001
 43
0.0000000001
 40
0.0
 40
0.0
 40
0.0
 40
0.0
 40
1.0
 40
1.0
 40
1.0
 40
1.0
 10
22.2903
 20
12.2447
 30
0.0
 10
22.3291
 20
12.3929
 30
0.0
 10
22.4726
 20
12.5006
 30
0.0
 10
22.6281
 20
12.429
 30
0.0
  0
SPLINE
  5
A7
330
1F
100
AcDbEntity
  8
ILUSTRACE
 62
   250
100
AcDbSpline
210
0.0
220
0.0
230
1.0
 70
     8
 71
     3
 72
    12
 73
     8
 74
     0
 42
0.0000000001
 43
0.0000000001
 40
0.0
 40
0.0
 40
0.0
 40
0.0
 40
0.3333333333333333
 40
0.3333333333333333
 40
0.3333333333333333
 40
0.3333333333333333
 40
1.0
 40
1.0
 40
1.0
 40
1.0
 10
15.7175
 20
14.147
 30
0.0
 10
15.7175
 20
14.147
 30
0.0
 10
16.6819
 20
13.9073
 30
0.0
 10
16.6819
 20
13.9073
 30
0.0
 10
16.6819
 20
13.9073
 30
0.0
 10
16.6819
 20
13.9073
 30
0.0
 10
21.606
 20
12.6831
 30
0.0
 10
21.606
 20
12.6831
 30
0.0
  0
SPLINE
  5
A8
330
1F
100
AcDbEntity
  8
ILUSTRACE
 62
   250
100
AcDbSpline
210
0.0
220
0.0
230
1.0
 70
     8
 71
     3
 72
     8
 73
     4
 74
     0
 42
0.0000000001
 43
0.0000000001
 40
0.0
 40
0.0
 40
0.0
 40
0.0
 40
1.0
 40
1.0
 40
1.0
 40
1.0
 10
21.606
 20
12.6831
 30
0.0
 10
21.7475
 20
12.6478
 30
0.0
 10
22.7084
 20
12.6613
 30
0.0
 10
22.7158
 20
12.1985
 30
0.0
  0
SPLINE
  5
A9
330
1F
100
AcDbEntity
  8
ILUSTRACE
 62
   250
100
AcDbSpline
210
0.0
220
0.0
230
1.0
 70
    24
 71
     3
 72
     8
 73
     4
 74
     0
 42
0.0000000001
 43
0.0000000001
 40
0.0
 40
0.0
 40
0.0
 40
0.0
 40
1.0
 40
1.0
 40
1.0
 40
1.0
 10
22.7158
 20
12.1985
 30
0.0
 10
22.7158
 20
12.1985
 30
0.0
 10
22.7279
 20
11.2332
 30
0.0
 10
22.7279
 20
11.2332
 30
0.0
  0
SPLINE
  5
AA
330
1F
100
AcDbEntity
  8
ILUSTRACE
 62
   250
100
AcDbSpline
210
0.0
220
0.0
230
1.0
 70
     8
 71
     3
 72
    20
 73
    16
 74
     0
 42
0.0000000001
 43
0.0000000001
 40
0.0
 40
0.0
 40
0.0
 40
0.0
 40
0.2
 40
0.2
 40
0.2
 40
0.2
 40
0.4
 40
0.4
 40
0.4
 40
0.4
 40
0.6
 40
0.6
 40
0.6
 40
0.6
 40
1.0
 40
1.0
 40
1.0
 40
1.0
 10
22.5866
 20
8.4178
 30
0.0
 10
22.5866
 20
8.4178
 30
0.0
 10
22.5989
 20
9.4117
 30
0.0
 10
22.5989
 20
9.4117
 30
0.0
 10
22.5989
 20
9.4117
 30
0.0
 10
22.5989
 20
9.4117
 30
0.0
 10
22.621
 20
11.2052
 30
0.0
 10
22.621
 20
11.2052
 30
0.0
 10
22.621
 20
11.2052
 30
0.0
 10
22.621
 20
11.2052
 30
0.0
 10
22.6336
 20
12.199
 30
0.0
 10
22.6336
 20
12.199
 30
0.0
 10
22.6336
 20
12.199
 30
0.0
 10
22.6336
 20
12.199
 30
0.0
 10
22.6313
 20
12.2372
 30
0.0
 10
22.6313
 20
12.2372
 30
0.0
  0
SPLINE
  5
AB
330
1F
100
AcDbEntity
  8
ILUSTRACE
 62
   250
100
AcDbSpline
210
0.0
220
0.0
230
1.0
 70
     8
 71
     3
 72
     8
 73
     4
 74
     0
 42
0.0000000001
 43
0.0000000001
 40
0.0
 40
0.0
 40
0.0
 40
0.0
 40
1.0
 40
1.0
 40
1.0
 40
1.0
 10
22.6313
 20
12.2372
 30
0.0
 10
22.6234
 20
12.3203
 30
0.0
 10
22.5764
 20
12.4208
 30
0.0
 10
22.4879
 20
12.4434
 30
0.0
  0
SPLINE
  5
AC
330
1F
100
AcDbEntity
  8
ILUSTRACE
 62
   250
100
AcDbSpline
210
0.0
220
0.0
230
1.0
 70
     8
 71
     3
 72
    16
 73
    12
 74
     0
 42
0.0000000001
 43
0.0000000001
 40
0.0
 40
0.0
 40
0.0
 40
0.0
 40
0.25
 40
0.25
 40
0.25
 40
0.25
 40
0.5
 40
0.5
 40
0.5
 40
0.5
 40
1.0
 40
1.0
 40
1.0
 40
1.0
 10
22.4879
 20
12.4434
 30
0.0
 10
22.4879
 20
12.4434
 30
0.0
 10
21.5238
 20
12.6847
 30
0.0
 10
21.5238
 20
12.6847
 30
0.0
 10
21.5238
 20
12.6847
 30
0.0
 10
21.5238
 20
12.6847
 30
0.0
 10
16.6411
 20
13.9059
 30
0.0
 10
16.6411
 20
13.9059
 30
0.0
 10
16.6411
 20
13.9059
 30
0.0
 10
16.6411
 20
13.9059
 30
0.0
 10
15.6768
 20
14.147
 30
0.0
 10
15.6768
 20
14.147
 30
0.0
  0
SPLINE
  5
AD
330
1F
100
AcDbEntity
  8
ILUSTRACE
 62
   250
100
AcDbSpline
210
0.0
220
0.0
230
1.0
 70
     8
 71
     3
 72
     8
 73
     4
 74
     0
 42
0.0000000001
 43
0.0000000001
 40
0.0
 40
0.0
 40
0.0
 40
0.0
 40
1.0
 40
1.0
 40
1.0
 40
1.0
 10
15.6768
 20
14.147
 30
0.0
 10
15.5772
 20
14.1368
 30
0.0
 10
15.5439
 20
14.0449
 30
0.0
 10
15.5406
 20
13.9553
 30
0.0
  0
SPLINE
  5
AE
330
1F
100
AcDbEntity
  8
ILUSTRACE
 62
   250
100
AcDbSpline
210
0.0
220
0.0
230
1.0
 70
    24
 71
     3
 72
     8
 73
     4
 74
     0
 42
0.0000000001
 43
0.0000000001
 40
0.0
 40
0.0
 40
0.0
 40
0.0
 40
1.0
 40
1.0
 40
1.0
 40
1.0
 10
-8.8935
 20
13.0311
 30
0.0
 10
-0.7278
 20
13.0311
 30
0.0
 10
7.438
 20
13.0311
 30
0.0
 10
15.6037
 20
13.0311
 30
0.0
  0
SPLINE
  5
AF
330
1F
100
AcDbEntity
  8
ILUSTRACE
 62
   250
100
AcDbSpline
210
0.0
220
0.0
230
1.0
 70
    24
 71
     3
 72
     8
 73
     4
 74
     0
 42
0.0000000001
 43
0.0000000001
 40
0.0
 40
0.0
 40
0.0
 40
0.0
 40
1.0
 40
1.0
 40
1.0
 40
1.0
 10
22.7554
 20
12.1997
 30
0.0
 10
22.7554
 20
12.1997
 30
0.0
 10
22.7158
 20
12.1985
 30
0.0
 10
22.7158
 20
12.1985
 30
0.0
  0
SPLINE
  5
B0
330
1F
100
AcDbEntity
  8
ILUSTRACE
 62
   250
100
AcDbSpline
210
0.0
220
0.0
230
1.0
 70
     8
 71
     3
 72
     8
 73
     4
 74
     0
 42
0.0000000001
 43
0.0000000001
 40
0.0
 40
0.0
 40
0.0
 40
0.0
 40
1.0
 40
1.0
 40
1.0
 40
1.0
 10
22.7158
 20
12.1985
 30
0.0
 10
22.5836
 20
12.1985
 30
0.0
 10
22.4099
 20
12.1723
 30
0.0
 10
22.2819
 20
12.2031
 30
0.0
  0
SPLINE
  5
B1
330
1F
100
AcDbEntity
  8
ILUSTRACE
 62
   250
100
AcDbSpline
210
0.0
220
0.0
230
1.0
 70
     8
 71
     3
 72
    16
 73
    12
 74
     0
 42
0.0000000001
 43
0.0000000001
 40
0.0
 40
0.0
 40
0.0
 40
0.0
 40
0.25
 40
0.25
 40
0.25
 40
0.25
 40
0.5
 40
0.5
 40
0.5
 40
0.5
 40
1.0
 40
1.0
 40
1.0
 40
1.0
 10
22.2819
 20
12.2031
 30
0.0
 10
22.2819
 20
12.2031
 30
0.0
 10
21.3176
 20
12.4441
 30
0.0
 10
21.3176
 20
12.4441
 30
0.0
 10
21.3176
 20
12.4441
 30
0.0
 10
21.3176
 20
12.4441
 30
0.0
 10
16.5085
 20
13.6471
 30
0.0
 10
16.5085
 20
13.6471
 30
0.0
 10
16.5085
 20
13.6471
 30
0.0
 10
16.5085
 20
13.6471
 30
0.0
 10
15.5443
 20
13.8882
 30
0.0
 10
15.5443
 20
13.8882
 30
0.0
  0
SPLINE
  5
B2
330
1F
100
AcDbEntity
  8
ILUSTRACE
 62
   250
100
AcDbSpline
210
0.0
220
0.0
230
1.0
 70
    24
 71
     3
 72
     8
 73
     4
 74
     0
 42
0.0000000001
 43
0.0000000001
 40
0.0
 40
0.0
 40
0.0
 40
0.0
 40
1.0
 40
1.0
 40
1.0
 40
1.0
 10
22.8008
 20
11.2232
 30
0.0
 10
22.8008
 20
11.2232
 30
0.0
 10
22.9995
 20
11.1869
 30
0.0
 10
22.9995
 20
11.1869
 30
0.0
  0
SPLINE
  5
B3
330
1F
100
AcDbEntity
  8
ILUSTRACE
 62
   250
100
AcDbSpline
210
0.0
220
0.0
230
1.0
 70
    24
 71
     3
 72
     8
 73
     4
 74
     0
 42
0.0000000001
 43
0.0000000001
 40
0.0
 40
0.0
 40
0.0
 40
0.0
 40
1.0
 40
1.0
 40
1.0
 40
1.0
 10
23.4465
 20
11.1017
 30
0.0
 10
23.4465
 20
11.1017
 30
0.0
 10
23.2405
 20
11.1415
 30
0.0
 10
23.2405
 20
11.1415
 30
0.0
  0
SPLINE
  5
B4
330
1F
100
AcDbEntity
  8
ILUSTRACE
 62
   250
100
AcDbSpline
210
0.0
220
0.0
230
1.0
 70
    24
 71
     3
 72
     8
 73
     4
 74
     0
 42
0.0000000001
 43
0.0000000001
 40
0.0
 40
0.0
 40
0.0
 40
0.0
 40
1.0
 40
1.0
 40
1.0
 40
1.0
 10
24.2183
 20
10.9432
 30
0.0
 10
24.2183
 20
10.9432
 30
0.0
 10
24.4095
 20
10.9012
 30
0.0
 10
24.4095
 20
10.9012
 30
0.0
  0
SPLINE
  5
B5
330
1F
100
AcDbEntity
  8
ILUSTRACE
 62
   250
100
AcDbSpline
210
0.0
220
0.0
230
1.0
 70
    24
 71
     3
 72
     8
 73
     4
 74
     0
 42
0.0000000001
 43
0.0000000001
 40
0.0
 40
0.0
 40
0.0
 40
0.0
 40
1.0
 40
1.0
 40
1.0
 40
1.0
 10
25.3017
 20
10.6904
 30
0.0
 10
25.3017
 20
10.6904
 30
0.0
 10
25.1241
 20
10.7348
 30
0.0
 10
25.1241
 20
10.7348
 30
0.0
  0
SPLINE
  5
B6
330
1F
100
AcDbEntity
  8
ILUSTRACE
 62
   250
100
AcDbSpline
210
0.0
220
0.0
230
1.0
 70
    24
 71
     3
 72
     8
 73
     4
 74
     0
 42
0.0000000001
 43
0.0000000001
 40
0.0
 40
0.0
 40
0.0
 40
0.0
 40
1.0
 40
1.0
 40
1.0
 40
1.0
 10
26.1219
 20
10.4695
 30
0.0
 10
26.1219
 20
10.4695
 30
0.0
 10
25.9551
 20
10.5169
 30
0.0
 10
25.9551
 20
10.5169
 30
0.0
  0
SPLINE
  5
B7
330
1F
100
AcDbEntity
  8
ILUSTRACE
 62
   250
100
AcDbSpline
210
0.0
220
0.0
230
1.0
 70
    24
 71
     3
 72
     8
 73
     4
 74
     0
 42
0.0000000001
 43
0.0000000001
 40
0.0
 40
0.0
 40
0.0
 40
0.0
 40
1.0
 40
1.0
 40
1.0
 40
1.0
 10
26.8635
 20
10.24
 30
0.0
 10
26.8635
 20
10.24
 30
0.0
 10
26.7085
 20
10.2908
 30
0.0
 10
26.7085
 20
10.2908
 30
0.0
  0
SPLINE
  5
B8
330
1F
100
AcDbEntity
  8
ILUSTRACE
 62
   250
100
AcDbSpline
210
0.0
220
0.0
230
1.0
 70
     8
 71
     3
 72
     8
 73
     4
 74
     0
 42
0.0000000001
 43
0.0000000001
 40
0.0
 40
0.0
 40
0.0
 40
0.0
 40
1.0
 40
1.0
 40
1.0
 40
1.0
 10
-11.6311
 20
12.2017
 30
0.0
 10
-11.609
 20
12.2034
 30
0.0
 10
-11.579
 20
12.1981
 30
0.0
 10
-11.5585
 20
12.2031
 30
0.0
  0
SPLINE
  5
B9
330
1F
100
AcDbEntity
  8
ILUSTRACE
 62
   250
100
AcDbSpline
210
0.0
220
0.0
230
1.0
 70
     8
 71
     3
 72
    16
 73
    12
 74
     0
 42
0.0000000001
 43
0.0000000001
 40
0.0
 40
0.0
 40
0.0
 40
0.0
 40
0.25
 40
0.25
 40
0.25
 40
0.25
 40
0.5
 40
0.5
 40
0.5
 40
0.5
 40
1.0
 40
1.0
 40
1.0
 40
1.0
 10
-11.5585
 20
12.2031
 30
0.0
 10
-11.5585
 20
12.2031
 30
0.0
 10
-10.5937
 20
12.4427
 30
0.0
 10
-10.5937
 20
12.4427
 30
0.0
 10
-10.5937
 20
12.4427
 30
0.0
 10
-10.5937
 20
12.4427
 30
0.0
 10
-9.8612
 20
12.6247
 30
0.0
 10
-9.8612
 20
12.6247
 30
0.0
 10
-9.8612
 20
12.6247
 30
0.0
 10
-9.8612
 20
12.6247
 30
0.0
 10
-8.8965
 20
12.8647
 30
0.0
 10
-8.8965
 20
12.8647
 30
0.0
  0
SPLINE
  5
BA
330
1F
100
AcDbEntity
  8
ILUSTRACE
 62
   250
100
AcDbSpline
210
0.0
220
0.0
230
1.0
 70
     8
 71
     3
 72
     8
 73
     4
 74
     0
 42
0.0000000001
 43
0.0000000001
 40
0.0
 40
0.0
 40
0.0
 40
0.0
 40
1.0
 40
1.0
 40
1.0
 40
1.0
 10
-11.4572
 20
12.4352
 30
0.0
 10
-11.5478
 20
12.3794
 30
0.0
 10
-11.5576
 20
12.3035
 30
0.0
 10
-11.5585
 20
12.2031
 30
0.0
  0
SPLINE
  5
BB
330
1F
100
AcDbEntity
  8
ILUSTRACE
 62
   250
100
AcDbSpline
210
0.0
220
0.0
230
1.0
 70
    24
 71
     3
 72
     8
 73
     4
 74
     0
 42
0.0000000001
 43
0.0000000001
 40
0.0
 40
0.0
 40
0.0
 40
0.0
 40
1.0
 40
1.0
 40
1.0
 40
1.0
 10
-11.5585
 20
12.2031
 30
0.0
 10
-11.5585
 20
12.2031
 30
0.0
 10
-11.5711
 20
11.1834
 30
0.0
 10
-11.5711
 20
11.1834
 30
0.0
  0
SPLINE
  5
BC
330
1F
100
AcDbEntity
  8
ILUSTRACE
 62
   250
100
AcDbSpline
210
0.0
220
0.0
230
1.0
 70
     8
 71
     3
 72
     8
 73
     4
 74
     0
 42
0.0000000001
 43
0.0000000001
 40
0.0
 40
0.0
 40
0.0
 40
0.0
 40
1.0
 40
1.0
 40
1.0
 40
1.0
 10
-11.4649
 20
12.4183
 30
0.0
 10
-11.4141
 20
12.4493
 30
0.0
 10
-11.3995
 20
12.4434
 30
0.0
 10
-11.3306
 20
12.4434
 30
0.0
  0
SPLINE
  5
BD
330
1F
100
AcDbEntity
  8
ILUSTRACE
 62
   250
100
AcDbSpline
210
0.0
220
0.0
230
1.0
 70
     8
 71
     3
 72
     8
 73
     4
 74
     0
 42
0.0000000001
 43
0.0000000001
 40
0.0
 40
0.0
 40
0.0
 40
0.0
 40
1.0
 40
1.0
 40
1.0
 40
1.0
 10
5.3806
 20
12.8237
 30
0.0
 10
5.3289
 20
12.8209
 30
0.0
 10
5.2981
 20
12.7825
 30
0.0
 10
5.2846
 20
12.7351
 30
0.0
  0
SPLINE
  5
BE
330
1F
100
AcDbEntity
  8
ILUSTRACE
 62
   250
100
AcDbSpline
210
0.0
220
0.0
230
1.0
 70
     8
 71
     3
 72
     8
 73
     4
 74
     0
 42
0.0000000001
 43
0.0000000001
 40
0.0
 40
0.0
 40
0.0
 40
0.0
 40
1.0
 40
1.0
 40
1.0
 40
1.0
 10
5.7768
 20
12.8237
 30
0.0
 10
5.8284
 20
12.8209
 30
0.0
 10
5.8594
 20
12.7825
 30
0.0
 10
5.8729
 20
12.7351
 30
0.0
  0
SPLINE
  5
BF
330
1F
100
AcDbEntity
  8
ILUSTRACE
 62
   250
100
AcDbSpline
210
0.0
220
0.0
230
1.0
 70
     8
 71
     3
 72
     8
 73
     4
 74
     0
 42
0.0000000001
 43
0.0000000001
 40
0.0
 40
0.0
 40
0.0
 40
0.0
 40
1.0
 40
1.0
 40
1.0
 40
1.0
 10
22.5866
 20
8.4179
 30
0.0
 10
22.5586
 20
8.4193
 30
0.0
 10
22.5314
 20
8.423
 30
0.0
 10
22.5033
 20
8.4265
 30
0.0
  0
SPLINE
  5
C0
330
1F
100
AcDbEntity
  8
ILUSTRACE
 62
   250
100
AcDbSpline
210
0.0
220
0.0
230
1.0
 70
     8
 71
     3
 72
     8
 73
     4
 74
     0
 42
0.0000000001
 43
0.0000000001
 40
0.0
 40
0.0
 40
0.0
 40
0.0
 40
1.0
 40
1.0
 40
1.0
 40
1.0
 10
9.8438
 20
8.4283
 30
0.0
 10
9.858
 20
8.4004
 30
0.0
 10
9.857
 20
8.3625
 30
0.0
 10
9.857
 20
8.3321
 30
0.0
  0
SPLINE
  5
C1
330
1F
100
AcDbEntity
  8
ILUSTRACE
 62
   250
100
AcDbSpline
210
0.0
220
0.0
230
1.0
 70
    24
 71
     3
 72
    12
 73
     8
 74
     0
 42
0.0000000001
 43
0.0000000001
 40
0.0
 40
0.0
 40
0.0
 40
0.0
 40
0.3333333333333333
 40
0.3333333333333333
 40
0.3333333333333333
 40
0.3333333333333333
 40
1.0
 40
1.0
 40
1.0
 40
1.0
 10
9.857
 20
8.3321
 30
0.0
 10
9.857
 20
8.3321
 30
0.0
 10
9.857
 20
7.7605
 30
0.0
 10
9.857
 20
7.7605
 30
0.0
 10
9.857
 20
7.7605
 30
0.0
 10
9.857
 20
7.7605
 30
0.0
 10
9.857
 20
7.1892
 30
0.0
 10
9.857
 20
7.1892
 30
0.0
  0
SPLINE
  5
C2
330
1F
100
AcDbEntity
  8
ILUSTRACE
 62
   250
100
AcDbSpline
210
0.0
220
0.0
230
1.0
 70
    24
 71
     3
 72
    12
 73
     8
 74
     0
 42
0.0000000001
 43
0.0000000001
 40
0.0
 40
0.0
 40
0.0
 40
0.0
 40
0.3333333333333333
 40
0.3333333333333333
 40
0.3333333333333333
 40
0.3333333333333333
 40
1.0
 40
1.0
 40
1.0
 40
1.0
 10
9.7427
 20
7.1892
 30
0.0
 10
9.7427
 20
7.1892
 30
0.0
 10
9.7427
 20
7.7605
 30
0.0
 10
9.7427
 20
7.7605
 30
0.0
 10
9.7427
 20
7.7605
 30
0.0
 10
9.7427
 20
7.7605
 30
0.0
 10
9.7427
 20
8.3321
 30
0.0
 10
9.7427
 20
8.3321
 30
0.0
  0
SPLINE
  5
C3
330
1F
100
AcDbEntity
  8
ILUSTRACE
 62
   250
100
AcDbSpline
210
0.0
220
0.0
230
1.0
 70
     8
 71
     3
 72
     8
 73
     4
 74
     0
 42
0.0000000001
 43
0.0000000001
 40
0.0
 40
0.0
 40
0.0
 40
0.0
 40
1.0
 40
1.0
 40
1.0
 40
1.0
 10
9.7427
 20
8.3321
 30
0.0
 10
9.7427
 20
8.3615
 30
0.0
 10
9.7558
 20
8.388
 30
0.0
 10
9.777
 20
8.4082
 30
0.0
  0
SPLINE
  5
C4
330
1F
100
AcDbEntity
  8
ILUSTRACE
 62
   250
100
AcDbSpline
210
0.0
220
0.0
230
1.0
 70
     8
 71
     3
 72
     8
 73
     4
 74
     0
 42
0.0000000001
 43
0.0000000001
 40
0.0
 40
0.0
 40
0.0
 40
0.0
 40
1.0
 40
1.0
 40
1.0
 40
1.0
 10
7.1896
 20
8.4315
 30
0.0
 10
7.2081
 20
8.4304
 30
0.0
 10
7.2246
 20
8.4265
 30
0.0
 10
7.2413
 20
8.4179
 30
0.0
  0
SPLINE
  5
C5
330
1F
100
AcDbEntity
  8
ILUSTRACE
 62
   250
100
AcDbSpline
210
0.0
220
0.0
230
1.0
 70
     8
 71
     3
 72
     8
 73
     4
 74
     0
 42
0.0000000001
 43
0.0000000001
 40
0.0
 40
0.0
 40
0.0
 40
0.0
 40
1.0
 40
1.0
 40
1.0
 40
1.0
 10
29.0181
 20
11.3684
 30
0.0
 10
29.0127
 20
11.3587
 30
0.0
 10
29.0079
 20
11.3493
 30
0.0
 10
29.0048
 20
11.3384
 30
0.0
  0
SPLINE
  5
C6
330
1F
100
AcDbEntity
  8
ILUSTRACE
 62
   250
100
AcDbSpline
210
0.0
220
0.0
230
1.0
 70
     8
 71
     3
 72
     8
 73
     4
 74
     0
 42
0.0000000001
 43
0.0000000001
 40
0.0
 40
0.0
 40
0.0
 40
0.0
 40
1.0
 40
1.0
 40
1.0
 40
1.0
 10
29.6431
 20
11.4132
 30
0.0
 10
29.7061
 20
11.4132
 30
0.0
 10
29.7778
 20
11.3998
 30
0.0
 10
29.7849
 20
11.3226
 30
0.0
  0
SPLINE
  5
C7
330
1F
100
AcDbEntity
  8
ILUSTRACE
 62
   250
100
AcDbSpline
210
0.0
220
0.0
230
1.0
 70
     8
 71
     3
 72
    16
 73
    12
 74
     0
 42
0.0000000001
 43
0.0000000001
 40
0.0
 40
0.0
 40
0.0
 40
0.0
 40
0.25
 40
0.25
 40
0.25
 40
0.25
 40
0.5
 40
0.5
 40
0.5
 40
0.5
 40
1.0
 40
1.0
 40
1.0
 40
1.0
 10
29.7849
 20
11.3226
 30
0.0
 10
29.7849
 20
11.3226
 30
0.0
 10
29.7851
 20
10.3198
 30
0.0
 10
29.7851
 20
10.3198
 30
0.0
 10
29.7851
 20
10.3198
 30
0.0
 10
29.7851
 20
10.3198
 30
0.0
 10
29.7851
 20
8.1828
 30
0.0
 10
29.7851
 20
8.1828
 30
0.0
 10
29.7851
 20
8.1828
 30
0.0
 10
29.7851
 20
8.1828
 30
0.0
 10
29.7851
 20
7.1892
 30
0.0
 10
29.7851
 20
7.1892
 30
0.0
  0
SPLINE
  5
C8
330
1F
100
AcDbEntity
  8
ILUSTRACE
 62
   250
100
AcDbSpline
210
0.0
220
0.0
230
1.0
 70
     8
 71
     3
 72
     8
 73
     4
 74
     0
 42
0.0000000001
 43
0.0000000001
 40
0.0
 40
0.0
 40
0.0
 40
0.0
 40
1.0
 40
1.0
 40
1.0
 40
1.0
 10
-17.8414
 20
11.4132
 30
0.0
 10
-17.7791
 20
10.4173
 30
0.0
 10
-17.7036
 20
9.4251
 30
0.0
 10
-17.6136
 20
8.4315
 30
0.0
  0
SPLINE
  5
C9
330
1F
100
AcDbEntity
  8
ILUSTRACE
 62
   250
100
AcDbSpline
210
0.0
220
0.0
230
1.0
 70
     8
 71
     3
 72
    20
 73
    16
 74
     0
 42
0.0000000001
 43
0.0000000001
 40
0.0
 40
0.0
 40
0.0
 40
0.0
 40
0.2
 40
0.2
 40
0.2
 40
0.2
 40
0.4
 40
0.4
 40
0.4
 40
0.4
 40
0.6
 40
0.6
 40
0.6
 40
0.6
 40
1.0
 40
1.0
 40
1.0
 40
1.0
 10
-15.1492
 20
8.4315
 30
0.0
 10
-13.0645
 20
9.8911
 30
0.0
 10
-10.9796
 20
11.3507
 30
0.0
 10
-8.8949
 20
12.8103
 30
0.0
 10
-8.8949
 20
12.8103
 30
0.0
 10
-8.8918
 20
13.2695
 30
0.0
 10
-8.853
 20
13.7165
 30
0.0
 10
-8.7271
 20
14.1604
 30
0.0
 10
-8.7271
 20
14.1604
 30
0.0
 10
-8.3412
 20
15.5209
 30
0.0
 10
-7.2994
 20
16.6373
 30
0.0
 10
-5.9683
 20
17.1158
 30
0.0
 10
-5.9683
 20
17.1158
 30
0.0
 10
-5.1517
 20
17.4096
 30
0.0
 10
-4.3361
 20
17.3768
 30
0.0
 10
-3.478
 20
17.3768
 30
0.0
  0
SPLINE
  5
CA
330
1F
100
AcDbEntity
  8
ILUSTRACE
 62
   250
100
AcDbSpline
210
0.0
220
0.0
230
1.0
 70
    24
 71
     3
 72
     8
 73
     4
 74
     0
 42
0.0000000001
 43
0.0000000001
 40
0.0
 40
0.0
 40
0.0
 40
0.0
 40
1.0
 40
1.0
 40
1.0
 40
1.0
 10
-3.478
 20
17.3768
 30
0.0
 10
-3.478
 20
17.3768
 30
0.0
 10
14.6354
 20
17.3768
 30
0.0
 10
14.6354
 20
17.3768
 30
0.0
  0
SPLINE
  5
CB
330
1F
100
AcDbEntity
  8
ILUSTRACE
 62
   250
100
AcDbSpline
210
0.0
220
0.0
230
1.0
 70
     8
 71
     3
 72
    16
 73
    12
 74
     0
 42
0.0000000001
 43
0.0000000001
 40
0.0
 40
0.0
 40
0.0
 40
0.0
 40
0.25
 40
0.25
 40
0.25
 40
0.25
 40
0.5
 40
0.5
 40
0.5
 40
0.5
 40
1.0
 40
1.0
 40
1.0
 40
1.0
 10
14.6354
 20
17.3768
 30
0.0
 10
15.2147
 20
17.3768
 30
0.0
 10
15.813
 20
17.4114
 30
0.0
 10
16.3888
 20
17.3111
 30
0.0
 10
16.3888
 20
17.3111
 30
0.0
 10
17.913
 20
17.0453
 30
0.0
 10
19.2158
 20
15.9692
 30
0.0
 10
19.7647
 20
14.5228
 30
0.0
 10
19.7647
 20
14.5228
 30
0.0
 10
19.9435
 20
14.0514
 30
0.0
 10
20.0185
 20
13.5731
 30
0.0
 10
20.0492
 20
13.073
 30
0.0
  0
SPLINE
  5
CC
330
1F
100
AcDbEntity
  8
ILUSTRACE
 62
   250
100
AcDbSpline
210
0.0
220
0.0
230
1.0
 70
     8
 71
     3
 72
     8
 73
     4
 74
     0
 42
0.0000000001
 43
0.0000000001
 40
0.0
 40
0.0
 40
0.0
 40
0.0
 40
1.0
 40
1.0
 40
1.0
 40
1.0
 10
14.485
 20
17.6253
 30
0.0
 10
14.6139
 20
17.6196
 30
0.0
 10
14.5844
 20
17.4606
 30
0.0
 10
14.5844
 20
17.3768
 30
0.0
  0
SPLINE
  5
CD
330
1F
100
AcDbEntity
  8
ILUSTRACE
 62
   250
100
AcDbSpline
210
0.0
220
0.0
230
1.0
 70
     8
 71
     3
 72
     8
 73
     4
 74
     0
 42
0.0000000001
 43
0.0000000001
 40
0.0
 40
0.0
 40
0.0
 40
0.0
 40
1.0
 40
1.0
 40
1.0
 40
1.0
 10
10.7969
 20
17.3768
 30
0.0
 10
10.7969
 20
17.4519
 30
0.0
 10
10.7672
 20
17.6253
 30
0.0
 10
10.8963
 20
17.6253
 30
0.0
  0
SPLINE
  5
CE
330
1F
100
AcDbEntity
  8
ILUSTRACE
 62
   250
100
AcDbSpline
210
0.0
220
0.0
230
1.0
 70
    24
 71
     3
 72
    16
 73
    12
 74
     0
 42
0.0000000001
 43
0.0000000001
 40
0.0
 40
0.0
 40
0.0
 40
0.0
 40
0.25
 40
0.25
 40
0.25
 40
0.25
 40
0.5
 40
0.5
 40
0.5
 40
0.5
 40
1.0
 40
1.0
 40
1.0
 40
1.0
 10
10.8963
 20
17.6253
 30
0.0
 10
10.8963
 20
17.6253
 30
0.0
 10
11.8903
 20
17.6253
 30
0.0
 10
11.8903
 20
17.6253
 30
0.0
 10
11.8903
 20
17.6253
 30
0.0
 10
11.8903
 20
17.6253
 30
0.0
 10
13.4413
 20
17.6253
 30
0.0
 10
13.4413
 20
17.6253
 30
0.0
 10
13.4413
 20
17.6253
 30
0.0
 10
13.4413
 20
17.6253
 30
0.0
 10
14.4352
 20
17.6253
 30
0.0
 10
14.4352
 20
17.6253
 30
0.0
  0
SPLINE
  5
CF
330
1F
100
AcDbEntity
  8
ILUSTRACE
 62
   250
100
AcDbSpline
210
0.0
220
0.0
230
1.0
 70
     8
 71
     3
 72
     8
 73
     4
 74
     0
 42
0.0000000001
 43
0.0000000001
 40
0.0
 40
0.0
 40
0.0
 40
0.0
 40
1.0
 40
1.0
 40
1.0
 40
1.0
 10
13.6631
 20
17.3768
 30
0.0
 10
13.6631
 20
17.5437
 30
0.0
 10
13.6645
 20
17.6253
 30
0.0
 10
13.839
 20
17.6253
 30
0.0
  0
SPLINE
  5
D0
330
1F
100
AcDbEntity
  8
ILUSTRACE
 62
   250
100
AcDbSpline
210
0.0
220
0.0
230
1.0
 70
     8
 71
     3
 72
     8
 73
     4
 74
     0
 42
0.0000000001
 43
0.0000000001
 40
0.0
 40
0.0
 40
0.0
 40
0.0
 40
1.0
 40
1.0
 40
1.0
 40
1.0
 10
12.671
 20
17.6247
 30
0.0
 10
12.8118
 20
17.6303
 30
0.0
 10
12.7846
 20
17.4713
 30
0.0
 10
12.7846
 20
17.3768
 30
0.0
  0
SPLINE
  5
D1
330
1F
100
AcDbEntity
  8
ILUSTRACE
 62
   250
100
AcDbSpline
210
0.0
220
0.0
230
1.0
 70
     8
 71
     3
 72
     8
 73
     4
 74
     0
 42
0.0000000001
 43
0.0000000001
 40
0.0
 40
0.0
 40
0.0
 40
0.0
 40
1.0
 40
1.0
 40
1.0
 40
1.0
 10
0.3606
 20
17.3768
 30
0.0
 10
0.3606
 20
17.484
 30
0.0
 10
0.3557
 20
17.6249
 30
0.0
 10
0.2116
 20
17.6253
 30
0.0
  0
SPLINE
  5
D2
330
1F
100
AcDbEntity
  8
ILUSTRACE
 62
   250
100
AcDbSpline
210
0.0
220
0.0
230
1.0
 70
     8
 71
     3
 72
    20
 73
    16
 74
     0
 42
0.0000000001
 43
0.0000000001
 40
0.0
 40
0.0
 40
0.0
 40
0.0
 40
0.2
 40
0.2
 40
0.2
 40
0.2
 40
0.4
 40
0.4
 40
0.4
 40
0.4
 40
0.6
 40
0.6
 40
0.6
 40
0.6
 40
1.0
 40
1.0
 40
1.0
 40
1.0
 10
0.2116
 20
17.6253
 30
0.0
 10
0.2116
 20
17.6253
 30
0.0
 10
-0.708
 20
17.6253
 30
0.0
 10
-0.708
 20
17.6253
 30
0.0
 10
-0.708
 20
17.6253
 30
0.0
 10
-0.708
 20
17.6253
 30
0.0
 10
-1.6271
 20
17.6253
 30
0.0
 10
-1.6271
 20
17.6253
 30
0.0
 10
-1.6271
 20
17.6253
 30
0.0
 10
-1.6271
 20
17.6253
 30
0.0
 10
-2.3726
 20
17.623
 30
0.0
 10
-2.3726
 20
17.623
 30
0.0
 10
-2.3726
 20
17.623
 30
0.0
 10
-2.3726
 20
17.623
 30
0.0
 10
-2.9939
 20
17.623
 30
0.0
 10
-2.9939
 20
17.623
 30
0.0
  0
SPLINE
  5
D3
330
1F
100
AcDbEntity
  8
ILUSTRACE
 62
   250
100
AcDbSpline
210
0.0
220
0.0
230
1.0
 70
     8
 71
     3
 72
     8
 73
     4
 74
     0
 42
0.0000000001
 43
0.0000000001
 40
0.0
 40
0.0
 40
0.0
 40
0.0
 40
1.0
 40
1.0
 40
1.0
 40
1.0
 10
-2.9939
 20
17.623
 30
0.0
 10
-3.1205
 20
17.596
 30
0.0
 10
-3.1182
 20
17.4838
 30
0.0
 10
-3.1182
 20
17.3768
 30
0.0
  0
SPLINE
  5
D4
330
1F
100
AcDbEntity
  8
ILUSTRACE
 62
   250
100
AcDbSpline
210
0.0
220
0.0
230
1.0
 70
     8
 71
     3
 72
     8
 73
     4
 74
     0
 42
0.0000000001
 43
0.0000000001
 40
0.0
 40
0.0
 40
0.0
 40
0.0
 40
1.0
 40
1.0
 40
1.0
 40
1.0
 10
-1.4783
 20
17.6253
 30
0.0
 10
-1.6221
 20
17.6179
 30
0.0
 10
-1.6271
 20
17.4908
 30
0.0
 10
-1.6271
 20
17.3768
 30
0.0
  0
SPLINE
  5
D5
330
1F
100
AcDbEntity
  8
ILUSTRACE
 62
   250
100
AcDbSpline
210
0.0
220
0.0
230
1.0
 70
     8
 71
     3
 72
    16
 73
    12
 74
     0
 42
0.0000000001
 43
0.0000000001
 40
0.0
 40
0.0
 40
0.0
 40
0.0
 40
0.25
 40
0.25
 40
0.25
 40
0.25
 40
0.5
 40
0.5
 40
0.5
 40
0.5
 40
1.0
 40
1.0
 40
1.0
 40
1.0
 10
-8.8918
 20
13.073
 30
0.0
 10
-8.8918
 20
13.073
 30
0.0
 10
-9.8564
 20
12.8331
 30
0.0
 10
-9.8564
 20
12.8331
 30
0.0
 10
-9.8564
 20
12.8331
 30
0.0
 10
-9.8564
 20
12.8331
 30
0.0
 10
-10.4924
 20
12.6748
 30
0.0
 10
-10.4924
 20
12.6748
 30
0.0
 10
-10.4924
 20
12.6748
 30
0.0
 10
-10.4924
 20
12.6748
 30
0.0
 10
-11.4572
 20
12.4352
 30
0.0
 10
-11.4572
 20
12.4352
 30
0.0
  0
SPLINE
  5
D6
330
1F
100
AcDbEntity
  8
ILUSTRACE
 62
   250
100
AcDbSpline
210
0.0
220
0.0
230
1.0
 70
     8
 71
     3
 72
     8
 73
     4
 74
     0
 42
0.0000000001
 43
0.0000000001
 40
0.0
 40
0.0
 40
0.0
 40
0.0
 40
1.0
 40
1.0
 40
1.0
 40
1.0
 10
-11.4572
 20
12.4352
 30
0.0
 10
-11.5171
 20
12.4199
 30
0.0
 10
-11.5711
 20
12.3714
 30
0.0
 10
-11.5995
 20
12.3179
 30
0.0
  0
SPLINE
  5
D7
330
1F
100
AcDbEntity
  8
ILUSTRACE
 62
   250
100
AcDbSpline
210
0.0
220
0.0
230
1.0
 70
     8
 71
     3
 72
    12
 73
     8
 74
     0
 42
0.0000000001
 43
0.0000000001
 40
0.0
 40
0.0
 40
0.0
 40
0.0
 40
0.3333333333333333
 40
0.3333333333333333
 40
0.3333333333333333
 40
0.3333333333333333
 40
1.0
 40
1.0
 40
1.0
 40
1.0
 10
-11.6429
 20
11.2607
 30
0.0
 10
-12.8599
 20
11.0435
 30
0.0
 10
-14.0734
 20
10.7876
 30
0.0
 10
-15.2589
 20
10.4352
 30
0.0
 10
-15.2589
 20
10.4352
 30
0.0
 10
-16.1008
 20
10.185
 30
0.0
 10
-16.949
 20
9.8922
 30
0.0
 10
-17.7046
 20
9.4367
 30
0.0
  0
SPLINE
  5
D8
330
1F
100
AcDbEntity
  8
ILUSTRACE
 62
   250
100
AcDbSpline
210
0.0
220
0.0
230
1.0
 70
     8
 71
     3
 72
     8
 73
     4
 74
     0
 42
0.0000000001
 43
0.0000000001
 40
0.0
 40
0.0
 40
0.0
 40
0.0
 40
1.0
 40
1.0
 40
1.0
 40
1.0
 10
-18.3345
 20
8.3741
 30
0.0
 10
-18.338
 20
8.3629
 30
0.0
 10
-18.3396
 20
8.3522
 30
0.0
 10
-18.3401
 20
8.3406
 30
0.0
  0
SPLINE
  5
D9
330
1F
100
AcDbEntity
  8
ILUSTRACE
 62
   250
100
AcDbSpline
210
0.0
220
0.0
230
1.0
 70
     8
 71
     3
 72
    12
 73
     8
 74
     0
 42
0.0000000001
 43
0.0000000001
 40
0.0
 40
0.0
 40
0.0
 40
0.0
 40
0.3333333333333333
 40
0.3333333333333333
 40
0.3333333333333333
 40
0.3333333333333333
 40
1.0
 40
1.0
 40
1.0
 40
1.0
 10
-13.7659
 20
10.5512
 30
0.0
 10
-13.7659
 20
10.5512
 30
0.0
 10
-13.7573
 20
10.5495
 30
0.0
 10
-13.7573
 20
10.5495
 30
0.0
 10
-13.7573
 20
10.5495
 30
0.0
 10
-13.7573
 20
10.5495
 30
0.0
 10
-13.7559
 20
10.5389
 30
0.0
 10
-13.7559
 20
10.5389
 30
0.0
  0
SPLINE
  5
DA
330
1F
100
AcDbEntity
  8
ILUSTRACE
 62
   250
100
AcDbSpline
210
0.0
220
0.0
230
1.0
 70
     8
 71
     3
 72
     8
 73
     4
 74
     0
 42
0.0000000001
 43
0.0000000001
 40
0.0
 40
0.0
 40
0.0
 40
0.0
 40
1.0
 40
1.0
 40
1.0
 40
1.0
 10
-11.6141
 20
12.2858
 30
0.0
 10
-11.6251
 20
12.2585
 30
0.0
 10
-11.6309
 20
12.2311
 30
0.0
 10
-11.6311
 20
12.2017
 30
0.0
  0
SPLINE
  5
DB
330
1F
100
AcDbEntity
  8
ILUSTRACE
 62
   250
100
AcDbSpline
210
0.0
220
0.0
230
1.0
 70
    24
 71
     3
 72
     8
 73
     4
 74
     0
 42
0.0000000001
 43
0.0000000001
 40
0.0
 40
0.0
 40
0.0
 40
0.0
 40
1.0
 40
1.0
 40
1.0
 40
1.0
 10
-11.6311
 20
12.2017
 30
0.0
 10
-11.6311
 20
12.2017
 30
0.0
 10
-11.6429
 20
11.2202
 30
0.0
 10
-11.6429
 20
11.2202
 30
0.0
  0
SPLINE
  5
DC
330
1F
100
AcDbEntity
  8
ILUSTRACE
 62
   250
100
AcDbSpline
210
0.0
220
0.0
230
1.0
 70
     8
 71
     3
 72
     8
 73
     4
 74
     0
 42
0.0000000001
 43
0.0000000001
 40
0.0
 40
0.0
 40
0.0
 40
0.0
 40
1.0
 40
1.0
 40
1.0
 40
1.0
 10
29.7303
 20
8.4179
 30
0.0
 10
29.7604
 20
8.3987
 30
0.0
 10
29.7805
 20
8.3685
 30
0.0
 10
29.7805
 20
8.3321
 30
0.0
  0
SPLINE
  5
DD
330
1F
100
AcDbEntity
  8
ILUSTRACE
 62
   250
100
AcDbSpline
210
0.0
220
0.0
230
1.0
 70
    24
 71
     3
 72
    12
 73
     8
 74
     0
 42
0.0000000001
 43
0.0000000001
 40
0.0
 40
0.0
 40
0.0
 40
0.0
 40
0.3333333333333333
 40
0.3333333333333333
 40
0.3333333333333333
 40
0.3333333333333333
 40
1.0
 40
1.0
 40
1.0
 40
1.0
 10
29.7805
 20
8.3321
 30
0.0
 10
29.7805
 20
8.3321
 30
0.0
 10
29.7805
 20
7.7605
 30
0.0
 10
29.7805
 20
7.7605
 30
0.0
 10
29.7805
 20
7.7605
 30
0.0
 10
29.7805
 20
7.7605
 30
0.0
 10
29.7805
 20
7.1892
 30
0.0
 10
29.7805
 20
7.1892
 30
0.0
  0
SPLINE
  5
DE
330
1F
100
AcDbEntity
  8
ILUSTRACE
 62
   250
100
AcDbSpline
210
0.0
220
0.0
230
1.0
 70
     8
 71
     3
 72
    20
 73
    16
 74
     0
 42
0.0000000001
 43
0.0000000001
 40
0.0
 40
0.0
 40
0.0
 40
0.0
 40
0.2
 40
0.2
 40
0.2
 40
0.2
 40
0.4
 40
0.4
 40
0.4
 40
0.4
 40
0.6
 40
0.6
 40
0.6
 40
0.6
 40
1.0
 40
1.0
 40
1.0
 40
1.0
 10
22.7931
 20
11.2295
 30
0.0
 10
23.2325
 20
11.1289
 30
0.0
 10
23.6806
 20
11.0619
 30
0.0
 10
24.1213
 20
10.9684
 30
0.0
 10
24.1213
 20
10.9684
 30
0.0
 10
25.4939
 20
10.6778
 30
0.0
 10
26.8954
 20
10.3389
 30
0.0
 10
28.172
 20
9.743
 30
0.0
 10
28.172
 20
9.743
 30
0.0
 10
28.5697
 20
9.5575
 30
0.0
 10
28.9536
 20
9.341
 30
0.0
 10
29.2865
 20
9.0533
 30
0.0
 10
29.2865
 20
9.0533
 30
0.0
 10
29.4962
 20
8.8722
 30
0.0
 10
29.6929
 20
8.6555
 30
0.0
 10
29.7665
 20
8.3818
 30
0.0
  0
SPLINE
  5
DF
330
1F
100
AcDbEntity
  8
ILUSTRACE
 62
   250
100
AcDbSpline
210
0.0
220
0.0
230
1.0
 70
     8
 71
     3
 72
     8
 73
     4
 74
     0
 42
0.0000000001
 43
0.0000000001
 40
0.0
 40
0.0
 40
0.0
 40
0.0
 40
1.0
 40
1.0
 40
1.0
 40
1.0
 10
28.8749
 20
9.362
 30
0.0
 10
28.9315
 20
10.0117
 30
0.0
 10
28.9673
 20
10.6625
 30
0.0
 10
29.0018
 20
11.3138
 30
0.0
  0
SPLINE
  5
E0
330
1F
100
AcDbEntity
  8
ILUSTRACE
 62
   250
100
AcDbSpline
210
0.0
220
0.0
230
1.0
 70
    24
 71
     3
 72
     8
 73
     4
 74
     0
 42
0.0000000001
 43
0.0000000001
 40
0.0
 40
0.0
 40
0.0
 40
0.0
 40
1.0
 40
1.0
 40
1.0
 40
1.0
 10
29.087
 20
11.412
 30
0.0
 10
29.087
 20
11.412
 30
0.0
 10
29.6813
 20
11.4132
 30
0.0
 10
29.6813
 20
11.4132
 30
0.0
  0
SPLINE
  5
E1
330
1F
100
AcDbEntity
  8
ILUSTRACE
 62
   250
100
AcDbSpline
210
0.0
220
0.0
230
1.0
 70
     8
 71
     3
 72
     8
 73
     4
 74
     0
 42
0.0000000001
 43
0.0000000001
 40
0.0
 40
0.0
 40
0.0
 40
0.0
 40
1.0
 40
1.0
 40
1.0
 40
1.0
 10
22.6471
 20
12.4217
 30
0.0
 10
22.6934
 20
12.4006
 30
0.0
 10
22.733
 20
12.3629
 30
0.0
 10
22.757
 20
12.3179
 30
0.0
  0
SPLINE
  5
E2
330
1F
100
AcDbEntity
  8
ILUSTRACE
 62
   250
100
AcDbSpline
210
0.0
220
0.0
230
1.0
 70
     8
 71
     3
 72
     8
 73
     4
 74
     0
 42
0.0000000001
 43
0.0000000001
 40
0.0
 40
0.0
 40
0.0
 40
0.0
 40
1.0
 40
1.0
 40
1.0
 40
1.0
 10
22.7717
 20
12.2858
 30
0.0
 10
22.7826
 20
12.2583
 30
0.0
 10
22.7882
 20
12.2311
 30
0.0
 10
22.7887
 20
12.2017
 30
0.0
  0
SPLINE
  5
E3
330
1F
100
AcDbEntity
  8
ILUSTRACE
 62
   250
100
AcDbSpline
210
0.0
220
0.0
230
1.0
 70
    24
 71
     3
 72
     8
 73
     4
 74
     0
 42
0.0000000001
 43
0.0000000001
 40
0.0
 40
0.0
 40
0.0
 40
0.0
 40
1.0
 40
1.0
 40
1.0
 40
1.0
 10
22.7887
 20
12.2017
 30
0.0
 10
22.7887
 20
12.2017
 30
0.0
 10
22.8008
 20
11.2221
 30
0.0
 10
22.8008
 20
11.2221
 30
0.0
  0
SPLINE
  5
E4
330
1F
100
AcDbEntity
  8
ILUSTRACE
 62
   250
100
AcDbSpline
210
0.0
220
0.0
230
1.0
 70
     8
 71
     3
 72
    12
 73
     8
 74
     0
 42
0.0000000001
 43
0.0000000001
 40
0.0
 40
0.0
 40
0.0
 40
0.0
 40
0.3333333333333333
 40
0.3333333333333333
 40
0.3333333333333333
 40
0.3333333333333333
 40
1.0
 40
1.0
 40
1.0
 40
1.0
 10
-17.6429
 20
8.7551
 30
0.0
 10
-17.3079
 20
9.1488
 30
0.0
 10
-16.8424
 20
9.4218
 30
0.0
 10
-16.3783
 20
9.6385
 30
0.0
 10
-16.3783
 20
9.6385
 30
0.0
 10
-15.5345
 20
10.0326
 30
0.0
 10
-14.6511
 20
10.3
 30
0.0
 10
-13.7557
 20
10.5489
 30
0.0
  0
SPLINE
  5
E5
330
1F
100
AcDbEntity
  8
ILUSTRACE
 62
   250
100
AcDbSpline
210
0.0
220
0.0
230
1.0
 70
     8
 71
     3
 72
     8
 73
     4
 74
     0
 42
0.0000000001
 43
0.0000000001
 40
0.0
 40
0.0
 40
0.0
 40
0.0
 40
1.0
 40
1.0
 40
1.0
 40
1.0
 10
-13.5564
 20
10.6008
 30
0.0
 10
-12.8304
 20
10.7847
 30
0.0
 10
-12.0987
 20
10.9442
 30
0.0
 10
-11.3623
 20
11.0831
 30
0.0
  0
SPLINE
  5
E6
330
1F
100
AcDbEntity
  8
ILUSTRACE
 62
   250
100
AcDbSpline
210
0.0
220
0.0
230
1.0
 70
     8
 71
     3
 72
     8
 73
     4
 74
     0
 42
0.0000000001
 43
0.0000000001
 40
0.0
 40
0.0
 40
0.0
 40
0.0
 40
1.0
 40
1.0
 40
1.0
 40
1.0
 10
-11.6377
 20
11.2122
 30
0.0
 10
-11.6178
 20
11.1969
 30
0.0
 10
-11.5953
 20
11.1895
 30
0.0
 10
-11.5711
 20
11.1834
 30
0.0
  0
SPLINE
  5
E7
330
1F
100
AcDbEntity
  8
ILUSTRACE
 62
   250
100
AcDbSpline
210
0.0
220
0.0
230
1.0
 70
    24
 71
     3
 72
     8
 73
     4
 74
     0
 42
0.0000000001
 43
0.0000000001
 40
0.0
 40
0.0
 40
0.0
 40
0.0
 40
1.0
 40
1.0
 40
1.0
 40
1.0
 10
-11.5711
 20
11.1834
 30
0.0
 10
-11.5711
 20
11.1834
 30
0.0
 10
-11.3122
 20
11.1184
 30
0.0
 10
-11.3122
 20
11.1184
 30
0.0
  0
SPLINE
  5
E8
330
1F
100
AcDbEntity
  8
ILUSTRACE
 62
   250
100
AcDbSpline
210
0.0
220
0.0
230
1.0
 70
     8
 71
     3
 72
     8
 73
     4
 74
     0
 42
0.0000000001
 43
0.0000000001
 40
0.0
 40
0.0
 40
0.0
 40
0.0
 40
1.0
 40
1.0
 40
1.0
 40
1.0
 10
-18.3468
 20
8.4076
 30
0.0
 10
-18.4437
 20
9.4092
 30
0.0
 10
-18.5205
 20
10.4089
 30
0.0
 10
-18.5803
 20
11.4132
 30
0.0
  0
SPLINE
  5
E9
330
1F
100
AcDbEntity
  8
ILUSTRACE
 62
   250
100
AcDbSpline
210
0.0
220
0.0
230
1.0
 70
     8
 71
     3
 72
     8
 73
     4
 74
     0
 42
0.0000000001
 43
0.0000000001
 40
0.0
 40
0.0
 40
0.0
 40
0.0
 40
1.0
 40
1.0
 40
1.0
 40
1.0
 10
-13.5667
 20
10.6027
 30
0.0
 10
-13.633
 20
10.5859
 30
0.0
 10
-13.6995
 20
10.5684
 30
0.0
 10
-13.7659
 20
10.5512
 30
0.0
  0
SPLINE
  5
EA
330
1F
100
AcDbEntity
  8
ILUSTRACE
 62
   250
100
AcDbSpline
210
0.0
220
0.0
230
1.0
 70
     8
 71
     3
 72
     8
 73
     4
 74
     0
 42
0.0000000001
 43
0.0000000001
 40
0.0
 40
0.0
 40
0.0
 40
0.0
 40
1.0
 40
1.0
 40
1.0
 40
1.0
 10
13.4172
 20
17.6253
 30
0.0
 10
13.5197
 20
17.6061
 30
0.0
 10
13.4875
 20
17.4382
 30
0.0
 10
13.4875
 20
17.3768
 30
0.0
  0
SPLINE
  5
EB
330
1F
100
AcDbEntity
  8
ILUSTRACE
 62
   250
100
AcDbSpline
210
0.0
220
0.0
230
1.0
 70
     8
 71
     3
 72
     8
 73
     4
 74
     0
 42
0.0000000001
 43
0.0000000001
 40
0.0
 40
0.0
 40
0.0
 40
0.0
 40
1.0
 40
1.0
 40
1.0
 40
1.0
 10
14.3138
 20
17.6219
 30
0.0
 10
14.394
 20
17.5749
 30
0.0
 10
14.366
 20
17.4478
 30
0.0
 10
14.366
 20
17.3768
 30
0.0
  0
SPLINE
  5
EC
330
1F
100
AcDbEntity
  8
ILUSTRACE
 62
   250
100
AcDbSpline
210
0.0
220
0.0
230
1.0
 70
     8
 71
     3
 72
     8
 73
     4
 74
     0
 42
0.0000000001
 43
0.0000000001
 40
0.0
 40
0.0
 40
0.0
 40
0.0
 40
1.0
 40
1.0
 40
1.0
 40
1.0
 10
13.3525
 20
17.616
 30
0.0
 10
13.3621
 20
17.6214
 30
0.0
 10
13.3709
 20
17.6246
 30
0.0
 10
13.3819
 20
17.6253
 30
0.0
  0
SPLINE
  5
ED
330
1F
100
AcDbEntity
  8
ILUSTRACE
 62
   250
100
AcDbSpline
210
0.0
220
0.0
230
1.0
 70
    24
 71
     3
 72
     8
 73
     4
 74
     0
 42
0.0000000001
 43
0.0000000001
 40
0.0
 40
0.0
 40
0.0
 40
0.0
 40
1.0
 40
1.0
 40
1.0
 40
1.0
 10
13.839
 20
17.6094
 30
0.0
 10
13.839
 20
17.5318
 30
0.0
 10
13.839
 20
17.4545
 30
0.0
 10
13.839
 20
17.3768
 30
0.0
  0
SPLINE
  5
EE
330
1F
100
AcDbEntity
  8
ILUSTRACE
 62
   250
100
AcDbSpline
210
0.0
220
0.0
230
1.0
 70
    24
 71
     3
 72
     8
 73
     4
 74
     0
 42
0.0000000001
 43
0.0000000001
 40
0.0
 40
0.0
 40
0.0
 40
0.0
 40
1.0
 40
1.0
 40
1.0
 40
1.0
 10
-2.222
 20
17.6253
 30
0.0
 10
-2.222
 20
17.6253
 30
0.0
 10
-2.2472
 20
17.623
 30
0.0
 10
-2.2472
 20
17.623
 30
0.0
  0
SPLINE
  5
EF
330
1F
100
AcDbEntity
  8
ILUSTRACE
 62
   250
100
AcDbSpline
210
0.0
220
0.0
230
1.0
 70
    24
 71
     3
 72
     8
 73
     4
 74
     0
 42
0.0000000001
 43
0.0000000001
 40
0.0
 40
0.0
 40
0.0
 40
0.0
 40
1.0
 40
1.0
 40
1.0
 40
1.0
 10
15.7641
 20
14.1384
 30
0.0
 10
15.7641
 20
14.1384
 30
0.0
 10
15.6768
 20
14.147
 30
0.0
 10
15.6768
 20
14.147
 30
0.0
  0
SPLINE
  5
F0
330
1F
100
AcDbEntity
  8
ILUSTRACE
 62
   250
100
AcDbSpline
210
0.0
220
0.0
230
1.0
 70
     8
 71
     3
 72
     8
 73
     4
 74
     0
 42
0.0000000001
 43
0.0000000001
 40
0.0
 40
0.0
 40
0.0
 40
0.0
 40
1.0
 40
1.0
 40
1.0
 40
1.0
 10
15.6768
 20
14.147
 30
0.0
 10
15.468
 20
14.1047
 30
0.0
 10
15.5586
 20
13.8107
 30
0.0
 10
15.5704
 20
13.6759
 30
0.0
  0
SPLINE
  5
F1
330
1F
100
AcDbEntity
  8
ILUSTRACE
 62
   250
100
AcDbSpline
210
0.0
220
0.0
230
1.0
 70
     8
 71
     3
 72
    12
 73
     8
 74
     0
 42
0.0000000001
 43
0.0000000001
 40
0.0
 40
0.0
 40
0.0
 40
0.0
 40
0.3333333333333333
 40
0.3333333333333333
 40
0.3333333333333333
 40
0.3333333333333333
 40
1.0
 40
1.0
 40
1.0
 40
1.0
 10
15.5704
 20
13.6759
 30
0.0
 10
15.5704
 20
13.6759
 30
0.0
 10
15.5888
 20
13.4648
 30
0.0
 10
15.5888
 20
13.4648
 30
0.0
 10
15.5888
 20
13.4648
 30
0.0
 10
15.5888
 20
13.4648
 30
0.0
 10
15.6
 20
13.2469
 30
0.0
 10
15.6
 20
13.2469
 30
0.0
  0
SPLINE
  5
F2
330
1F
100
AcDbEntity
  8
ILUSTRACE
 62
   250
100
AcDbSpline
210
0.0
220
0.0
230
1.0
 70
     8
 71
     3
 72
     8
 73
     4
 74
     0
 42
0.0000000001
 43
0.0000000001
 40
0.0
 40
0.0
 40
0.0
 40
0.0
 40
1.0
 40
1.0
 40
1.0
 40
1.0
 10
15.6
 20
13.2469
 30
0.0
 10
15.6221
 20
11.9765
 30
0.0
 10
15.603
 20
10.692
 30
0.0
 10
15.6028
 20
9.4251
 30
0.0
  0
SPLINE
  5
F3
330
1F
100
AcDbEntity
  8
ILUSTRACE
 62
   250
100
AcDbSpline
210
0.0
220
0.0
230
1.0
 70
    24
 71
     3
 72
     8
 73
     4
 74
     0
 42
0.0000000001
 43
0.0000000001
 40
0.0
 40
0.0
 40
0.0
 40
0.0
 40
1.0
 40
1.0
 40
1.0
 40
1.0
 10
15.6028
 20
9.4251
 30
0.0
 10
15.6028
 20
9.4251
 30
0.0
 10
15.6025
 20
8.4315
 30
0.0
 10
15.6025
 20
8.4315
 30
0.0
  0
SPLINE
  5
F4
330
1F
100
AcDbEntity
  8
ILUSTRACE
 62
   250
100
AcDbSpline
210
0.0
220
0.0
230
1.0
 70
    24
 71
     3
 72
    16
 73
    12
 74
     0
 42
0.0000000001
 43
0.0000000001
 40
0.0
 40
0.0
 40
0.0
 40
0.0
 40
0.25
 40
0.25
 40
0.25
 40
0.25
 40
0.5
 40
0.5
 40
0.5
 40
0.5
 40
1.0
 40
1.0
 40
1.0
 40
1.0
 10
22.7098
 20
8.3321
 30
0.0
 10
22.7098
 20
8.3321
 30
0.0
 10
22.7098
 20
9.3257
 30
0.0
 10
22.7098
 20
9.3257
 30
0.0
 10
22.7098
 20
9.3257
 30
0.0
 10
22.7098
 20
9.3257
 30
0.0
 10
22.7098
 20
10.162
 30
0.0
 10
22.7098
 20
10.162
 30
0.0
 10
22.7098
 20
10.162
 30
0.0
 10
22.7098
 20
10.162
 30
0.0
 10
22.7098
 20
11.1559
 30
0.0
 10
22.7098
 20
11.1559
 30
0.0
  0
SPLINE
  5
F5
330
1F
100
AcDbEntity
  8
ILUSTRACE
 62
   250
100
AcDbSpline
210
0.0
220
0.0
230
1.0
 70
     8
 71
     3
 72
     8
 73
     4
 74
     0
 42
0.0000000001
 43
0.0000000001
 40
0.0
 40
0.0
 40
0.0
 40
0.0
 40
1.0
 40
1.0
 40
1.0
 40
1.0
 10
22.7098
 20
11.1559
 30
0.0
 10
22.7098
 20
11.1895
 30
0.0
 10
22.6983
 20
11.219
 30
0.0
 10
22.6746
 20
11.2427
 30
0.0
  0
SPLINE
  5
F6
330
1F
100
AcDbEntity
  8
ILUSTRACE
 62
   250
100
AcDbSpline
210
0.0
220
0.0
230
1.0
 70
     8
 71
     3
 72
     8
 73
     4
 74
     0
 42
0.0000000001
 43
0.0000000001
 40
0.0
 40
0.0
 40
0.0
 40
0.0
 40
1.0
 40
1.0
 40
1.0
 40
1.0
 10
22.6746
 20
11.2427
 30
0.0
 10
22.7021
 20
11.2379
 30
0.0
 10
22.7304
 20
11.2309
 30
0.0
 10
22.7584
 20
11.2298
 30
0.0
  0
SPLINE
  5
F7
330
1F
100
AcDbEntity
  8
ILUSTRACE
 62
   250
100
AcDbSpline
210
0.0
220
0.0
230
1.0
 70
     8
 71
     3
 72
     8
 73
     4
 74
     0
 42
0.0000000001
 43
0.0000000001
 40
0.0
 40
0.0
 40
0.0
 40
0.0
 40
1.0
 40
1.0
 40
1.0
 40
1.0
 10
22.7098
 20
8.3321
 30
0.0
 10
22.7086
 20
8.3647
 30
0.0
 10
22.6995
 20
8.3959
 30
0.0
 10
22.6746
 20
8.4179
 30
0.0
  0
SPLINE
  5
F8
330
1F
100
AcDbEntity
  8
ILUSTRACE
 62
   250
100
AcDbSpline
210
0.0
220
0.0
230
1.0
 70
     8
 71
     3
 72
    12
 73
     8
 74
     0
 42
0.0000000001
 43
0.0000000001
 40
0.0
 40
0.0
 40
0.0
 40
0.0
 40
0.3333333333333333
 40
0.3333333333333333
 40
0.3333333333333333
 40
0.3333333333333333
 40
1.0
 40
1.0
 40
1.0
 40
1.0
 10
22.6746
 20
8.4179
 30
0.0
 10
22.6746
 20
8.4179
 30
0.0
 10
22.5866
 20
8.4178
 30
0.0
 10
22.5866
 20
8.4178
 30
0.0
 10
22.5866
 20
8.4178
 30
0.0
 10
22.5866
 20
8.4178
 30
0.0
 10
22.4437
 20
8.4315
 30
0.0
 10
22.4437
 20
8.4315
 30
0.0
  0
SPLINE
  5
F9
330
1F
100
AcDbEntity
  8
ILUSTRACE
 62
   250
100
AcDbSpline
210
0.0
220
0.0
230
1.0
 70
    24
 71
     3
 72
    12
 73
     8
 74
     0
 42
0.0000000001
 43
0.0000000001
 40
0.0
 40
0.0
 40
0.0
 40
0.0
 40
0.3333333333333333
 40
0.3333333333333333
 40
0.3333333333333333
 40
0.3333333333333333
 40
1.0
 40
1.0
 40
1.0
 40
1.0
 10
7.2946
 20
7.1892
 30
0.0
 10
7.2946
 20
7.1892
 30
0.0
 10
7.2946
 20
7.7605
 30
0.0
 10
7.2946
 20
7.7605
 30
0.0
 10
7.2946
 20
7.7605
 30
0.0
 10
7.2946
 20
7.7605
 30
0.0
 10
7.2946
 20
8.3321
 30
0.0
 10
7.2946
 20
8.3321
 30
0.0
  0
SPLINE
  5
FA
330
1F
100
AcDbEntity
  8
ILUSTRACE
 62
   250
100
AcDbSpline
210
0.0
220
0.0
230
1.0
 70
     8
 71
     3
 72
     8
 73
     4
 74
     0
 42
0.0000000001
 43
0.0000000001
 40
0.0
 40
0.0
 40
0.0
 40
0.0
 40
1.0
 40
1.0
 40
1.0
 40
1.0
 10
7.2946
 20
8.3321
 30
0.0
 10
7.2946
 20
8.3657
 30
0.0
 10
7.2758
 20
8.3941
 30
0.0
 10
7.2488
 20
8.4136
 30
0.0
  0
SPLINE
  5
FB
330
1F
100
AcDbEntity
  8
ILUSTRACE
 62
   250
100
AcDbSpline
210
0.0
220
0.0
230
1.0
 70
     8
 71
     3
 72
     8
 73
     4
 74
     0
 42
0.0000000001
 43
0.0000000001
 40
0.0
 40
0.0
 40
0.0
 40
0.0
 40
1.0
 40
1.0
 40
1.0
 40
1.0
 10
5.8768
 20
12.7039
 30
0.0
 10
5.8717
 20
12.7572
 30
0.0
 10
5.8517
 20
12.7953
 30
0.0
 10
5.8022
 20
12.82
 30
0.0
  0
SPLINE
  5
FC
330
1F
100
AcDbEntity
  8
ILUSTRACE
 62
   250
100
AcDbSpline
210
0.0
220
0.0
230
1.0
 70
     8
 71
     3
 72
     8
 73
     4
 74
     0
 42
0.0000000001
 43
0.0000000001
 40
0.0
 40
0.0
 40
0.0
 40
0.0
 40
1.0
 40
1.0
 40
1.0
 40
1.0
 10
5.2807
 20
12.7039
 30
0.0
 10
5.2858
 20
12.7572
 30
0.0
 10
5.3058
 20
12.7953
 30
0.0
 10
5.3552
 20
12.82
 30
0.0
  0
SPLINE
  5
FD
330
1F
100
AcDbEntity
  8
ILUSTRACE
 62
   250
100
AcDbSpline
210
0.0
220
0.0
230
1.0
 70
     8
 71
     3
 72
    12
 73
     8
 74
     0
 42
0.0000000001
 43
0.0000000001
 40
0.0
 40
0.0
 40
0.0
 40
0.0
 40
0.3333333333333333
 40
0.3333333333333333
 40
0.3333333333333333
 40
0.3333333333333333
 40
1.0
 40
1.0
 40
1.0
 40
1.0
 10
5.7768
 20
12.8237
 30
0.0
 10
5.7768
 20
12.8237
 30
0.0
 10
5.6449
 20
12.8228
 30
0.0
 10
5.6449
 20
12.8228
 30
0.0
 10
5.6449
 20
12.8228
 30
0.0
 10
5.6449
 20
12.8228
 30
0.0
 10
5.3806
 20
12.8237
 30
0.0
 10
5.3806
 20
12.8237
 30
0.0
  0
SPLINE
  5
FE
330
1F
100
AcDbEntity
  8
ILUSTRACE
 62
   250
100
AcDbSpline
210
0.0
220
0.0
230
1.0
 70
    24
 71
     3
 72
     8
 73
     4
 74
     0
 42
0.0000000001
 43
0.0000000001
 40
0.0
 40
0.0
 40
0.0
 40
0.0
 40
1.0
 40
1.0
 40
1.0
 40
1.0
 10
-17.5302
 20
4.2072
 30
0.0
 10
-17.5302
 20
4.2072
 30
0.0
 10
28.6875
 20
4.2072
 30
0.0
 10
28.6875
 20
4.2072
 30
0.0
  0
SPLINE
  5
FF
330
1F
100
AcDbEntity
  8
ILUSTRACE
 62
   250
100
AcDbSpline
210
0.0
220
0.0
230
1.0
 70
    24
 71
     3
 72
     8
 73
     4
 74
     0
 42
0.0000000001
 43
0.0000000001
 40
0.0
 40
0.0
 40
0.0
 40
0.0
 40
1.0
 40
1.0
 40
1.0
 40
1.0
 10
-17.5302
 20
3.2133
 30
0.0
 10
-17.5302
 20
3.2133
 30
0.0
 10
28.6875
 20
3.2133
 30
0.0
 10
28.6875
 20
3.2133
 30
0.0
  0
SPLINE
  5
100
330
1F
100
AcDbEntity
  8
ILUSTRACE
 62
   250
100
AcDbSpline
210
0.0
220
0.0
230
1.0
 70
    24
 71
     3
 72
     8
 73
     4
 74
     0
 42
0.0000000001
 43
0.0000000001
 40
0.0
 40
0.0
 40
0.0
 40
0.0
 40
1.0
 40
1.0
 40
1.0
 40
1.0
 10
28.6875
 20
4.2072
 30
0.0
 10
28.6875
 20
4.2072
 30
0.0
 10
28.6875
 20
3.2133
 30
0.0
 10
28.6875
 20
3.2133
 30
0.0
  0
SPLINE
  5
101
330
1F
100
AcDbEntity
  8
ILUSTRACE
 62
   250
100
AcDbSpline
210
0.0
220
0.0
230
1.0
 70
    24
 71
     3
 72
     8
 73
     4
 74
     0
 42
0.0000000001
 43
0.0000000001
 40
0.0
 40
0.0
 40
0.0
 40
0.0
 40
1.0
 40
1.0
 40
1.0
 40
1.0
 10
-17.5302
 20
4.2072
 30
0.0
 10
-17.5302
 20
4.2072
 30
0.0
 10
-17.5302
 20
3.2133
 30
0.0
 10
-17.5302
 20
3.2133
 30
0.0
  0
SPLINE
  5
102
330
1F
100
AcDbEntity
  8
ILUSTRACE
 62
   250
100
AcDbSpline
210
0.0
220
0.0
230
1.0
 70
    24
 71
     3
 72
     8
 73
     4
 74
     0
 42
0.0000000001
 43
0.0000000001
 40
0.0
 40
0.0
 40
0.0
 40
0.0
 40
1.0
 40
1.0
 40
1.0
 40
1.0
 10
25.4572
 20
1.7222
 30
0.0
 10
25.4572
 20
1.7222
 30
0.0
 10
-14.2996
 20
1.7222
 30
0.0
 10
-14.2996
 20
1.7222
 30
0.0
  0
SPLINE
  5
103
330
1F
100
AcDbEntity
  8
ILUSTRACE
 62
   250
100
AcDbSpline
210
0.0
220
0.0
230
1.0
 70
    24
 71
     3
 72
     8
 73
     4
 74
     0
 42
0.0000000001
 43
0.0000000001
 40
0.0
 40
0.0
 40
0.0
 40
0.0
 40
1.0
 40
1.0
 40
1.0
 40
1.0
 10
-17.5302
 20
6.1951
 30
0.0
 10
-17.5302
 20
6.1951
 30
0.0
 10
-17.5302
 20
7.1892
 30
0.0
 10
-17.5302
 20
7.1892
 30
0.0
  0
SPLINE
  5
104
330
1F
100
AcDbEntity
  8
ILUSTRACE
 62
   250
100
AcDbSpline
210
0.0
220
0.0
230
1.0
 70
    24
 71
     3
 72
     8
 73
     4
 74
     0
 42
0.0000000001
 43
0.0000000001
 40
0.0
 40
0.0
 40
0.0
 40
0.0
 40
1.0
 40
1.0
 40
1.0
 40
1.0
 10
28.6875
 20
6.1951
 30
0.0
 10
28.6875
 20
6.1951
 30
0.0
 10
-17.5302
 20
6.1951
 30
0.0
 10
-17.5302
 20
6.1951
 30
0.0
  0
SPLINE
  5
105
330
1F
100
AcDbEntity
  8
ILUSTRACE
 62
   250
100
AcDbSpline
210
0.0
220
0.0
230
1.0
 70
    24
 71
     3
 72
     8
 73
     4
 74
     0
 42
0.0000000001
 43
0.0000000001
 40
0.0
 40
0.0
 40
0.0
 40
0.0
 40
1.0
 40
1.0
 40
1.0
 40
1.0
 10
28.6875
 20
7.1892
 30
0.0
 10
28.6875
 20
7.1892
 30
0.0
 10
28.6875
 20
6.1951
 30
0.0
 10
28.6875
 20
6.1951
 30
0.0
  0
SPLINE
  5
106
330
1F
100
AcDbEntity
  8
ILUSTRACE
 62
   250
100
AcDbSpline
210
0.0
220
0.0
230
1.0
 70
    24
 71
     3
 72
     8
 73
     4
 74
     0
 42
0.0000000001
 43
0.0000000001
 40
0.0
 40
0.0
 40
0.0
 40
0.0
 40
1.0
 40
1.0
 40
1.0
 40
1.0
 10
8.5951
 20
7.1892
 30
0.0
 10
8.5951
 20
7.1892
 30
0.0
 10
7.2946
 20
7.1892
 30
0.0
 10
7.2946
 20
7.1892
 30
0.0
  0
SPLINE
  5
107
330
1F
100
AcDbEntity
  8
ILUSTRACE
 62
   250
100
AcDbSpline
210
0.0
220
0.0
230
1.0
 70
    24
 71
     3
 72
     8
 73
     4
 74
     0
 42
0.0000000001
 43
0.0000000001
 40
0.0
 40
0.0
 40
0.0
 40
0.0
 40
1.0
 40
1.0
 40
1.0
 40
1.0
 10
25.1734
 20
-12.53
 30
0.0
 10
25.1734
 20
-12.53
 30
0.0
 10
-14.0161
 20
-12.53
 30
0.0
 10
-14.0161
 20
-12.53
 30
0.0
  0
SPLINE
  5
108
330
1F
100
AcDbEntity
  8
ILUSTRACE
 62
   250
100
AcDbSpline
210
0.0
220
0.0
230
1.0
 70
     8
 71
     3
 72
    16
 73
    12
 74
     0
 42
0.0000000001
 43
0.0000000001
 40
0.0
 40
0.0
 40
0.0
 40
0.0
 40
0.25
 40
0.25
 40
0.25
 40
0.25
 40
0.5
 40
0.5
 40
0.5
 40
0.5
 40
1.0
 40
1.0
 40
1.0
 40
1.0
 10
25.7057
 20
3.2133
 30
0.0
 10
25.7057
 20
3.2133
 30
0.0
 10
25.4572
 20
1.7222
 30
0.0
 10
25.4572
 20
1.7222
 30
0.0
 10
25.4572
 20
1.7222
 30
0.0
 10
25.4572
 20
1.7222
 30
0.0
 10
25.4375
 20
0.7286
 30
0.0
 10
25.4375
 20
0.7286
 30
0.0
 10
25.4375
 20
0.7286
 30
0.0
 10
25.4375
 20
0.7286
 30
0.0
 10
25.1932
 20
-11.5363
 30
0.0
 10
25.1932
 20
-11.5363
 30
0.0
  0
SPLINE
  5
109
330
1F
100
AcDbEntity
  8
ILUSTRACE
 62
   250
100
AcDbSpline
210
0.0
220
0.0
230
1.0
 70
     8
 71
     3
 72
    16
 73
    12
 74
     0
 42
0.0000000001
 43
0.0000000001
 40
0.0
 40
0.0
 40
0.0
 40
0.0
 40
0.25
 40
0.25
 40
0.25
 40
0.25
 40
0.5
 40
0.5
 40
0.5
 40
0.5
 40
1.0
 40
1.0
 40
1.0
 40
1.0
 10
25.1932
 20
-11.5363
 30
0.0
 10
25.179
 20
-12.2587
 30
0.0
 10
25.2021
 20
-12.9704
 30
0.0
 10
25.0023
 20
-13.6703
 30
0.0
 10
25.0023
 20
-13.6703
 30
0.0
 10
24.6099
 20
-15.043
 30
0.0
 10
23.5565
 20
-16.1683
 30
0.0
 10
22.2128
 20
-16.6506
 30
0.0
 10
22.2128
 20
-16.6506
 30
0.0
 10
21.7189
 20
-16.8279
 30
0.0
 10
21.2228
 20
-16.8912
 30
0.0
 10
20.7018
 20
-16.9136
 30
0.0
  0
SPLINE
  5
10A
330
1F
100
AcDbEntity
  8
ILUSTRACE
 62
   250
100
AcDbSpline
210
0.0
220
0.0
230
1.0
 70
    24
 71
     3
 72
    12
 73
     8
 74
     0
 42
0.0000000001
 43
0.0000000001
 40
0.0
 40
0.0
 40
0.0
 40
0.0
 40
0.3333333333333333
 40
0.3333333333333333
 40
0.3333333333333333
 40
0.3333333333333333
 40
1.0
 40
1.0
 40
1.0
 40
1.0
 10
20.7018
 20
-16.9136
 30
0.0
 10
20.7018
 20
-16.9136
 30
0.0
 10
19.7077
 20
-16.9136
 30
0.0
 10
19.7077
 20
-16.9136
 30
0.0
 10
19.7077
 20
-16.9136
 30
0.0
 10
19.7077
 20
-16.9136
 30
0.0
 10
-8.5503
 20
-16.9136
 30
0.0
 10
-8.5503
 20
-16.9136
 30
0.0
  0
SPLINE
  5
10B
330
1F
100
AcDbEntity
  8
ILUSTRACE
 62
   250
100
AcDbSpline
210
0.0
220
0.0
230
1.0
 70
     8
 71
     3
 72
    16
 73
    12
 74
     0
 42
0.0000000001
 43
0.0000000001
 40
0.0
 40
0.0
 40
0.0
 40
0.0
 40
0.25
 40
0.25
 40
0.25
 40
0.25
 40
0.5
 40
0.5
 40
0.5
 40
0.5
 40
1.0
 40
1.0
 40
1.0
 40
1.0
 10
-8.5503
 20
-16.9136
 30
0.0
 10
-9.2731
 20
-16.9136
 30
0.0
 10
-9.9836
 20
-16.9513
 30
0.0
 10
-10.6875
 20
-16.7651
 30
0.0
 10
-10.6875
 20
-16.7651
 30
0.0
 10
-12.1975
 20
-16.3657
 30
0.0
 10
-13.4153
 20
-15.172
 30
0.0
 10
-13.8446
 20
-13.6703
 30
0.0
 10
-13.8446
 20
-13.6703
 30
0.0
 10
-14.0449
 20
-12.9704
 30
0.0
 10
-14.0214
 20
-12.2587
 30
0.0
 10
-14.0357
 20
-11.5363
 30
0.0
  0
SPLINE
  5
10C
330
1F
100
AcDbEntity
  8
ILUSTRACE
 62
   250
100
AcDbSpline
210
0.0
220
0.0
230
1.0
 70
     8
 71
     3
 72
    16
 73
    12
 74
     0
 42
0.0000000001
 43
0.0000000001
 40
0.0
 40
0.0
 40
0.0
 40
0.0
 40
0.25
 40
0.25
 40
0.25
 40
0.25
 40
0.5
 40
0.5
 40
0.5
 40
0.5
 40
1.0
 40
1.0
 40
1.0
 40
1.0
 10
-14.0357
 20
-11.5363
 30
0.0
 10
-14.0357
 20
-11.5363
 30
0.0
 10
-14.2801
 20
0.7286
 30
0.0
 10
-14.2801
 20
0.7286
 30
0.0
 10
-14.2801
 20
0.7286
 30
0.0
 10
-14.2801
 20
0.7286
 30
0.0
 10
-14.2996
 20
1.7222
 30
0.0
 10
-14.2996
 20
1.7222
 30
0.0
 10
-14.2996
 20
1.7222
 30
0.0
 10
-14.2996
 20
1.7222
 30
0.0
 10
-14.5482
 20
3.2133
 30
0.0
 10
-14.5482
 20
3.2133
 30
0.0
  0
ENDSEC
  0
SECTION
  2
OBJECTS
  0
DICTIONARY
  5
C
330
0
100
AcDbDictionary
  3
ACAD_GROUP
350
D
  3
ACAD_LAYOUT
350
1A
  3
ACAD_MATERIAL
350
3B
  3
ACAD_MLEADERSTYLE
350
12F
  3
ACAD_MLINESTYLE
350
17
  3
ACAD_PLOTSETTINGS
350
19
  3
ACAD_VISUALSTYLE
350
2A
  3
ACDBHEADERROUNDTRIPXREC
350
10D
  3
ACDBVARIABLEDICTIONARY
350
12D
  0
DICTIONARY
  5
D
102
{ACAD_REACTORS
330
C
102
}
330
C
100
AcDbDictionary
  0
DICTIONARY
  5
1A
102
{ACAD_REACTORS
330
C
102
}
330
C
100
AcDbDictionary
  0
DICTIONARY
  5
3B
102
{ACAD_REACTORS
330
C
102
}
330
C
100
AcDbDictionary
  3
BYBLOCK
350
3D
  3
BYLAYER
350
3C
  3
GLOBAL
350
3E
  0
DICTIONARY
  5
12F
102
{ACAD_REACTORS
330
C
102
}
330
C
100
AcDbDictionary
  0
DICTIONARY
  5
17
102
{ACAD_REACTORS
330
C
102
}
330
C
100
AcDbDictionary
  3
STANDARD
350
18
  0
DICTIONARY
  5
19
102
{ACAD_REACTORS
330
C
102
}
330
C
100
AcDbDictionary
  0
DICTIONARY
  5
2A
102
{ACAD_REACTORS
330
C
102
}
330
C
100
AcDbDictionary
  3
2DWIREFRAME
350
2F
  3
3D_HIDDEN
350
31
  3
3DWIREFRAME
350
30
  3
BASIC
350
32
  3
BRIGHTEN
350
36
  3
COLORCHANGE
350
3A
  3
CONCEPTUAL
350
34
  3
DIM
350
35
  3
FACEPATTERN
350
39
  3
FLAT
350
2B
  3
FLATWITHEDGES
350
2C
  3
GOURAUD
350
2D
  3
GOURAUDWITHEDGES
350
2E
  3
LINEPATTERN
350
38
  3
REALISTIC
350
33
  3
THICKEN
350
37
  0
DICTIONARY
  5
10D
102
{ACAD_REACTORS
330
C
102
}
330
C
100
AcDbDictionary
  3
CEPSNTYPE
350
116
  3
DIMSTYLEDATA
350
12C
  3
FINGERPRINTGUID
350
117
  3
HYPERLINKBASE
350
110
  3
INSUNITS
350
115
  3
LAYOUTDICT
350
112
  3
LWETCUNION
350
114
  3
PLOTSETDICT
350
113
  3
PSVPSCALE
350
119
  3
PUCSBASE
350
11C
  3
PUCSORGBACK
350
122
  3
PUCSORGBOTTOM
350
11E
  3
PUCSORGFRONT
350
121
  3
PUCSORGLEFT
350
11F
  3
PUCSORGRIGHT
350
120
  3
PUCSORGTOP
350
11D
  3
PUCSORTHOREF
350
11A
  3
PUCSORTHOVIEW
350
11B
  3
STYLESHEET
350
111
  3
TSTACKALIGN
350
10E
  3
TSTACKSIZE
350
10F
  3
UCSBASE
350
125
  3
UCSORGBACK
350
12B
  3
UCSORGBOTTOM
350
127
  3
UCSORGFRONT
350
12A
  3
UCSORGLEFT
350
128
  3
UCSORGRIGHT
350
129
  3
UCSORGTOP
350
126
  3
UCSORTHOREF
350
123
  3
UCSORTHOVIEW
350
124
  3
VERSIONGUID
350
118
  0
DICTIONARY
  5
12D
102
{ACAD_REACTORS
330
C
102
}
330
C
100
AcDbDictionary
  3
DIMASSOC
350
130
  3
HIDETEXT
350
131
  0
MATERIAL
  5
3D
102
{ACAD_REACTORS
330
3B
102
}
102
{ACAD_XDICTIONARY
360
134
102
}
330
3B
100
AcDbMaterial
  1
ByBlock
  0
MATERIAL
  5
3C
102
{ACAD_REACTORS
330
3B
102
}
102
{ACAD_XDICTIONARY
360
132
102
}
330
3B
100
AcDbMaterial
  1
ByLayer
  0
MATERIAL
  5
3E
102
{ACAD_REACTORS
330
3B
102
}
102
{ACAD_XDICTIONARY
360
136
102
}
330
3B
100
AcDbMaterial
  1
Global
  0
MLINESTYLE
  5
18
102
{ACAD_REACTORS
330
17
102
}
330
17
100
AcDbMlineStyle
  2
Standard
 70
     0
  3

 62
   256
 51
90.0
 52
90.0
 71
     2
 49
0.5
 62
   256
  6
BYLAYER
 49
-0.5
 62
   256
  6
BYLAYER
  0
ACAD_PROXY_OBJECT
  5
2F
102
{ACAD_REACTORS
330
2A
102
}
330
2A
100
AcDbProxyObject
 90
      499
 91
      501
 93
      436
310
42CC9915DA5C99599C985B595049028333333333333E3BF0000000000000FB0107901411070040501600405405064090741402480A0340
1001
ACAD
1000
AcDbSavedByObjectVersion
1070
     0
  0
ACAD_PROXY_OBJECT
  5
31
102
{ACAD_REACTORS
330
2A
102
}
330
2A
100
AcDbProxyObject
 90
      499
 91
      501
 93
      500
310
424CD108121A5919195B90640502408333333333333E3BF0000000000000FB01079024090700405020000000000001110200405405064090740C02480A0340
1001
ACAD
1000
AcDbSavedByObjectVersion
1070
     0
  0
ACAD_PROXY_OBJECT
  5
30
102
{ACAD_REACTORS
330
2A
102
}
330
2A
100
AcDbProxyObject
 90
      499
 91
      501
 93
      436
310
42CCD915DA5C99599C985B595059028333333333333E3BF0000000000000FB0107901411070040501600405405064090741402480A0340
1001
ACAD
1000
AcDbSavedByObjectVersion
1070
     0
  0
ACAD_PROXY_OBJECT
  5
32
102
{ACAD_REACTORS
330
2A
102
}
330
2A
100
AcDbProxyObject
 90
      499
 91
      501
 93
      388
310
4150985CDA58D07406404333333333333E3BF0000000000000FB0107A41107004050150841D405064090741402480A0350
1001
ACAD
1000
AcDbSavedByObjectVersion
1070
     0
  0
ACAD_PROXY_OBJECT
  5
36
102
{ACAD_REACTORS
330
2A
102
}
330
2A
100
AcDbProxyObject
 90
      499
 91
      501
 93
      428
310
42109C9A59DA1D195B90C409028333333333333E3BF0000000000000FB010790141107004050150841D405064090741402480A029950
1001
ACAD
1000
AcDbSavedByObjectVersion
1070
     0
  0
ACAD_PROXY_OBJECT
  5
3A
102
{ACAD_REACTORS
330
2A
102
}
330
2A
100
AcDbProxyObject
 90
      499
 91
      501
 93
      452
310
42D0DBDB1BDC90DA185B99D95104090240C333333333333E3BF0000000000000FB0108901411070040501508421405064090741402480A0350
1001
ACAD
1000
AcDbSavedByObjectVersion
1070
     0
  0
ACAD_PROXY_OBJECT
  5
34
102
{ACAD_REACTORS
330
2A
102
}
330
2A
100
AcDbProxyObject
 90
      499
 91
      501
 93
      500
310
4290DBDB98D95C1D1D585B10940D028333333333333E3BF0000000000000FB0107902409070040501000000000000111010841D405064090740C02480A0340
1001
ACAD
1000
AcDbSavedByObjectVersion
1070
     0
  0
ACAD_PROXY_OBJECT
  5
35
102
{ACAD_REACTORS
330
2A
102
}
330
2A
100
AcDbProxyObject
 90
      499
 91
      501
 93
      412
310
40D11A5B50B409028333333333333E3BF0000000000000FB010790141107004050150841D405064090741402480A02677FFFFFD0
1001
ACAD
1000
AcDbSavedByObjectVersion
1070
     0
  0
ACAD_PROXY_OBJECT
  5
39
102
{ACAD_REACTORS
330
2A
102
}
330
2A
100
AcDbProxyObject
 90
      499
 91
      501
 93
      444
310
42D19858D95C185D1D195C9B90F409028333333333333E3BF0000000000000FB010790141107004050150841D405064090741402480A0350
1001
ACAD
1000
AcDbSavedByObjectVersion
1070
     0
  0
ACAD_PROXY_OBJECT
  5
2B
102
{ACAD_REACTORS
330
2A
102
}
330
2A
100
AcDbProxyObject
 90
      499
 91
      501
 93
      388
310
41119B185D240901404333333333333E3BF0000000000000F9010740A41107004050150841D405064090741402480A1B50
1001
ACAD
1000
AcDbSavedByObjectVersion
1070
     0
  0
ACAD_PROXY_OBJECT
  5
2C
102
{ACAD_REACTORS
330
2A
102
}
330
2A
100
AcDbProxyObject
 90
      499
 91
      501
 93
      476
310
43519B185D15DA5D1A115919D95CD0140901404333333333333E3BF0000000000000F9010740901411070040501600405405064090741402480A1B50
1001
ACAD
1000
AcDbSavedByObjectVersion
1070
     0
  0
ACAD_PROXY_OBJECT
  5
2D
102
{ACAD_REACTORS
330
2A
102
}
330
2A
100
AcDbProxyObject
 90
      499
 91
      501
 93
      412
310
41D1DBDD5C985D5910240902404333333333333E3BF0000000000000F9010740A411070040501641D405064090741402480A1B50
1001
ACAD
1000
AcDbSavedByObjectVersion
1070
     0
  0
ACAD_PROXY_OBJECT
  5
2E
102
{ACAD_REACTORS
330
2A
102
}
330
2A
100
AcDbProxyObject
 90
      499
 91
      501
 93
      500
310
4411DBDD5C985D5915DA5D1A115919D95CD0340902404333333333333E3BF0000000000000F9010740901411070040501600405405064090741402480A1B50
1001
ACAD
1000
AcDbSavedByObjectVersion
1070
     0
  0
ACAD_PROXY_OBJECT
  5
38
102
{ACAD_REACTORS
330
2A
102
}
330
2A
100
AcDbProxyObject
 90
      499
 91
      501
 93
      444
310
42D31A5B995C185D1D195C9B90E409028333333333333E3BF0000000000000FB010790141107004050750841D405064090741402483A0350
1001
ACAD
1000
AcDbSavedByObjectVersion
1070
     0
  0
ACAD_PROXY_OBJECT
  5
33
102
{ACAD_REACTORS
330
2A
102
}
330
2A
100
AcDbProxyObject
 90
      499
 91
      501
 93
      420
310
425499585B1A5CDD1A58D08409028333333333333E3BF0000000000000FB01079019070040501508421405064090741402480A1B40
1001
ACAD
1000
AcDbSavedByObjectVersion
1070
     0
  0
ACAD_PROXY_OBJECT
  5
37
102
{ACAD_REACTORS
330
2A
102
}
330
2A
100
AcDbProxyObject
 90
      499
 91
      501
 93
      412
310
41D51A1A58DAD95B90D409028333333333333E3BF0000000000000FB010790141107004050150C41D405064090741402480A0350
1001
ACAD
1000
AcDbSavedByObjectVersion
1070
     0
  0
XRECORD
  5
116
102
{ACAD_REACTORS
330
10D
102
}
330
10D
100
AcDbXrecord
 90
        0
  0
XRECORD
  5
12C
102
{ACAD_REACTORS
330
10D
102
}
330
10D
100
AcDbXrecord
1000
DSTYLE
1002
{
1070
   340
340
11
1002
}
  0
XRECORD
  5
117
102
{ACAD_REACTORS
330
10D
102
}
330
10D
100
AcDbXrecord
  1
{81F56490-4452-4F11-B435-8921AF08F1DE}
  0
XRECORD
  5
110
102
{ACAD_REACTORS
330
10D
102
}
330
10D
100
AcDbXrecord
  1

  0
XRECORD
  5
115
102
{ACAD_REACTORS
330
10D
102
}
330
10D
100
AcDbXrecord
 90
        4
  0
XRECORD
  5
112
102
{ACAD_REACTORS
330
10D
102
}
330
10D
100
AcDbXrecord
340
1A
  0
XRECORD
  5
114
102
{ACAD_REACTORS
330
10D
102
}
330
10D
100
AcDbXrecord
 90
    10781
  0
XRECORD
  5
113
102
{ACAD_REACTORS
330
10D
102
}
330
10D
100
AcDbXrecord
340
19
  0
XRECORD
  5
119
102
{ACAD_REACTORS
330
10D
102
}
330
10D
100
AcDbXrecord
 40
0.0
  0
XRECORD
  5
11C
102
{ACAD_REACTORS
330
10D
102
}
330
10D
100
AcDbXrecord
340
0
  0
XRECORD
  5
122
102
{ACAD_REACTORS
330
10D
102
}
330
10D
100
AcDbXrecord
 10
0.0
 20
0.0
 30
0.0
  0
XRECORD
  5
11E
102
{ACAD_REACTORS
330
10D
102
}
330
10D
100
AcDbXrecord
 10
0.0
 20
0.0
 30
0.0
  0
XRECORD
  5
121
102
{ACAD_REACTORS
330
10D
102
}
330
10D
100
AcDbXrecord
 10
0.0
 20
0.0
 30
0.0
  0
XRECORD
  5
11F
102
{ACAD_REACTORS
330
10D
102
}
330
10D
100
AcDbXrecord
 10
0.0
 20
0.0
 30
0.0
  0
XRECORD
  5
120
102
{ACAD_REACTORS
330
10D
102
}
330
10D
100
AcDbXrecord
 10
0.0
 20
0.0
 30
0.0
  0
XRECORD
  5
11D
102
{ACAD_REACTORS
330
10D
102
}
330
10D
100
AcDbXrecord
 10
0.0
 20
0.0
 30
0.0
  0
XRECORD
  5
11A
102
{ACAD_REACTORS
330
10D
102
}
330
10D
100
AcDbXrecord
340
0
  0
XRECORD
  5
11B
102
{ACAD_REACTORS
330
10D
102
}
330
10D
100
AcDbXrecord
 70
     0
  0
XRECORD
  5
111
102
{ACAD_REACTORS
330
10D
102
}
330
10D
100
AcDbXrecord
  1

  0
XRECORD
  5
10E
102
{ACAD_REACTORS
330
10D
102
}
330
10D
100
AcDbXrecord
 90
        1
  0
XRECORD
  5
10F
102
{ACAD_REACTORS
330
10D
102
}
330
10D
100
AcDbXrecord
 90
       70
  0
XRECORD
  5
125
102
{ACAD_REACTORS
330
10D
102
}
330
10D
100
AcDbXrecord
340
0
  0
XRECORD
  5
12B
102
{ACAD_REACTORS
330
10D
102
}
330
10D
100
AcDbXrecord
 10
0.0
 20
0.0
 30
0.0
  0
XRECORD
  5
127
102
{ACAD_REACTORS
330
10D
102
}
330
10D
100
AcDbXrecord
 10
0.0
 20
0.0
 30
0.0
  0
XRECORD
  5
12A
102
{ACAD_REACTORS
330
10D
102
}
330
10D
100
AcDbXrecord
 10
0.0
 20
0.0
 30
0.0
  0
XRECORD
  5
128
102
{ACAD_REACTORS
330
10D
102
}
330
10D
100
AcDbXrecord
 10
0.0
 20
0.0
 30
0.0
  0
XRECORD
  5
129
102
{ACAD_REACTORS
330
10D
102
}
330
10D
100
AcDbXrecord
 10
0.0
 20
0.0
 30
0.0
  0
XRECORD
  5
126
102
{ACAD_REACTORS
330
10D
102
}
330
10D
100
AcDbXrecord
 10
0.0
 20
0.0
 30
0.0
  0
XRECORD
  5
123
102
{ACAD_REACTORS
330
10D
102
}
330
10D
100
AcDbXrecord
340
0
  0
XRECORD
  5
124
102
{ACAD_REACTORS
330
10D
102
}
330
10D
100
AcDbXrecord
 70
     0
  0
XRECORD
  5
118
102
{ACAD_REACTORS
330
10D
102
}
330
10D
100
AcDbXrecord
  1
{FAEB1C32-E019-11D5-929B-00C0DF256EC4}
  0
DICTIONARYVAR
  5
130
102
{ACAD_REACTORS
330
12D
102
}
330
12D
100
DictionaryVariables
280
     0
  1
2
  0
DICTIONARYVAR
  5
131
102
{ACAD_REACTORS
330
12D
102
}
330
12D
100
DictionaryVariables
280
     0
  1
1
  0
DICTIONARY
  5
134
330
3D
100
AcDbDictionary
280
     1
  3
ACAD_XREC_ROUNDTRIP
360
135
  0
DICTIONARY
  5
132
330
3C
100
AcDbDictionary
280
     1
  3
ACAD_XREC_ROUNDTRIP
360
133
  0
DICTIONARY
  5
136
330
3E
100
AcDbDictionary
280
     1
  3
ACAD_XREC_ROUNDTRIP
360
137
  0
XRECORD
  5
135
102
{ACAD_REACTORS
330
134
102
}
330
134
100
AcDbXrecord
102
MATERIAL
148
0.0
149
0.0
149
0.0
 93
        0
 94
      127
282
     0
 72
     1
 77
     1
171
     1
175
     1
179
     1
273
     0
  0
XRECORD
  5
133
102
{ACAD_REACTORS
330
132
102
}
330
132
100
AcDbXrecord
102
MATERIAL
148
0.0
149
0.0
149
0.0
 93
        0
 94
      127
282
     0
 72
     1
 77
     1
171
     1
175
     1
179
     1
273
     0
  0
XRECORD
  5
137
102
{ACAD_REACTORS
330
136
102
}
330
136
100
AcDbXrecord
102
MATERIAL
148
0.0
149
0.0
149
0.0
 93
        0
 94
      127
282
     0
 72
     1
 77
     1
171
     1
175
     1
179
     1
273
     0
  0
ENDSEC
  0
EOF
