  0
SECTION
  2
HEADER
  9
$ACADVER
  1
AC1014
  9
$ACADMAINTVER
 70
     9
  9
$DWGCODEPAGE
  3
ANSI_1250
  9
$INSBASE
 10
0.0
 20
0.0
 30
0.0
  9
$EXTMIN
 10
-21.7181
 20
-36.506
 30
0.0
  9
$EXTMAX
 10
21.7337
 20
36.4357
 30
0.0
  9
$LIMMIN
 10
0.0
 20
0.0
  9
$LIMMAX
 10
12.0
 20
9.0
  9
$ORTHOMODE
 70
     0
  9
$REGENMODE
 70
     1
  9
$FILLMODE
 70
     1
  9
$QTEXTMODE
 70
     0
  9
$MIRRTEXT
 70
     1
  9
$DRAGMODE
 70
     2
  9
$LTSCALE
 40
1.0
  9
$OSMODE
 70
    37
  9
$ATTMODE
 70
     1
  9
$TEXTSIZE
 40
0.2
  9
$TRACEWID
 40
0.05
  9
$TEXTSTYLE
  7
STANDARD
  9
$CLAYER
  8
0
  9
$CELTYPE
  6
BYLAYER
  9
$CECOLOR
 62
   256
  9
$CELTSCALE
 40
1.0
  9
$DELOBJ
 70
     1
  9
$DISPSILH
 70
     0
  9
$DIMSCALE
 40
1.0
  9
$DIMASZ
 40
0.18
  9
$DIMEXO
 40
0.0625
  9
$DIMDLI
 40
0.38
  9
$DIMRND
 40
0.0
  9
$DIMDLE
 40
0.0
  9
$DIMEXE
 40
0.18
  9
$DIMTP
 40
0.0
  9
$DIMTM
 40
0.0
  9
$DIMTXT
 40
0.18
  9
$DIMCEN
 40
0.09
  9
$DIMTSZ
 40
0.0
  9
$DIMTOL
 70
     0
  9
$DIMLIM
 70
     0
  9
$DIMTIH
 70
     1
  9
$DIMTOH
 70
     1
  9
$DIMSE1
 70
     0
  9
$DIMSE2
 70
     0
  9
$DIMTAD
 70
     0
  9
$DIMZIN
 70
     0
  9
$DIMBLK
  1

  9
$DIMASO
 70
     1
  9
$DIMSHO
 70
     1
  9
$DIMPOST
  1

  9
$DIMAPOST
  1

  9
$DIMALT
 70
     0
  9
$DIMALTD
 70
     2
  9
$DIMALTF
 40
25.4
  9
$DIMLFAC
 40
1.0
  9
$DIMTOFL
 70
     0
  9
$DIMTVP
 40
0.0
  9
$DIMTIX
 70
     0
  9
$DIMSOXD
 70
     0
  9
$DIMSAH
 70
     0
  9
$DIMBLK1
  1

  9
$DIMBLK2
  1

  9
$DIMSTYLE
  2
STANDARD
  9
$DIMCLRD
 70
     0
  9
$DIMCLRE
 70
     0
  9
$DIMCLRT
 70
     0
  9
$DIMTFAC
 40
1.0
  9
$DIMGAP
 40
0.09
  9
$DIMJUST
 70
     0
  9
$DIMSD1
 70
     0
  9
$DIMSD2
 70
     0
  9
$DIMTOLJ
 70
     1
  9
$DIMTZIN
 70
     0
  9
$DIMALTZ
 70
     0
  9
$DIMALTTZ
 70
     0
  9
$DIMFIT
 70
     3
  9
$DIMUPT
 70
     0
  9
$DIMUNIT
 70
     2
  9
$DIMDEC
 70
     4
  9
$DIMTDEC
 70
     4
  9
$DIMALTU
 70
     2
  9
$DIMALTTD
 70
     2
  9
$DIMTXSTY
  7
STANDARD
  9
$DIMAUNIT
 70
     0
  9
$LUNITS
 70
     2
  9
$LUPREC
 70
     4
  9
$SKETCHINC
 40
0.1
  9
$FILLETRAD
 40
0.5
  9
$AUNITS
 70
     0
  9
$AUPREC
 70
     0
  9
$MENU
  1
.
  9
$ELEVATION
 40
0.0
  9
$PELEVATION
 40
0.0
  9
$THICKNESS
 40
0.0
  9
$LIMCHECK
 70
     0
  9
$CHAMFERA
 40
0.5
  9
$CHAMFERB
 40
0.5
  9
$CHAMFERC
 40
1.0
  9
$CHAMFERD
 40
0.0
  9
$SKPOLY
 70
     0
  9
$TDCREATE
 40
2456232.478518148
  9
$TDUPDATE
 40
2456232.47851816
  9
$TDINDWG
 40
0.0000000116
  9
$TDUSRTIMER
 40
0.0000000116
  9
$USRTIMER
 70
     1
  9
$ANGBASE
 50
0.0
  9
$ANGDIR
 70
     0
  9
$PDMODE
 70
     0
  9
$PDSIZE
 40
0.0
  9
$PLINEWID
 40
0.0
  9
$COORDS
 70
     1
  9
$SPLFRAME
 70
     0
  9
$SPLINETYPE
 70
     6
  9
$SPLINESEGS
 70
     8
  9
$ATTDIA
 70
     0
  9
$ATTREQ
 70
     1
  9
$HANDLING
 70
     1
  9
$HANDSEED
  5
204
  9
$SURFTAB1
 70
     6
  9
$SURFTAB2
 70
     6
  9
$SURFTYPE
 70
     6
  9
$SURFU
 70
     6
  9
$SURFV
 70
     6
  9
$UCSNAME
  2

  9
$UCSORG
 10
0.0
 20
0.0
 30
0.0
  9
$UCSXDIR
 10
1.0
 20
0.0
 30
0.0
  9
$UCSYDIR
 10
0.0
 20
1.0
 30
0.0
  9
$PUCSNAME
  2

  9
$PUCSORG
 10
0.0
 20
0.0
 30
0.0
  9
$PUCSXDIR
 10
1.0
 20
0.0
 30
0.0
  9
$PUCSYDIR
 10
0.0
 20
1.0
 30
0.0
  9
$USERI1
 70
     0
  9
$USERI2
 70
     0
  9
$USERI3
 70
     0
  9
$USERI4
 70
     0
  9
$USERI5
 70
     0
  9
$USERR1
 40
0.0
  9
$USERR2
 40
0.0
  9
$USERR3
 40
0.0
  9
$USERR4
 40
0.0
  9
$USERR5
 40
0.0
  9
$WORLDVIEW
 70
     1
  9
$SHADEDGE
 70
     3
  9
$SHADEDIF
 70
    70
  9
$TILEMODE
 70
     1
  9
$MAXACTVP
 70
    64
  9
$PINSBASE
 10
0.0
 20
0.0
 30
0.0
  9
$PLIMCHECK
 70
     0
  9
$PEXTMIN
 10
1.000000000000000E+20
 20
1.000000000000000E+20
 30
1.000000000000000E+20
  9
$PEXTMAX
 10
-1.000000000000000E+20
 20
-1.000000000000000E+20
 30
-1.000000000000000E+20
  9
$PLIMMIN
 10
0.0
 20
0.0
  9
$PLIMMAX
 10
12.0
 20
9.0
  9
$UNITMODE
 70
     0
  9
$VISRETAIN
 70
     1
  9
$PLINEGEN
 70
     0
  9
$PSLTSCALE
 70
     1
  9
$TREEDEPTH
 70
  3020
  9
$PICKSTYLE
 70
     1
  9
$CMLSTYLE
  2
STANDARD
  9
$CMLJUST
 70
     0
  9
$CMLSCALE
 40
1.0
  9
$PROXYGRAPHICS
 70
     1
  9
$MEASUREMENT
 70
     0
  0
ENDSEC
  0
SECTION
  2
CLASSES
  0
CLASS
  1
ACDBDICTIONARYWDFLT
  2
AcDbDictionaryWithDefault
  3
ObjectDBX Classes
 90
        0
280
     0
281
     0
  0
CLASS
  1
VISUALSTYLE
  2
AcDbVisualStyle
  3
ObjectDBX Classes
 90
     4095
280
     0
281
     0
  0
CLASS
  1
MATERIAL
  2
AcDbMaterial
  3
ObjectDBX Classes
 90
     1153
280
     0
281
     0
  0
CLASS
  1
DICTIONARYVAR
  2
AcDbDictionaryVar
  3
ObjectDBX Classes
 90
        0
280
     0
281
     0
  0
CLASS
  1
XRECORD
  2
AcDbXrecord
  3
AutoCAD 2000
 90
        0
280
     0
281
     0
  0
CLASS
  1
LWPOLYLINE
  2
AcDbPolyline
  3
AutoCAD 2000
 90
        0
280
     0
281
     1
  0
CLASS
  1
HATCH
  2
AcDbHatch
  3
AutoCAD 2000
 90
        0
280
     0
281
     1
  0
CLASS
  1
ACDBPLACEHOLDER
  2
AcDbPlaceHolder
  3
ObjectDBX Classes
 90
        0
280
     0
281
     0
  0
CLASS
  1
LAYOUT
  2
AcDbLayout
  3
ObjectDBX Classes
 90
        0
280
     0
281
     0
  0
ENDSEC
  0
SECTION
  2
TABLES
  0
TABLE
  2
VPORT
  5
8
330
0
100
AcDbSymbolTable
 70
     1
  0
VPORT
  5
29
330
8
100
AcDbSymbolTableRecord
100
AcDbViewportTableRecord
  2
*ACTIVE
 70
     0
 10
0.0
 20
0.0
 11
1.0
 21
1.0
 12
10.42990654205607
 22
4.5
 13
0.0
 23
0.0
 14
0.5
 24
0.5
 15
0.5
 25
0.5
 16
0.0
 26
0.0
 36
1.0
 17
0.0
 27
0.0
 37
0.0
 40
9.0
 41
1.972972972850329
 42
50.0
 43
0.0
 44
0.0
 50
0.0
 51
0.0
 71
     0
 72
   100
 73
     1
 74
     3
 75
     0
 76
     0
 77
     0
 78
     0
  0
ENDTAB
  0
TABLE
  2
LTYPE
  5
5
330
0
100
AcDbSymbolTable
 70
     5
  0
LTYPE
  5
14
330
5
100
AcDbSymbolTableRecord
100
AcDbLinetypeTableRecord
  2
BYBLOCK
 70
     0
  3

 72
    65
 73
     0
 40
0.0
  0
LTYPE
  5
15
330
5
100
AcDbSymbolTableRecord
100
AcDbLinetypeTableRecord
  2
BYLAYER
 70
     0
  3

 72
    65
 73
     0
 40
0.0
  0
LTYPE
  5
16
330
5
100
AcDbSymbolTableRecord
100
AcDbLinetypeTableRecord
  2
CONTINUOUS
 70
     0
  3
Solid line
 72
    65
 73
     0
 40
0.0
  0
LTYPE
  5
16A
330
5
100
AcDbSymbolTableRecord
100
AcDbLinetypeTableRecord
  2
NEW_LINE1
 70
     0
  3

 72
    65
 73
     4
 40
1.2
 49
0.5
 74
     4
 75
     0
340
0
 46
1.0
 50
0.0
 44
0.0
 45
0.0
 49
-0.3
 74
     4
 75
     0
340
0
 46
1.0
 50
0.0
 44
0.0
 45
0.0
 49
0.1
 74
     4
 75
     0
340
0
 46
1.0
 50
0.0
 44
0.0
 45
0.0
 49
-0.3
 74
     4
 75
     0
340
0
 46
1.0
 50
0.0
 44
0.0
 45
0.0
  0
LTYPE
  5
170
330
5
100
AcDbSymbolTableRecord
100
AcDbLinetypeTableRecord
  2
NEW_LINE2
 70
     0
  3

 72
    65
 73
     4
 40
1.2
 49
0.5
 74
     4
 75
     0
340
0
 46
1.0
 50
0.0
 44
0.0
 45
0.0
 49
-0.3
 74
     4
 75
     0
340
0
 46
1.0
 50
0.0
 44
0.0
 45
0.0
 49
0.1
 74
     4
 75
     0
340
0
 46
1.0
 50
0.0
 44
0.0
 45
0.0
 49
-0.3
 74
     4
 75
     0
340
0
 46
1.0
 50
0.0
 44
0.0
 45
0.0
  0
LTYPE
  5
183
330
5
100
AcDbSymbolTableRecord
100
AcDbLinetypeTableRecord
  2
NEW_LINE3
 70
     0
  3

 72
    65
 73
     4
 40
1.2
 49
0.5
 74
     4
 75
     0
340
0
 46
1.0
 50
0.0
 44
0.0
 45
0.0
 49
-0.3
 74
     4
 75
     0
340
0
 46
1.0
 50
0.0
 44
0.0
 45
0.0
 49
0.1
 74
     4
 75
     0
340
0
 46
1.0
 50
0.0
 44
0.0
 45
0.0
 49
-0.3
 74
     4
 75
     0
340
0
 46
1.0
 50
0.0
 44
0.0
 45
0.0
  0
LTYPE
  5
187
330
5
100
AcDbSymbolTableRecord
100
AcDbLinetypeTableRecord
  2
NEW_LINE4
 70
     0
  3

 72
    65
 73
     4
 40
1.2
 49
0.5
 74
     4
 75
     0
340
0
 46
1.0
 50
0.0
 44
0.0
 45
0.0
 49
-0.3
 74
     4
 75
     0
340
0
 46
1.0
 50
0.0
 44
0.0
 45
0.0
 49
0.1
 74
     4
 75
     0
340
0
 46
1.0
 50
0.0
 44
0.0
 45
0.0
 49
-0.3
 74
     4
 75
     0
340
0
 46
1.0
 50
0.0
 44
0.0
 45
0.0
  0
ENDTAB
  0
TABLE
  2
LAYER
  5
2
330
0
100
AcDbSymbolTable
 70
     2
  0
LAYER
  5
10
330
2
100
AcDbSymbolTableRecord
100
AcDbLayerTableRecord
  2
0
 70
     0
 62
     7
  6
CONTINUOUS
  0
LAYER
  5
40
330
2
100
AcDbSymbolTableRecord
100
AcDbLayerTableRecord
  2
AXIS
 70
     0
 62
     7
  6
CONTINUOUS
  0
ENDTAB
  0
TABLE
  2
STYLE
  5
3
330
0
100
AcDbSymbolTable
 70
     1
  0
STYLE
  5
11
330
3
100
AcDbSymbolTableRecord
100
AcDbTextStyleTableRecord
  2
STANDARD
 70
     0
 40
0.0
 41
1.0
 50
0.0
 71
     0
 42
0.2
  3
txt
  4

  0
ENDTAB
  0
TABLE
  2
VIEW
  5
6
330
0
100
AcDbSymbolTable
 70
     0
  0
ENDTAB
  0
TABLE
  2
UCS
  5
7
330
0
100
AcDbSymbolTable
 70
     0
  0
ENDTAB
  0
TABLE
  2
APPID
  5
9
330
0
100
AcDbSymbolTable
 70
     2
  0
APPID
  5
12
330
9
100
AcDbSymbolTableRecord
100
AcDbRegAppTableRecord
  2
ACAD
 70
     0
  0
APPID
  5
3F
330
9
100
AcDbSymbolTableRecord
100
AcDbRegAppTableRecord
  2
ODA
 70
     0
  0
ENDTAB
  0
TABLE
  2
DIMSTYLE
  5
A
330
0
100
AcDbSymbolTable
 70
     1
  0
DIMSTYLE
105
27
330
A
100
AcDbSymbolTableRecord
100
AcDbDimStyleTableRecord
  2
STANDARD
 70
     0
  3

  4

  5

  6

  7

 40
1.0
 41
0.18
 42
0.0625
 43
0.38
 44
0.18
 45
0.0
 46
0.0
 47
0.0
 48
0.0
140
0.18
141
0.09
142
0.0
143
25.4
144
1.0
145
0.0
146
1.0
147
0.09
 71
     0
 72
     0
 73
     1
 74
     1
 75
     0
 76
     0
 77
     0
 78
     0
170
     0
171
     2
172
     0
173
     0
174
     0
175
     0
176
     0
177
     0
178
     0
270
     2
271
     4
272
     4
273
     2
274
     2
340
11
275
     0
280
     0
281
     0
282
     0
283
     1
284
     0
285
     0
286
     0
287
     3
288
     0
  0
ENDTAB
  0
TABLE
  2
BLOCK_RECORD
  5
1
330
0
100
AcDbSymbolTable
 70
     1
  0
BLOCK_RECORD
  5
1F
330
1
100
AcDbSymbolTableRecord
100
AcDbBlockTableRecord
  2
*MODEL_SPACE
  0
BLOCK_RECORD
  5
1B
330
1
100
AcDbSymbolTableRecord
100
AcDbBlockTableRecord
  2
*PAPER_SPACE
  0
ENDTAB
  0
ENDSEC
  0
SECTION
  2
BLOCKS
  0
BLOCK
  5
20
330
1F
100
AcDbEntity
  8
0
100
AcDbBlockBegin
  2
*MODEL_SPACE
 70
     0
 10
0.0
 20
0.0
 30
0.0
  3
*MODEL_SPACE
  1

  0
ENDBLK
  5
21
330
1F
100
AcDbEntity
  8
0
100
AcDbBlockEnd
  0
BLOCK
  5
1C
330
1B
100
AcDbEntity
 67
     1
  8
0
100
AcDbBlockBegin
  2
*PAPER_SPACE
 70
     0
 10
0.0
 20
0.0
 30
0.0
  3
*PAPER_SPACE
  1

  0
ENDBLK
  5
1D
330
1B
100
AcDbEntity
 67
     1
  8
0
100
AcDbBlockEnd
  0
ENDSEC
  0
SECTION
  2
ENTITIES
  0
SPLINE
  5
41
330
1F
100
AcDbEntity
  8
AXIS
 62
   250
100
AcDbSpline
210
0.0
220
0.0
230
1.0
 70
    24
 71
     3
 72
     8
 73
     4
 74
     0
 42
0.0000000001
 43
0.0000000001
 40
0.0
 40
0.0
 40
0.0
 40
0.0
 40
1.0
 40
1.0
 40
1.0
 40
1.0
 10
18.2726
 20
6.1659
 30
0.0
 10
18.2726
 20
6.1659
 30
0.0
 10
21.7182
 20
6.1659
 30
0.0
 10
21.7182
 20
6.1659
 30
0.0
  0
SPLINE
  5
42
330
1F
100
AcDbEntity
  8
AXIS
 62
   250
100
AcDbSpline
210
0.0
220
0.0
230
1.0
 70
    24
 71
     3
 72
     8
 73
     4
 74
     0
 42
0.0000000001
 43
0.0000000001
 40
0.0
 40
0.0
 40
0.0
 40
0.0
 40
1.0
 40
1.0
 40
1.0
 40
1.0
 10
18.0967
 20
16.8584
 30
0.0
 10
18.0967
 20
16.8584
 30
0.0
 10
21.7182
 20
16.8584
 30
0.0
 10
21.7182
 20
16.8584
 30
0.0
  0
SPLINE
  5
43
330
1F
100
AcDbEntity
  8
AXIS
 62
   250
100
AcDbSpline
210
0.0
220
0.0
230
1.0
 70
    24
 71
     3
 72
     8
 73
     4
 74
     0
 42
0.0000000001
 43
0.0000000001
 40
0.0
 40
0.0
 40
0.0
 40
0.0
 40
1.0
 40
1.0
 40
1.0
 40
1.0
 10
-0.955
 20
6.1657
 30
0.0
 10
-0.955
 20
6.1657
 30
0.0
 10
-19.8783
 20
6.1657
 30
0.0
 10
-19.8783
 20
6.1657
 30
0.0
  0
SPLINE
  5
44
330
1F
100
AcDbEntity
  8
AXIS
 62
   250
100
AcDbSpline
210
0.0
220
0.0
230
1.0
 70
    24
 71
     3
 72
     8
 73
     4
 74
     0
 42
0.0000000001
 43
0.0000000001
 40
0.0
 40
0.0
 40
0.0
 40
0.0
 40
1.0
 40
1.0
 40
1.0
 40
1.0
 10
-15.2035
 20
28.6205
 30
0.0
 10
-15.2035
 20
28.6205
 30
0.0
 10
-19.6965
 20
28.6205
 30
0.0
 10
-19.6965
 20
28.6205
 30
0.0
  0
SPLINE
  5
45
330
1F
100
AcDbEntity
  8
AXIS
 62
   250
100
AcDbSpline
210
0.0
220
0.0
230
1.0
 70
    24
 71
     3
 72
     8
 73
     4
 74
     0
 42
0.0000000001
 43
0.0000000001
 40
0.0
 40
0.0
 40
0.0
 40
0.0
 40
1.0
 40
1.0
 40
1.0
 40
1.0
 10
11.5497
 20
31.8283
 30
0.0
 10
11.5497
 20
31.8283
 30
0.0
 10
11.5497
 20
34.2611
 30
0.0
 10
11.5497
 20
34.2611
 30
0.0
  0
SPLINE
  5
46
330
1F
100
AcDbEntity
  8
AXIS
 62
   250
100
AcDbSpline
210
0.0
220
0.0
230
1.0
 70
    24
 71
     3
 72
     8
 73
     4
 74
     0
 42
0.0000000001
 43
0.0000000001
 40
0.0
 40
0.0
 40
0.0
 40
0.0
 40
1.0
 40
1.0
 40
1.0
 40
1.0
 10
-8.3388
 20
31.8283
 30
0.0
 10
-8.3388
 20
31.8283
 30
0.0
 10
-8.3388
 20
34.2611
 30
0.0
 10
-8.3388
 20
34.2611
 30
0.0
  0
SPLINE
  5
47
330
1F
100
AcDbEntity
  8
AXIS
 62
   250
100
AcDbSpline
210
0.0
220
0.0
230
1.0
 70
    24
 71
     3
 72
     8
 73
     4
 74
     0
 42
0.0000000001
 43
0.0000000001
 40
0.0
 40
0.0
 40
0.0
 40
0.0
 40
1.0
 40
1.0
 40
1.0
 40
1.0
 10
17.6446
 20
6.4522
 30
0.0
 10
17.6446
 20
6.4522
 30
0.0
 10
16.5753
 20
6.1657
 30
0.0
 10
16.5753
 20
6.1657
 30
0.0
  0
SPLINE
  5
48
330
1F
100
AcDbEntity
  8
AXIS
 62
   250
100
AcDbSpline
210
0.0
220
0.0
230
1.0
 70
    24
 71
     3
 72
     8
 73
     4
 74
     0
 42
0.0000000001
 43
0.0000000001
 40
0.0
 40
0.0
 40
0.0
 40
0.0
 40
1.0
 40
1.0
 40
1.0
 40
1.0
 10
-8.3388
 20
30.1174
 30
0.0
 10
-8.3388
 20
30.1174
 30
0.0
 10
-8.3388
 20
31.8283
 30
0.0
 10
-8.3388
 20
31.8283
 30
0.0
  0
SPLINE
  5
49
330
1F
100
AcDbEntity
  8
AXIS
 62
   250
100
AcDbSpline
210
0.0
220
0.0
230
1.0
 70
    24
 71
     3
 72
     8
 73
     4
 74
     0
 42
0.0000000001
 43
0.0000000001
 40
0.0
 40
0.0
 40
0.0
 40
0.0
 40
1.0
 40
1.0
 40
1.0
 40
1.0
 10
17.6446
 20
16.5719
 30
0.0
 10
17.6446
 20
16.5719
 30
0.0
 10
16.5753
 20
16.8584
 30
0.0
 10
16.5753
 20
16.8584
 30
0.0
  0
SPLINE
  5
4A
330
1F
100
AcDbEntity
  8
AXIS
 62
   250
100
AcDbSpline
210
0.0
220
0.0
230
1.0
 70
    24
 71
     3
 72
     8
 73
     4
 74
     0
 42
0.0000000001
 43
0.0000000001
 40
0.0
 40
0.0
 40
0.0
 40
0.0
 40
1.0
 40
1.0
 40
1.0
 40
1.0
 10
6.0964
 20
30.1174
 30
0.0
 10
6.0964
 20
30.1174
 30
0.0
 10
6.0964
 20
29.262
 30
0.0
 10
6.0964
 20
29.262
 30
0.0
  0
SPLINE
  5
4B
330
1F
100
AcDbEntity
  8
AXIS
 62
   250
100
AcDbSpline
210
0.0
220
0.0
230
1.0
 70
    24
 71
     3
 72
     8
 73
     4
 74
     0
 42
0.0000000001
 43
0.0000000001
 40
0.0
 40
0.0
 40
0.0
 40
0.0
 40
1.0
 40
1.0
 40
1.0
 40
1.0
 10
11.5497
 20
30.1174
 30
0.0
 10
11.5497
 20
30.1174
 30
0.0
 10
11.5497
 20
31.8283
 30
0.0
 10
11.5497
 20
31.8283
 30
0.0
  0
SPLINE
  5
4C
330
1F
100
AcDbEntity
  8
AXIS
 62
   250
100
AcDbSpline
210
0.0
220
0.0
230
1.0
 70
    24
 71
     3
 72
     8
 73
     4
 74
     0
 42
0.0000000001
 43
0.0000000001
 40
0.0
 40
0.0
 40
0.0
 40
0.0
 40
1.0
 40
1.0
 40
1.0
 40
1.0
 10
-8.3387
 20
30.1174
 30
0.0
 10
-8.3387
 20
30.1174
 30
0.0
 10
11.5497
 20
30.1174
 30
0.0
 10
11.5497
 20
30.1174
 30
0.0
  0
SPLINE
  5
4D
330
1F
100
AcDbEntity
  8
AXIS
 62
   250
100
AcDbSpline
210
0.0
220
0.0
230
1.0
 70
    24
 71
     3
 72
     8
 73
     4
 74
     0
 42
0.0000000001
 43
0.0000000001
 40
0.0
 40
0.0
 40
0.0
 40
0.0
 40
1.0
 40
1.0
 40
1.0
 40
1.0
 10
-8.3387
 20
31.8283
 30
0.0
 10
-8.3387
 20
31.8283
 30
0.0
 10
11.5497
 20
31.8283
 30
0.0
 10
11.5497
 20
31.8283
 30
0.0
  0
SPLINE
  5
4E
330
1F
100
AcDbEntity
  8
AXIS
 62
   250
100
AcDbSpline
210
0.0
220
0.0
230
1.0
 70
    24
 71
     3
 72
     8
 73
     4
 74
     0
 42
0.0000000001
 43
0.0000000001
 40
0.0
 40
0.0
 40
0.0
 40
0.0
 40
1.0
 40
1.0
 40
1.0
 40
1.0
 10
16.5753
 20
6.1657
 30
0.0
 10
16.5753
 20
6.1657
 30
0.0
 10
16.5753
 20
16.8584
 30
0.0
 10
16.5753
 20
16.8584
 30
0.0
  0
SPLINE
  5
4F
330
1F
100
AcDbEntity
  8
AXIS
 62
   250
100
AcDbSpline
210
0.0
220
0.0
230
1.0
 70
    24
 71
     3
 72
     8
 73
     4
 74
     0
 42
0.0000000001
 43
0.0000000001
 40
0.0
 40
0.0
 40
0.0
 40
0.0
 40
1.0
 40
1.0
 40
1.0
 40
1.0
 10
17.6446
 20
6.4522
 30
0.0
 10
17.6446
 20
6.4522
 30
0.0
 10
17.6446
 20
16.5719
 30
0.0
 10
17.6446
 20
16.5719
 30
0.0
  0
SPLINE
  5
50
330
1F
100
AcDbEntity
  8
AXIS
 62
   250
100
AcDbSpline
210
0.0
220
0.0
230
1.0
 70
    24
 71
     3
 72
     8
 73
     4
 74
     0
 42
0.0000000001
 43
0.0000000001
 40
0.0
 40
0.0
 40
0.0
 40
0.0
 40
1.0
 40
1.0
 40
1.0
 40
1.0
 10
-5.4517
 20
-15.87
 30
0.0
 10
-5.4517
 20
-15.87
 30
0.0
 10
-5.4517
 20
-16.6794
 30
0.0
 10
-5.4517
 20
-16.6794
 30
0.0
  0
SPLINE
  5
51
330
1F
100
AcDbEntity
  8
AXIS
 62
   250
100
AcDbSpline
210
0.0
220
0.0
230
1.0
 70
    24
 71
     3
 72
     8
 73
     4
 74
     0
 42
0.0000000001
 43
0.0000000001
 40
0.0
 40
0.0
 40
0.0
 40
0.0
 40
1.0
 40
1.0
 40
1.0
 40
1.0
 10
-5.4517
 20
-17.1071
 30
0.0
 10
-5.4517
 20
-17.1071
 30
0.0
 10
-5.4517
 20
-18.3902
 30
0.0
 10
-5.4517
 20
-18.3902
 30
0.0
  0
SPLINE
  5
52
330
1F
100
AcDbEntity
  8
AXIS
 62
   250
100
AcDbSpline
210
0.0
220
0.0
230
1.0
 70
    24
 71
     3
 72
     8
 73
     4
 74
     0
 42
0.0000000001
 43
0.0000000001
 40
0.0
 40
0.0
 40
0.0
 40
0.0
 40
1.0
 40
1.0
 40
1.0
 40
1.0
 10
-5.4517
 20
-18.8179
 30
0.0
 10
-5.4517
 20
-18.8179
 30
0.0
 10
-5.4517
 20
-20.101
 30
0.0
 10
-5.4517
 20
-20.101
 30
0.0
  0
SPLINE
  5
53
330
1F
100
AcDbEntity
  8
AXIS
 62
   250
100
AcDbSpline
210
0.0
220
0.0
230
1.0
 70
    24
 71
     3
 72
     8
 73
     4
 74
     0
 42
0.0000000001
 43
0.0000000001
 40
0.0
 40
0.0
 40
0.0
 40
0.0
 40
1.0
 40
1.0
 40
1.0
 40
1.0
 10
-5.4517
 20
-20.5288
 30
0.0
 10
-5.4517
 20
-20.5288
 30
0.0
 10
-5.4517
 20
-21.8119
 30
0.0
 10
-5.4517
 20
-21.8119
 30
0.0
  0
SPLINE
  5
54
330
1F
100
AcDbEntity
  8
AXIS
 62
   250
100
AcDbSpline
210
0.0
220
0.0
230
1.0
 70
    24
 71
     3
 72
     8
 73
     4
 74
     0
 42
0.0000000001
 43
0.0000000001
 40
0.0
 40
0.0
 40
0.0
 40
0.0
 40
1.0
 40
1.0
 40
1.0
 40
1.0
 10
-5.4517
 20
-22.2396
 30
0.0
 10
-5.4517
 20
-22.2396
 30
0.0
 10
-5.4517
 20
-23.5227
 30
0.0
 10
-5.4517
 20
-23.5227
 30
0.0
  0
SPLINE
  5
55
330
1F
100
AcDbEntity
  8
AXIS
 62
   250
100
AcDbSpline
210
0.0
220
0.0
230
1.0
 70
    24
 71
     3
 72
     8
 73
     4
 74
     0
 42
0.0000000001
 43
0.0000000001
 40
0.0
 40
0.0
 40
0.0
 40
0.0
 40
1.0
 40
1.0
 40
1.0
 40
1.0
 10
-5.4517
 20
-23.9504
 30
0.0
 10
-5.4517
 20
-23.9504
 30
0.0
 10
-5.4517
 20
-24.7598
 30
0.0
 10
-5.4517
 20
-24.7598
 30
0.0
  0
SPLINE
  5
56
330
1F
100
AcDbEntity
  8
AXIS
 62
   250
100
AcDbSpline
210
0.0
220
0.0
230
1.0
 70
    24
 71
     3
 72
     8
 73
     4
 74
     0
 42
0.0000000001
 43
0.0000000001
 40
0.0
 40
0.0
 40
0.0
 40
0.0
 40
1.0
 40
1.0
 40
1.0
 40
1.0
 10
-5.024
 20
-25.2336
 30
0.0
 10
-5.024
 20
-25.2336
 30
0.0
 10
-5.024
 20
-23.9504
 30
0.0
 10
-5.024
 20
-23.9504
 30
0.0
  0
SPLINE
  5
57
330
1F
100
AcDbEntity
  8
AXIS
 62
   250
100
AcDbSpline
210
0.0
220
0.0
230
1.0
 70
    24
 71
     3
 72
     8
 73
     4
 74
     0
 42
0.0000000001
 43
0.0000000001
 40
0.0
 40
0.0
 40
0.0
 40
0.0
 40
1.0
 40
1.0
 40
1.0
 40
1.0
 10
-5.024
 20
-23.5227
 30
0.0
 10
-5.024
 20
-23.5227
 30
0.0
 10
-5.024
 20
-22.2396
 30
0.0
 10
-5.024
 20
-22.2396
 30
0.0
  0
SPLINE
  5
58
330
1F
100
AcDbEntity
  8
AXIS
 62
   250
100
AcDbSpline
210
0.0
220
0.0
230
1.0
 70
    24
 71
     3
 72
     8
 73
     4
 74
     0
 42
0.0000000001
 43
0.0000000001
 40
0.0
 40
0.0
 40
0.0
 40
0.0
 40
1.0
 40
1.0
 40
1.0
 40
1.0
 10
-5.024
 20
-21.8119
 30
0.0
 10
-5.024
 20
-21.8119
 30
0.0
 10
-5.024
 20
-20.5288
 30
0.0
 10
-5.024
 20
-20.5288
 30
0.0
  0
SPLINE
  5
59
330
1F
100
AcDbEntity
  8
AXIS
 62
   250
100
AcDbSpline
210
0.0
220
0.0
230
1.0
 70
    24
 71
     3
 72
     8
 73
     4
 74
     0
 42
0.0000000001
 43
0.0000000001
 40
0.0
 40
0.0
 40
0.0
 40
0.0
 40
1.0
 40
1.0
 40
1.0
 40
1.0
 10
-5.024
 20
-20.101
 30
0.0
 10
-5.024
 20
-20.101
 30
0.0
 10
-5.024
 20
-18.8179
 30
0.0
 10
-5.024
 20
-18.8179
 30
0.0
  0
SPLINE
  5
5A
330
1F
100
AcDbEntity
  8
AXIS
 62
   250
100
AcDbSpline
210
0.0
220
0.0
230
1.0
 70
    24
 71
     3
 72
     8
 73
     4
 74
     0
 42
0.0000000001
 43
0.0000000001
 40
0.0
 40
0.0
 40
0.0
 40
0.0
 40
1.0
 40
1.0
 40
1.0
 40
1.0
 10
-5.024
 20
-18.3902
 30
0.0
 10
-5.024
 20
-18.3902
 30
0.0
 10
-5.024
 20
-17.1071
 30
0.0
 10
-5.024
 20
-17.1071
 30
0.0
  0
SPLINE
  5
5B
330
1F
100
AcDbEntity
  8
AXIS
 62
   250
100
AcDbSpline
210
0.0
220
0.0
230
1.0
 70
    24
 71
     3
 72
     8
 73
     4
 74
     0
 42
0.0000000001
 43
0.0000000001
 40
0.0
 40
0.0
 40
0.0
 40
0.0
 40
1.0
 40
1.0
 40
1.0
 40
1.0
 10
-5.024
 20
-16.6794
 30
0.0
 10
-5.024
 20
-16.6794
 30
0.0
 10
-5.024
 20
-15.3962
 30
0.0
 10
-5.024
 20
-15.3962
 30
0.0
  0
SPLINE
  5
5C
330
1F
100
AcDbEntity
  8
AXIS
 62
   250
100
AcDbSpline
210
0.0
220
0.0
230
1.0
 70
    24
 71
     3
 72
     8
 73
     4
 74
     0
 42
0.0000000001
 43
0.0000000001
 40
0.0
 40
0.0
 40
0.0
 40
0.0
 40
1.0
 40
1.0
 40
1.0
 40
1.0
 10
-2.8394
 20
-27.3721
 30
0.0
 10
-2.8394
 20
-27.3721
 30
0.0
 10
-2.03
 20
-27.3721
 30
0.0
 10
-2.03
 20
-27.3721
 30
0.0
  0
SPLINE
  5
5D
330
1F
100
AcDbEntity
  8
AXIS
 62
   250
100
AcDbSpline
210
0.0
220
0.0
230
1.0
 70
    24
 71
     3
 72
     8
 73
     4
 74
     0
 42
0.0000000001
 43
0.0000000001
 40
0.0
 40
0.0
 40
0.0
 40
0.0
 40
1.0
 40
1.0
 40
1.0
 40
1.0
 10
-1.6023
 20
-27.3721
 30
0.0
 10
-1.6023
 20
-27.3721
 30
0.0
 10
-0.3192
 20
-27.3721
 30
0.0
 10
-0.3192
 20
-27.3721
 30
0.0
  0
SPLINE
  5
5E
330
1F
100
AcDbEntity
  8
AXIS
 62
   250
100
AcDbSpline
210
0.0
220
0.0
230
1.0
 70
    24
 71
     3
 72
     8
 73
     4
 74
     0
 42
0.0000000001
 43
0.0000000001
 40
0.0
 40
0.0
 40
0.0
 40
0.0
 40
1.0
 40
1.0
 40
1.0
 40
1.0
 10
0.1085
 20
-27.3721
 30
0.0
 10
0.1085
 20
-27.3721
 30
0.0
 10
1.3916
 20
-27.3721
 30
0.0
 10
1.3916
 20
-27.3721
 30
0.0
  0
SPLINE
  5
5F
330
1F
100
AcDbEntity
  8
AXIS
 62
   250
100
AcDbSpline
210
0.0
220
0.0
230
1.0
 70
    24
 71
     3
 72
     8
 73
     4
 74
     0
 42
0.0000000001
 43
0.0000000001
 40
0.0
 40
0.0
 40
0.0
 40
0.0
 40
1.0
 40
1.0
 40
1.0
 40
1.0
 10
1.8193
 20
-27.3721
 30
0.0
 10
1.8193
 20
-27.3721
 30
0.0
 10
3.1025
 20
-27.3721
 30
0.0
 10
3.1025
 20
-27.3721
 30
0.0
  0
SPLINE
  5
60
330
1F
100
AcDbEntity
  8
AXIS
 62
   250
100
AcDbSpline
210
0.0
220
0.0
230
1.0
 70
    24
 71
     3
 72
     8
 73
     4
 74
     0
 42
0.0000000001
 43
0.0000000001
 40
0.0
 40
0.0
 40
0.0
 40
0.0
 40
1.0
 40
1.0
 40
1.0
 40
1.0
 10
3.5302
 20
-27.3721
 30
0.0
 10
3.5302
 20
-27.3721
 30
0.0
 10
4.8133
 20
-27.3721
 30
0.0
 10
4.8133
 20
-27.3721
 30
0.0
  0
SPLINE
  5
61
330
1F
100
AcDbEntity
  8
AXIS
 62
   250
100
AcDbSpline
210
0.0
220
0.0
230
1.0
 70
    24
 71
     3
 72
     8
 73
     4
 74
     0
 42
0.0000000001
 43
0.0000000001
 40
0.0
 40
0.0
 40
0.0
 40
0.0
 40
1.0
 40
1.0
 40
1.0
 40
1.0
 10
5.241
 20
-27.3721
 30
0.0
 10
5.241
 20
-27.3721
 30
0.0
 10
6.0504
 20
-27.3721
 30
0.0
 10
6.0504
 20
-27.3721
 30
0.0
  0
SPLINE
  5
62
330
1F
100
AcDbEntity
  8
AXIS
 62
   250
100
AcDbSpline
210
0.0
220
0.0
230
1.0
 70
    24
 71
     3
 72
     8
 73
     4
 74
     0
 42
0.0000000001
 43
0.0000000001
 40
0.0
 40
0.0
 40
0.0
 40
0.0
 40
1.0
 40
1.0
 40
1.0
 40
1.0
 10
6.5242
 20
-26.9444
 30
0.0
 10
6.5242
 20
-26.9444
 30
0.0
 10
5.241
 20
-26.9444
 30
0.0
 10
5.241
 20
-26.9444
 30
0.0
  0
SPLINE
  5
63
330
1F
100
AcDbEntity
  8
AXIS
 62
   250
100
AcDbSpline
210
0.0
220
0.0
230
1.0
 70
    24
 71
     3
 72
     8
 73
     4
 74
     0
 42
0.0000000001
 43
0.0000000001
 40
0.0
 40
0.0
 40
0.0
 40
0.0
 40
1.0
 40
1.0
 40
1.0
 40
1.0
 10
4.8133
 20
-26.9444
 30
0.0
 10
4.8133
 20
-26.9444
 30
0.0
 10
3.5302
 20
-26.9444
 30
0.0
 10
3.5302
 20
-26.9444
 30
0.0
  0
SPLINE
  5
64
330
1F
100
AcDbEntity
  8
AXIS
 62
   250
100
AcDbSpline
210
0.0
220
0.0
230
1.0
 70
    24
 71
     3
 72
     8
 73
     4
 74
     0
 42
0.0000000001
 43
0.0000000001
 40
0.0
 40
0.0
 40
0.0
 40
0.0
 40
1.0
 40
1.0
 40
1.0
 40
1.0
 10
3.1025
 20
-26.9444
 30
0.0
 10
3.1025
 20
-26.9444
 30
0.0
 10
1.8193
 20
-26.9444
 30
0.0
 10
1.8193
 20
-26.9444
 30
0.0
  0
SPLINE
  5
65
330
1F
100
AcDbEntity
  8
AXIS
 62
   250
100
AcDbSpline
210
0.0
220
0.0
230
1.0
 70
    24
 71
     3
 72
     8
 73
     4
 74
     0
 42
0.0000000001
 43
0.0000000001
 40
0.0
 40
0.0
 40
0.0
 40
0.0
 40
1.0
 40
1.0
 40
1.0
 40
1.0
 10
1.3916
 20
-26.9444
 30
0.0
 10
1.3916
 20
-26.9444
 30
0.0
 10
0.1085
 20
-26.9444
 30
0.0
 10
0.1085
 20
-26.9444
 30
0.0
  0
SPLINE
  5
66
330
1F
100
AcDbEntity
  8
AXIS
 62
   250
100
AcDbSpline
210
0.0
220
0.0
230
1.0
 70
    24
 71
     3
 72
     8
 73
     4
 74
     0
 42
0.0000000001
 43
0.0000000001
 40
0.0
 40
0.0
 40
0.0
 40
0.0
 40
1.0
 40
1.0
 40
1.0
 40
1.0
 10
-0.3192
 20
-26.9444
 30
0.0
 10
-0.3192
 20
-26.9444
 30
0.0
 10
-1.6023
 20
-26.9444
 30
0.0
 10
-1.6023
 20
-26.9444
 30
0.0
  0
SPLINE
  5
67
330
1F
100
AcDbEntity
  8
AXIS
 62
   250
100
AcDbSpline
210
0.0
220
0.0
230
1.0
 70
    24
 71
     3
 72
     8
 73
     4
 74
     0
 42
0.0000000001
 43
0.0000000001
 40
0.0
 40
0.0
 40
0.0
 40
0.0
 40
1.0
 40
1.0
 40
1.0
 40
1.0
 10
-2.03
 20
-26.9444
 30
0.0
 10
-2.03
 20
-26.9444
 30
0.0
 10
-3.3132
 20
-26.9444
 30
0.0
 10
-3.3132
 20
-26.9444
 30
0.0
  0
SPLINE
  5
68
330
1F
100
AcDbEntity
  8
AXIS
 62
   250
100
AcDbSpline
210
0.0
220
0.0
230
1.0
 70
    24
 71
     3
 72
     8
 73
     4
 74
     0
 42
0.0000000001
 43
0.0000000001
 40
0.0
 40
0.0
 40
0.0
 40
0.0
 40
1.0
 40
1.0
 40
1.0
 40
1.0
 10
-3.7409
 20
-13.9135
 30
0.0
 10
-3.7409
 20
-13.9135
 30
0.0
 10
-3.7409
 20
-14.9685
 30
0.0
 10
-3.7409
 20
-14.9685
 30
0.0
  0
SPLINE
  5
69
330
1F
100
AcDbEntity
  8
AXIS
 62
   250
100
AcDbSpline
210
0.0
220
0.0
230
1.0
 70
    24
 71
     3
 72
     8
 73
     4
 74
     0
 42
0.0000000001
 43
0.0000000001
 40
0.0
 40
0.0
 40
0.0
 40
0.0
 40
1.0
 40
1.0
 40
1.0
 40
1.0
 10
-3.7409
 20
-15.3962
 30
0.0
 10
-3.7409
 20
-15.3962
 30
0.0
 10
-3.7409
 20
-16.6794
 30
0.0
 10
-3.7409
 20
-16.6794
 30
0.0
  0
SPLINE
  5
6A
330
1F
100
AcDbEntity
  8
AXIS
 62
   250
100
AcDbSpline
210
0.0
220
0.0
230
1.0
 70
    24
 71
     3
 72
     8
 73
     4
 74
     0
 42
0.0000000001
 43
0.0000000001
 40
0.0
 40
0.0
 40
0.0
 40
0.0
 40
1.0
 40
1.0
 40
1.0
 40
1.0
 10
-3.7409
 20
-17.1071
 30
0.0
 10
-3.7409
 20
-17.1071
 30
0.0
 10
-3.7409
 20
-18.3902
 30
0.0
 10
-3.7409
 20
-18.3902
 30
0.0
  0
SPLINE
  5
6B
330
1F
100
AcDbEntity
  8
AXIS
 62
   250
100
AcDbSpline
210
0.0
220
0.0
230
1.0
 70
    24
 71
     3
 72
     8
 73
     4
 74
     0
 42
0.0000000001
 43
0.0000000001
 40
0.0
 40
0.0
 40
0.0
 40
0.0
 40
1.0
 40
1.0
 40
1.0
 40
1.0
 10
-3.7409
 20
-18.8179
 30
0.0
 10
-3.7409
 20
-18.8179
 30
0.0
 10
-3.7409
 20
-20.101
 30
0.0
 10
-3.7409
 20
-20.101
 30
0.0
  0
SPLINE
  5
6C
330
1F
100
AcDbEntity
  8
AXIS
 62
   250
100
AcDbSpline
210
0.0
220
0.0
230
1.0
 70
    24
 71
     3
 72
     8
 73
     4
 74
     0
 42
0.0000000001
 43
0.0000000001
 40
0.0
 40
0.0
 40
0.0
 40
0.0
 40
1.0
 40
1.0
 40
1.0
 40
1.0
 10
-3.7409
 20
-20.5288
 30
0.0
 10
-3.7409
 20
-20.5288
 30
0.0
 10
-3.7409
 20
-21.8119
 30
0.0
 10
-3.7409
 20
-21.8119
 30
0.0
  0
SPLINE
  5
6D
330
1F
100
AcDbEntity
  8
AXIS
 62
   250
100
AcDbSpline
210
0.0
220
0.0
230
1.0
 70
    24
 71
     3
 72
     8
 73
     4
 74
     0
 42
0.0000000001
 43
0.0000000001
 40
0.0
 40
0.0
 40
0.0
 40
0.0
 40
1.0
 40
1.0
 40
1.0
 40
1.0
 10
-3.7409
 20
-22.2396
 30
0.0
 10
-3.7409
 20
-22.2396
 30
0.0
 10
-3.7409
 20
-23.5227
 30
0.0
 10
-3.7409
 20
-23.5227
 30
0.0
  0
SPLINE
  5
6E
330
1F
100
AcDbEntity
  8
AXIS
 62
   250
100
AcDbSpline
210
0.0
220
0.0
230
1.0
 70
    24
 71
     3
 72
     8
 73
     4
 74
     0
 42
0.0000000001
 43
0.0000000001
 40
0.0
 40
0.0
 40
0.0
 40
0.0
 40
1.0
 40
1.0
 40
1.0
 40
1.0
 10
-3.7409
 20
-23.9504
 30
0.0
 10
-3.7409
 20
-23.9504
 30
0.0
 10
-3.7409
 20
-25.2336
 30
0.0
 10
-3.7409
 20
-25.2336
 30
0.0
  0
SPLINE
  5
6F
330
1F
100
AcDbEntity
  8
AXIS
 62
   250
100
AcDbSpline
210
0.0
220
0.0
230
1.0
 70
    24
 71
     3
 72
     8
 73
     4
 74
     0
 42
0.0000000001
 43
0.0000000001
 40
0.0
 40
0.0
 40
0.0
 40
0.0
 40
1.0
 40
1.0
 40
1.0
 40
1.0
 10
-3.7409
 20
-25.6613
 30
0.0
 10
-3.7409
 20
-25.6613
 30
0.0
 10
-3.7409
 20
-26.7163
 30
0.0
 10
-3.7409
 20
-26.7163
 30
0.0
  0
SPLINE
  5
70
330
1F
100
AcDbEntity
  8
AXIS
 62
   250
100
AcDbSpline
210
0.0
220
0.0
230
1.0
 70
    24
 71
     3
 72
     8
 73
     4
 74
     0
 42
0.0000000001
 43
0.0000000001
 40
0.0
 40
0.0
 40
0.0
 40
0.0
 40
1.0
 40
1.0
 40
1.0
 40
1.0
 10
-3.3132
 20
-26.9444
 30
0.0
 10
-3.3132
 20
-26.9444
 30
0.0
 10
-3.3132
 20
-25.6613
 30
0.0
 10
-3.3132
 20
-25.6613
 30
0.0
  0
SPLINE
  5
71
330
1F
100
AcDbEntity
  8
AXIS
 62
   250
100
AcDbSpline
210
0.0
220
0.0
230
1.0
 70
    24
 71
     3
 72
     8
 73
     4
 74
     0
 42
0.0000000001
 43
0.0000000001
 40
0.0
 40
0.0
 40
0.0
 40
0.0
 40
1.0
 40
1.0
 40
1.0
 40
1.0
 10
-3.3132
 20
-25.2336
 30
0.0
 10
-3.3132
 20
-25.2336
 30
0.0
 10
-3.3132
 20
-23.9504
 30
0.0
 10
-3.3132
 20
-23.9504
 30
0.0
  0
SPLINE
  5
72
330
1F
100
AcDbEntity
  8
AXIS
 62
   250
100
AcDbSpline
210
0.0
220
0.0
230
1.0
 70
    24
 71
     3
 72
     8
 73
     4
 74
     0
 42
0.0000000001
 43
0.0000000001
 40
0.0
 40
0.0
 40
0.0
 40
0.0
 40
1.0
 40
1.0
 40
1.0
 40
1.0
 10
-3.3132
 20
-23.5227
 30
0.0
 10
-3.3132
 20
-23.5227
 30
0.0
 10
-3.3132
 20
-22.2396
 30
0.0
 10
-3.3132
 20
-22.2396
 30
0.0
  0
SPLINE
  5
73
330
1F
100
AcDbEntity
  8
AXIS
 62
   250
100
AcDbSpline
210
0.0
220
0.0
230
1.0
 70
    24
 71
     3
 72
     8
 73
     4
 74
     0
 42
0.0000000001
 43
0.0000000001
 40
0.0
 40
0.0
 40
0.0
 40
0.0
 40
1.0
 40
1.0
 40
1.0
 40
1.0
 10
-3.3132
 20
-21.8119
 30
0.0
 10
-3.3132
 20
-21.8119
 30
0.0
 10
-3.3132
 20
-20.5288
 30
0.0
 10
-3.3132
 20
-20.5288
 30
0.0
  0
SPLINE
  5
74
330
1F
100
AcDbEntity
  8
AXIS
 62
   250
100
AcDbSpline
210
0.0
220
0.0
230
1.0
 70
    24
 71
     3
 72
     8
 73
     4
 74
     0
 42
0.0000000001
 43
0.0000000001
 40
0.0
 40
0.0
 40
0.0
 40
0.0
 40
1.0
 40
1.0
 40
1.0
 40
1.0
 10
-3.3132
 20
-20.101
 30
0.0
 10
-3.3132
 20
-20.101
 30
0.0
 10
-3.3132
 20
-18.8179
 30
0.0
 10
-3.3132
 20
-18.8179
 30
0.0
  0
SPLINE
  5
75
330
1F
100
AcDbEntity
  8
AXIS
 62
   250
100
AcDbSpline
210
0.0
220
0.0
230
1.0
 70
    24
 71
     3
 72
     8
 73
     4
 74
     0
 42
0.0000000001
 43
0.0000000001
 40
0.0
 40
0.0
 40
0.0
 40
0.0
 40
1.0
 40
1.0
 40
1.0
 40
1.0
 10
-3.3132
 20
-18.3902
 30
0.0
 10
-3.3132
 20
-18.3902
 30
0.0
 10
-3.3132
 20
-17.1071
 30
0.0
 10
-3.3132
 20
-17.1071
 30
0.0
  0
SPLINE
  5
76
330
1F
100
AcDbEntity
  8
AXIS
 62
   250
100
AcDbSpline
210
0.0
220
0.0
230
1.0
 70
    24
 71
     3
 72
     8
 73
     4
 74
     0
 42
0.0000000001
 43
0.0000000001
 40
0.0
 40
0.0
 40
0.0
 40
0.0
 40
1.0
 40
1.0
 40
1.0
 40
1.0
 10
-3.3132
 20
-16.6794
 30
0.0
 10
-3.3132
 20
-16.6794
 30
0.0
 10
-3.3132
 20
-15.3962
 30
0.0
 10
-3.3132
 20
-15.3962
 30
0.0
  0
SPLINE
  5
77
330
1F
100
AcDbEntity
  8
AXIS
 62
   250
100
AcDbSpline
210
0.0
220
0.0
230
1.0
 70
    24
 71
     3
 72
     8
 73
     4
 74
     0
 42
0.0000000001
 43
0.0000000001
 40
0.0
 40
0.0
 40
0.0
 40
0.0
 40
1.0
 40
1.0
 40
1.0
 40
1.0
 10
-3.3132
 20
-14.9685
 30
0.0
 10
-3.3132
 20
-14.9685
 30
0.0
 10
-3.3132
 20
-13.6854
 30
0.0
 10
-3.3132
 20
-13.6854
 30
0.0
  0
SPLINE
  5
78
330
1F
100
AcDbEntity
  8
AXIS
 62
   250
100
AcDbSpline
210
0.0
220
0.0
230
1.0
 70
    24
 71
     3
 72
     8
 73
     4
 74
     0
 42
0.0000000001
 43
0.0000000001
 40
0.0
 40
0.0
 40
0.0
 40
0.0
 40
1.0
 40
1.0
 40
1.0
 40
1.0
 10
-4.7959
 20
-25.6613
 30
0.0
 10
-4.7959
 20
-25.6613
 30
0.0
 10
-3.7409
 20
-25.6613
 30
0.0
 10
-3.7409
 20
-25.6613
 30
0.0
  0
SPLINE
  5
79
330
1F
100
AcDbEntity
  8
AXIS
 62
   250
100
AcDbSpline
210
0.0
220
0.0
230
1.0
 70
    24
 71
     3
 72
     8
 73
     4
 74
     0
 42
0.0000000001
 43
0.0000000001
 40
0.0
 40
0.0
 40
0.0
 40
0.0
 40
1.0
 40
1.0
 40
1.0
 40
1.0
 10
-3.3132
 20
-25.6613
 30
0.0
 10
-3.3132
 20
-25.6613
 30
0.0
 10
-2.03
 20
-25.6613
 30
0.0
 10
-2.03
 20
-25.6613
 30
0.0
  0
SPLINE
  5
7A
330
1F
100
AcDbEntity
  8
AXIS
 62
   250
100
AcDbSpline
210
0.0
220
0.0
230
1.0
 70
    24
 71
     3
 72
     8
 73
     4
 74
     0
 42
0.0000000001
 43
0.0000000001
 40
0.0
 40
0.0
 40
0.0
 40
0.0
 40
1.0
 40
1.0
 40
1.0
 40
1.0
 10
-1.6023
 20
-25.6613
 30
0.0
 10
-1.6023
 20
-25.6613
 30
0.0
 10
-0.3192
 20
-25.6613
 30
0.0
 10
-0.3192
 20
-25.6613
 30
0.0
  0
SPLINE
  5
7B
330
1F
100
AcDbEntity
  8
AXIS
 62
   250
100
AcDbSpline
210
0.0
220
0.0
230
1.0
 70
    24
 71
     3
 72
     8
 73
     4
 74
     0
 42
0.0000000001
 43
0.0000000001
 40
0.0
 40
0.0
 40
0.0
 40
0.0
 40
1.0
 40
1.0
 40
1.0
 40
1.0
 10
0.1085
 20
-25.6613
 30
0.0
 10
0.1085
 20
-25.6613
 30
0.0
 10
1.3916
 20
-25.6613
 30
0.0
 10
1.3916
 20
-25.6613
 30
0.0
  0
SPLINE
  5
7C
330
1F
100
AcDbEntity
  8
AXIS
 62
   250
100
AcDbSpline
210
0.0
220
0.0
230
1.0
 70
    24
 71
     3
 72
     8
 73
     4
 74
     0
 42
0.0000000001
 43
0.0000000001
 40
0.0
 40
0.0
 40
0.0
 40
0.0
 40
1.0
 40
1.0
 40
1.0
 40
1.0
 10
1.8193
 20
-25.6613
 30
0.0
 10
1.8193
 20
-25.6613
 30
0.0
 10
3.1025
 20
-25.6613
 30
0.0
 10
3.1025
 20
-25.6613
 30
0.0
  0
SPLINE
  5
7D
330
1F
100
AcDbEntity
  8
AXIS
 62
   250
100
AcDbSpline
210
0.0
220
0.0
230
1.0
 70
    24
 71
     3
 72
     8
 73
     4
 74
     0
 42
0.0000000001
 43
0.0000000001
 40
0.0
 40
0.0
 40
0.0
 40
0.0
 40
1.0
 40
1.0
 40
1.0
 40
1.0
 10
3.5302
 20
-25.6613
 30
0.0
 10
3.5302
 20
-25.6613
 30
0.0
 10
4.8133
 20
-25.6613
 30
0.0
 10
4.8133
 20
-25.6613
 30
0.0
  0
SPLINE
  5
7E
330
1F
100
AcDbEntity
  8
AXIS
 62
   250
100
AcDbSpline
210
0.0
220
0.0
230
1.0
 70
    24
 71
     3
 72
     8
 73
     4
 74
     0
 42
0.0000000001
 43
0.0000000001
 40
0.0
 40
0.0
 40
0.0
 40
0.0
 40
1.0
 40
1.0
 40
1.0
 40
1.0
 10
5.241
 20
-25.6613
 30
0.0
 10
5.241
 20
-25.6613
 30
0.0
 10
6.5242
 20
-25.6613
 30
0.0
 10
6.5242
 20
-25.6613
 30
0.0
  0
SPLINE
  5
7F
330
1F
100
AcDbEntity
  8
AXIS
 62
   250
100
AcDbSpline
210
0.0
220
0.0
230
1.0
 70
    24
 71
     3
 72
     8
 73
     4
 74
     0
 42
0.0000000001
 43
0.0000000001
 40
0.0
 40
0.0
 40
0.0
 40
0.0
 40
1.0
 40
1.0
 40
1.0
 40
1.0
 10
6.9519
 20
-25.6613
 30
0.0
 10
6.9519
 20
-25.6613
 30
0.0
 10
8.0069
 20
-25.6613
 30
0.0
 10
8.0069
 20
-25.6613
 30
0.0
  0
SPLINE
  5
80
330
1F
100
AcDbEntity
  8
AXIS
 62
   250
100
AcDbSpline
210
0.0
220
0.0
230
1.0
 70
    24
 71
     3
 72
     8
 73
     4
 74
     0
 42
0.0000000001
 43
0.0000000001
 40
0.0
 40
0.0
 40
0.0
 40
0.0
 40
1.0
 40
1.0
 40
1.0
 40
1.0
 10
8.235
 20
-25.2336
 30
0.0
 10
8.235
 20
-25.2336
 30
0.0
 10
6.9519
 20
-25.2336
 30
0.0
 10
6.9519
 20
-25.2336
 30
0.0
  0
SPLINE
  5
81
330
1F
100
AcDbEntity
  8
AXIS
 62
   250
100
AcDbSpline
210
0.0
220
0.0
230
1.0
 70
    24
 71
     3
 72
     8
 73
     4
 74
     0
 42
0.0000000001
 43
0.0000000001
 40
0.0
 40
0.0
 40
0.0
 40
0.0
 40
1.0
 40
1.0
 40
1.0
 40
1.0
 10
6.5242
 20
-25.2336
 30
0.0
 10
6.5242
 20
-25.2336
 30
0.0
 10
5.241
 20
-25.2336
 30
0.0
 10
5.241
 20
-25.2336
 30
0.0
  0
SPLINE
  5
82
330
1F
100
AcDbEntity
  8
AXIS
 62
   250
100
AcDbSpline
210
0.0
220
0.0
230
1.0
 70
    24
 71
     3
 72
     8
 73
     4
 74
     0
 42
0.0000000001
 43
0.0000000001
 40
0.0
 40
0.0
 40
0.0
 40
0.0
 40
1.0
 40
1.0
 40
1.0
 40
1.0
 10
4.8133
 20
-25.2336
 30
0.0
 10
4.8133
 20
-25.2336
 30
0.0
 10
3.5302
 20
-25.2336
 30
0.0
 10
3.5302
 20
-25.2336
 30
0.0
  0
SPLINE
  5
83
330
1F
100
AcDbEntity
  8
AXIS
 62
   250
100
AcDbSpline
210
0.0
220
0.0
230
1.0
 70
    24
 71
     3
 72
     8
 73
     4
 74
     0
 42
0.0000000001
 43
0.0000000001
 40
0.0
 40
0.0
 40
0.0
 40
0.0
 40
1.0
 40
1.0
 40
1.0
 40
1.0
 10
3.1025
 20
-25.2336
 30
0.0
 10
3.1025
 20
-25.2336
 30
0.0
 10
1.8193
 20
-25.2336
 30
0.0
 10
1.8193
 20
-25.2336
 30
0.0
  0
SPLINE
  5
84
330
1F
100
AcDbEntity
  8
AXIS
 62
   250
100
AcDbSpline
210
0.0
220
0.0
230
1.0
 70
    24
 71
     3
 72
     8
 73
     4
 74
     0
 42
0.0000000001
 43
0.0000000001
 40
0.0
 40
0.0
 40
0.0
 40
0.0
 40
1.0
 40
1.0
 40
1.0
 40
1.0
 10
1.3916
 20
-25.2336
 30
0.0
 10
1.3916
 20
-25.2336
 30
0.0
 10
0.1085
 20
-25.2336
 30
0.0
 10
0.1085
 20
-25.2336
 30
0.0
  0
SPLINE
  5
85
330
1F
100
AcDbEntity
  8
AXIS
 62
   250
100
AcDbSpline
210
0.0
220
0.0
230
1.0
 70
    24
 71
     3
 72
     8
 73
     4
 74
     0
 42
0.0000000001
 43
0.0000000001
 40
0.0
 40
0.0
 40
0.0
 40
0.0
 40
1.0
 40
1.0
 40
1.0
 40
1.0
 10
-0.3192
 20
-25.2336
 30
0.0
 10
-0.3192
 20
-25.2336
 30
0.0
 10
-1.6023
 20
-25.2336
 30
0.0
 10
-1.6023
 20
-25.2336
 30
0.0
  0
SPLINE
  5
86
330
1F
100
AcDbEntity
  8
AXIS
 62
   250
100
AcDbSpline
210
0.0
220
0.0
230
1.0
 70
    24
 71
     3
 72
     8
 73
     4
 74
     0
 42
0.0000000001
 43
0.0000000001
 40
0.0
 40
0.0
 40
0.0
 40
0.0
 40
1.0
 40
1.0
 40
1.0
 40
1.0
 10
-2.03
 20
-25.2336
 30
0.0
 10
-2.03
 20
-25.2336
 30
0.0
 10
-3.3132
 20
-25.2336
 30
0.0
 10
-3.3132
 20
-25.2336
 30
0.0
  0
SPLINE
  5
87
330
1F
100
AcDbEntity
  8
AXIS
 62
   250
100
AcDbSpline
210
0.0
220
0.0
230
1.0
 70
    24
 71
     3
 72
     8
 73
     4
 74
     0
 42
0.0000000001
 43
0.0000000001
 40
0.0
 40
0.0
 40
0.0
 40
0.0
 40
1.0
 40
1.0
 40
1.0
 40
1.0
 10
-3.7409
 20
-25.2336
 30
0.0
 10
-3.7409
 20
-25.2336
 30
0.0
 10
-5.024
 20
-25.2336
 30
0.0
 10
-5.024
 20
-25.2336
 30
0.0
  0
SPLINE
  5
88
330
1F
100
AcDbEntity
  8
AXIS
 62
   250
100
AcDbSpline
210
0.0
220
0.0
230
1.0
 70
    24
 71
     3
 72
     8
 73
     4
 74
     0
 42
0.0000000001
 43
0.0000000001
 40
0.0
 40
0.0
 40
0.0
 40
0.0
 40
1.0
 40
1.0
 40
1.0
 40
1.0
 10
-2.03
 20
-12.8086
 30
0.0
 10
-2.03
 20
-12.8086
 30
0.0
 10
-2.03
 20
-13.2577
 30
0.0
 10
-2.03
 20
-13.2577
 30
0.0
  0
SPLINE
  5
89
330
1F
100
AcDbEntity
  8
AXIS
 62
   250
100
AcDbSpline
210
0.0
220
0.0
230
1.0
 70
    24
 71
     3
 72
     8
 73
     4
 74
     0
 42
0.0000000001
 43
0.0000000001
 40
0.0
 40
0.0
 40
0.0
 40
0.0
 40
1.0
 40
1.0
 40
1.0
 40
1.0
 10
-2.03
 20
-13.6854
 30
0.0
 10
-2.03
 20
-13.6854
 30
0.0
 10
-2.03
 20
-14.9685
 30
0.0
 10
-2.03
 20
-14.9685
 30
0.0
  0
SPLINE
  5
8A
330
1F
100
AcDbEntity
  8
AXIS
 62
   250
100
AcDbSpline
210
0.0
220
0.0
230
1.0
 70
    24
 71
     3
 72
     8
 73
     4
 74
     0
 42
0.0000000001
 43
0.0000000001
 40
0.0
 40
0.0
 40
0.0
 40
0.0
 40
1.0
 40
1.0
 40
1.0
 40
1.0
 10
-2.03
 20
-15.3962
 30
0.0
 10
-2.03
 20
-15.3962
 30
0.0
 10
-2.03
 20
-16.6794
 30
0.0
 10
-2.03
 20
-16.6794
 30
0.0
  0
SPLINE
  5
8B
330
1F
100
AcDbEntity
  8
AXIS
 62
   250
100
AcDbSpline
210
0.0
220
0.0
230
1.0
 70
    24
 71
     3
 72
     8
 73
     4
 74
     0
 42
0.0000000001
 43
0.0000000001
 40
0.0
 40
0.0
 40
0.0
 40
0.0
 40
1.0
 40
1.0
 40
1.0
 40
1.0
 10
-2.03
 20
-23.9504
 30
0.0
 10
-2.03
 20
-23.9504
 30
0.0
 10
-2.03
 20
-25.2336
 30
0.0
 10
-2.03
 20
-25.2336
 30
0.0
  0
SPLINE
  5
8C
330
1F
100
AcDbEntity
  8
AXIS
 62
   250
100
AcDbSpline
210
0.0
220
0.0
230
1.0
 70
    24
 71
     3
 72
     8
 73
     4
 74
     0
 42
0.0000000001
 43
0.0000000001
 40
0.0
 40
0.0
 40
0.0
 40
0.0
 40
1.0
 40
1.0
 40
1.0
 40
1.0
 10
-2.03
 20
-25.6613
 30
0.0
 10
-2.03
 20
-25.6613
 30
0.0
 10
-2.03
 20
-26.9444
 30
0.0
 10
-2.03
 20
-26.9444
 30
0.0
  0
SPLINE
  5
8D
330
1F
100
AcDbEntity
  8
AXIS
 62
   250
100
AcDbSpline
210
0.0
220
0.0
230
1.0
 70
    24
 71
     3
 72
     8
 73
     4
 74
     0
 42
0.0000000001
 43
0.0000000001
 40
0.0
 40
0.0
 40
0.0
 40
0.0
 40
1.0
 40
1.0
 40
1.0
 40
1.0
 10
-2.03
 20
-27.3721
 30
0.0
 10
-2.03
 20
-27.3721
 30
0.0
 10
-2.03
 20
-27.8212
 30
0.0
 10
-2.03
 20
-27.8212
 30
0.0
  0
SPLINE
  5
8E
330
1F
100
AcDbEntity
  8
AXIS
 62
   250
100
AcDbSpline
210
0.0
220
0.0
230
1.0
 70
    24
 71
     3
 72
     8
 73
     4
 74
     0
 42
0.0000000001
 43
0.0000000001
 40
0.0
 40
0.0
 40
0.0
 40
0.0
 40
1.0
 40
1.0
 40
1.0
 40
1.0
 10
-1.6023
 20
-28.0137
 30
0.0
 10
-1.6023
 20
-28.0137
 30
0.0
 10
-1.6023
 20
-27.3721
 30
0.0
 10
-1.6023
 20
-27.3721
 30
0.0
  0
SPLINE
  5
8F
330
1F
100
AcDbEntity
  8
AXIS
 62
   250
100
AcDbSpline
210
0.0
220
0.0
230
1.0
 70
    24
 71
     3
 72
     8
 73
     4
 74
     0
 42
0.0000000001
 43
0.0000000001
 40
0.0
 40
0.0
 40
0.0
 40
0.0
 40
1.0
 40
1.0
 40
1.0
 40
1.0
 10
-1.6023
 20
-26.9444
 30
0.0
 10
-1.6023
 20
-26.9444
 30
0.0
 10
-1.6023
 20
-25.6613
 30
0.0
 10
-1.6023
 20
-25.6613
 30
0.0
  0
SPLINE
  5
90
330
1F
100
AcDbEntity
  8
AXIS
 62
   250
100
AcDbSpline
210
0.0
220
0.0
230
1.0
 70
    24
 71
     3
 72
     8
 73
     4
 74
     0
 42
0.0000000001
 43
0.0000000001
 40
0.0
 40
0.0
 40
0.0
 40
0.0
 40
1.0
 40
1.0
 40
1.0
 40
1.0
 10
-1.6023
 20
-25.2336
 30
0.0
 10
-1.6023
 20
-25.2336
 30
0.0
 10
-1.6023
 20
-23.9504
 30
0.0
 10
-1.6023
 20
-23.9504
 30
0.0
  0
SPLINE
  5
91
330
1F
100
AcDbEntity
  8
AXIS
 62
   250
100
AcDbSpline
210
0.0
220
0.0
230
1.0
 70
    24
 71
     3
 72
     8
 73
     4
 74
     0
 42
0.0000000001
 43
0.0000000001
 40
0.0
 40
0.0
 40
0.0
 40
0.0
 40
1.0
 40
1.0
 40
1.0
 40
1.0
 10
-1.6023
 20
-16.6794
 30
0.0
 10
-1.6023
 20
-16.6794
 30
0.0
 10
-1.6023
 20
-15.3962
 30
0.0
 10
-1.6023
 20
-15.3962
 30
0.0
  0
SPLINE
  5
92
330
1F
100
AcDbEntity
  8
AXIS
 62
   250
100
AcDbSpline
210
0.0
220
0.0
230
1.0
 70
    24
 71
     3
 72
     8
 73
     4
 74
     0
 42
0.0000000001
 43
0.0000000001
 40
0.0
 40
0.0
 40
0.0
 40
0.0
 40
1.0
 40
1.0
 40
1.0
 40
1.0
 10
-1.6023
 20
-14.9685
 30
0.0
 10
-1.6023
 20
-14.9685
 30
0.0
 10
-1.6023
 20
-13.6854
 30
0.0
 10
-1.6023
 20
-13.6854
 30
0.0
  0
SPLINE
  5
93
330
1F
100
AcDbEntity
  8
AXIS
 62
   250
100
AcDbSpline
210
0.0
220
0.0
230
1.0
 70
    24
 71
     3
 72
     8
 73
     4
 74
     0
 42
0.0000000001
 43
0.0000000001
 40
0.0
 40
0.0
 40
0.0
 40
0.0
 40
1.0
 40
1.0
 40
1.0
 40
1.0
 10
-1.6023
 20
-13.2577
 30
0.0
 10
-1.6023
 20
-13.2577
 30
0.0
 10
-1.6023
 20
-12.6161
 30
0.0
 10
-1.6023
 20
-12.6161
 30
0.0
  0
SPLINE
  5
94
330
1F
100
AcDbEntity
  8
AXIS
 62
   250
100
AcDbSpline
210
0.0
220
0.0
230
1.0
 70
    24
 71
     3
 72
     8
 73
     4
 74
     0
 42
0.0000000001
 43
0.0000000001
 40
0.0
 40
0.0
 40
0.0
 40
0.0
 40
1.0
 40
1.0
 40
1.0
 40
1.0
 10
-5.9008
 20
-23.9504
 30
0.0
 10
-5.9008
 20
-23.9504
 30
0.0
 10
-5.4517
 20
-23.9504
 30
0.0
 10
-5.4517
 20
-23.9504
 30
0.0
  0
SPLINE
  5
95
330
1F
100
AcDbEntity
  8
AXIS
 62
   250
100
AcDbSpline
210
0.0
220
0.0
230
1.0
 70
    24
 71
     3
 72
     8
 73
     4
 74
     0
 42
0.0000000001
 43
0.0000000001
 40
0.0
 40
0.0
 40
0.0
 40
0.0
 40
1.0
 40
1.0
 40
1.0
 40
1.0
 10
-5.024
 20
-23.9504
 30
0.0
 10
-5.024
 20
-23.9504
 30
0.0
 10
-3.7409
 20
-23.9504
 30
0.0
 10
-3.7409
 20
-23.9504
 30
0.0
  0
SPLINE
  5
96
330
1F
100
AcDbEntity
  8
AXIS
 62
   250
100
AcDbSpline
210
0.0
220
0.0
230
1.0
 70
    24
 71
     3
 72
     8
 73
     4
 74
     0
 42
0.0000000001
 43
0.0000000001
 40
0.0
 40
0.0
 40
0.0
 40
0.0
 40
1.0
 40
1.0
 40
1.0
 40
1.0
 10
-3.3132
 20
-23.9504
 30
0.0
 10
-3.3132
 20
-23.9504
 30
0.0
 10
-2.03
 20
-23.9504
 30
0.0
 10
-2.03
 20
-23.9504
 30
0.0
  0
SPLINE
  5
97
330
1F
100
AcDbEntity
  8
AXIS
 62
   250
100
AcDbSpline
210
0.0
220
0.0
230
1.0
 70
    24
 71
     3
 72
     8
 73
     4
 74
     0
 42
0.0000000001
 43
0.0000000001
 40
0.0
 40
0.0
 40
0.0
 40
0.0
 40
1.0
 40
1.0
 40
1.0
 40
1.0
 10
5.241
 20
-23.9504
 30
0.0
 10
5.241
 20
-23.9504
 30
0.0
 10
6.5242
 20
-23.9504
 30
0.0
 10
6.5242
 20
-23.9504
 30
0.0
  0
SPLINE
  5
98
330
1F
100
AcDbEntity
  8
AXIS
 62
   250
100
AcDbSpline
210
0.0
220
0.0
230
1.0
 70
    24
 71
     3
 72
     8
 73
     4
 74
     0
 42
0.0000000001
 43
0.0000000001
 40
0.0
 40
0.0
 40
0.0
 40
0.0
 40
1.0
 40
1.0
 40
1.0
 40
1.0
 10
6.9519
 20
-23.9504
 30
0.0
 10
6.9519
 20
-23.9504
 30
0.0
 10
8.235
 20
-23.9504
 30
0.0
 10
8.235
 20
-23.9504
 30
0.0
  0
SPLINE
  5
99
330
1F
100
AcDbEntity
  8
AXIS
 62
   250
100
AcDbSpline
210
0.0
220
0.0
230
1.0
 70
    24
 71
     3
 72
     8
 73
     4
 74
     0
 42
0.0000000001
 43
0.0000000001
 40
0.0
 40
0.0
 40
0.0
 40
0.0
 40
1.0
 40
1.0
 40
1.0
 40
1.0
 10
8.6627
 20
-23.9504
 30
0.0
 10
8.6627
 20
-23.9504
 30
0.0
 10
9.1118
 20
-23.9504
 30
0.0
 10
9.1118
 20
-23.9504
 30
0.0
  0
SPLINE
  5
9A
330
1F
100
AcDbEntity
  8
AXIS
 62
   250
100
AcDbSpline
210
0.0
220
0.0
230
1.0
 70
    24
 71
     3
 72
     8
 73
     4
 74
     0
 42
0.0000000001
 43
0.0000000001
 40
0.0
 40
0.0
 40
0.0
 40
0.0
 40
1.0
 40
1.0
 40
1.0
 40
1.0
 10
9.3043
 20
-23.5227
 30
0.0
 10
9.3043
 20
-23.5227
 30
0.0
 10
8.6627
 20
-23.5227
 30
0.0
 10
8.6627
 20
-23.5227
 30
0.0
  0
SPLINE
  5
9B
330
1F
100
AcDbEntity
  8
AXIS
 62
   250
100
AcDbSpline
210
0.0
220
0.0
230
1.0
 70
    24
 71
     3
 72
     8
 73
     4
 74
     0
 42
0.0000000001
 43
0.0000000001
 40
0.0
 40
0.0
 40
0.0
 40
0.0
 40
1.0
 40
1.0
 40
1.0
 40
1.0
 10
8.235
 20
-23.5227
 30
0.0
 10
8.235
 20
-23.5227
 30
0.0
 10
6.9519
 20
-23.5227
 30
0.0
 10
6.9519
 20
-23.5227
 30
0.0
  0
SPLINE
  5
9C
330
1F
100
AcDbEntity
  8
AXIS
 62
   250
100
AcDbSpline
210
0.0
220
0.0
230
1.0
 70
    24
 71
     3
 72
     8
 73
     4
 74
     0
 42
0.0000000001
 43
0.0000000001
 40
0.0
 40
0.0
 40
0.0
 40
0.0
 40
1.0
 40
1.0
 40
1.0
 40
1.0
 10
6.5242
 20
-23.5227
 30
0.0
 10
6.5242
 20
-23.5227
 30
0.0
 10
5.241
 20
-23.5227
 30
0.0
 10
5.241
 20
-23.5227
 30
0.0
  0
SPLINE
  5
9D
330
1F
100
AcDbEntity
  8
AXIS
 62
   250
100
AcDbSpline
210
0.0
220
0.0
230
1.0
 70
    24
 71
     3
 72
     8
 73
     4
 74
     0
 42
0.0000000001
 43
0.0000000001
 40
0.0
 40
0.0
 40
0.0
 40
0.0
 40
1.0
 40
1.0
 40
1.0
 40
1.0
 10
-2.03
 20
-23.5227
 30
0.0
 10
-2.03
 20
-23.5227
 30
0.0
 10
-3.3132
 20
-23.5227
 30
0.0
 10
-3.3132
 20
-23.5227
 30
0.0
  0
SPLINE
  5
9E
330
1F
100
AcDbEntity
  8
AXIS
 62
   250
100
AcDbSpline
210
0.0
220
0.0
230
1.0
 70
    24
 71
     3
 72
     8
 73
     4
 74
     0
 42
0.0000000001
 43
0.0000000001
 40
0.0
 40
0.0
 40
0.0
 40
0.0
 40
1.0
 40
1.0
 40
1.0
 40
1.0
 10
-3.7409
 20
-23.5227
 30
0.0
 10
-3.7409
 20
-23.5227
 30
0.0
 10
-5.024
 20
-23.5227
 30
0.0
 10
-5.024
 20
-23.5227
 30
0.0
  0
SPLINE
  5
9F
330
1F
100
AcDbEntity
  8
AXIS
 62
   250
100
AcDbSpline
210
0.0
220
0.0
230
1.0
 70
    24
 71
     3
 72
     8
 73
     4
 74
     0
 42
0.0000000001
 43
0.0000000001
 40
0.0
 40
0.0
 40
0.0
 40
0.0
 40
1.0
 40
1.0
 40
1.0
 40
1.0
 10
-5.4517
 20
-23.5227
 30
0.0
 10
-5.4517
 20
-23.5227
 30
0.0
 10
-6.0933
 20
-23.5227
 30
0.0
 10
-6.0933
 20
-23.5227
 30
0.0
  0
SPLINE
  5
A0
330
1F
100
AcDbEntity
  8
AXIS
 62
   250
100
AcDbSpline
210
0.0
220
0.0
230
1.0
 70
    24
 71
     3
 72
     8
 73
     4
 74
     0
 42
0.0000000001
 43
0.0000000001
 40
0.0
 40
0.0
 40
0.0
 40
0.0
 40
1.0
 40
1.0
 40
1.0
 40
1.0
 10
-0.3192
 20
-12.1997
 30
0.0
 10
-0.3192
 20
-12.1997
 30
0.0
 10
-0.3192
 20
-13.2577
 30
0.0
 10
-0.3192
 20
-13.2577
 30
0.0
  0
SPLINE
  5
A1
330
1F
100
AcDbEntity
  8
AXIS
 62
   250
100
AcDbSpline
210
0.0
220
0.0
230
1.0
 70
    24
 71
     3
 72
     8
 73
     4
 74
     0
 42
0.0000000001
 43
0.0000000001
 40
0.0
 40
0.0
 40
0.0
 40
0.0
 40
1.0
 40
1.0
 40
1.0
 40
1.0
 10
-0.3192
 20
-13.6854
 30
0.0
 10
-0.3192
 20
-13.6854
 30
0.0
 10
-0.3192
 20
-14.9685
 30
0.0
 10
-0.3192
 20
-14.9685
 30
0.0
  0
SPLINE
  5
A2
330
1F
100
AcDbEntity
  8
AXIS
 62
   250
100
AcDbSpline
210
0.0
220
0.0
230
1.0
 70
    24
 71
     3
 72
     8
 73
     4
 74
     0
 42
0.0000000001
 43
0.0000000001
 40
0.0
 40
0.0
 40
0.0
 40
0.0
 40
1.0
 40
1.0
 40
1.0
 40
1.0
 10
-0.3192
 20
-25.6613
 30
0.0
 10
-0.3192
 20
-25.6613
 30
0.0
 10
-0.3192
 20
-26.9444
 30
0.0
 10
-0.3192
 20
-26.9444
 30
0.0
  0
SPLINE
  5
A3
330
1F
100
AcDbEntity
  8
AXIS
 62
   250
100
AcDbSpline
210
0.0
220
0.0
230
1.0
 70
    24
 71
     3
 72
     8
 73
     4
 74
     0
 42
0.0000000001
 43
0.0000000001
 40
0.0
 40
0.0
 40
0.0
 40
0.0
 40
1.0
 40
1.0
 40
1.0
 40
1.0
 10
-0.3192
 20
-27.3721
 30
0.0
 10
-0.3192
 20
-27.3721
 30
0.0
 10
-0.3192
 20
-28.4301
 30
0.0
 10
-0.3192
 20
-28.4301
 30
0.0
  0
SPLINE
  5
A4
330
1F
100
AcDbEntity
  8
AXIS
 62
   250
100
AcDbSpline
210
0.0
220
0.0
230
1.0
 70
    24
 71
     3
 72
     8
 73
     4
 74
     0
 42
0.0000000001
 43
0.0000000001
 40
0.0
 40
0.0
 40
0.0
 40
0.0
 40
1.0
 40
1.0
 40
1.0
 40
1.0
 10
0.1085
 20
-28.5198
 30
0.0
 10
0.1085
 20
-28.5198
 30
0.0
 10
0.1085
 20
-27.3721
 30
0.0
 10
0.1085
 20
-27.3721
 30
0.0
  0
SPLINE
  5
A5
330
1F
100
AcDbEntity
  8
AXIS
 62
   250
100
AcDbSpline
210
0.0
220
0.0
230
1.0
 70
    24
 71
     3
 72
     8
 73
     4
 74
     0
 42
0.0000000001
 43
0.0000000001
 40
0.0
 40
0.0
 40
0.0
 40
0.0
 40
1.0
 40
1.0
 40
1.0
 40
1.0
 10
0.1085
 20
-26.9444
 30
0.0
 10
0.1085
 20
-26.9444
 30
0.0
 10
0.1085
 20
-25.6613
 30
0.0
 10
0.1085
 20
-25.6613
 30
0.0
  0
SPLINE
  5
A6
330
1F
100
AcDbEntity
  8
AXIS
 62
   250
100
AcDbSpline
210
0.0
220
0.0
230
1.0
 70
    24
 71
     3
 72
     8
 73
     4
 74
     0
 42
0.0000000001
 43
0.0000000001
 40
0.0
 40
0.0
 40
0.0
 40
0.0
 40
1.0
 40
1.0
 40
1.0
 40
1.0
 10
0.1085
 20
-14.9685
 30
0.0
 10
0.1085
 20
-14.9685
 30
0.0
 10
0.1085
 20
-13.6854
 30
0.0
 10
0.1085
 20
-13.6854
 30
0.0
  0
SPLINE
  5
A7
330
1F
100
AcDbEntity
  8
AXIS
 62
   250
100
AcDbSpline
210
0.0
220
0.0
230
1.0
 70
    24
 71
     3
 72
     8
 73
     4
 74
     0
 42
0.0000000001
 43
0.0000000001
 40
0.0
 40
0.0
 40
0.0
 40
0.0
 40
1.0
 40
1.0
 40
1.0
 40
1.0
 10
0.1085
 20
-13.2577
 30
0.0
 10
0.1085
 20
-13.2577
 30
0.0
 10
0.1085
 20
-12.11
 30
0.0
 10
0.1085
 20
-12.11
 30
0.0
  0
SPLINE
  5
A8
330
1F
100
AcDbEntity
  8
AXIS
 62
   250
100
AcDbSpline
210
0.0
220
0.0
230
1.0
 70
    24
 71
     3
 72
     8
 73
     4
 74
     0
 42
0.0000000001
 43
0.0000000001
 40
0.0
 40
0.0
 40
0.0
 40
0.0
 40
1.0
 40
1.0
 40
1.0
 40
1.0
 10
-6.5097
 20
-22.2396
 30
0.0
 10
-6.5097
 20
-22.2396
 30
0.0
 10
-5.4517
 20
-22.2396
 30
0.0
 10
-5.4517
 20
-22.2396
 30
0.0
  0
SPLINE
  5
A9
330
1F
100
AcDbEntity
  8
AXIS
 62
   250
100
AcDbSpline
210
0.0
220
0.0
230
1.0
 70
    24
 71
     3
 72
     8
 73
     4
 74
     0
 42
0.0000000001
 43
0.0000000001
 40
0.0
 40
0.0
 40
0.0
 40
0.0
 40
1.0
 40
1.0
 40
1.0
 40
1.0
 10
-5.024
 20
-22.2396
 30
0.0
 10
-5.024
 20
-22.2396
 30
0.0
 10
-3.7409
 20
-22.2396
 30
0.0
 10
-3.7409
 20
-22.2396
 30
0.0
  0
SPLINE
  5
AA
330
1F
100
AcDbEntity
  8
AXIS
 62
   250
100
AcDbSpline
210
0.0
220
0.0
230
1.0
 70
    24
 71
     3
 72
     8
 73
     4
 74
     0
 42
0.0000000001
 43
0.0000000001
 40
0.0
 40
0.0
 40
0.0
 40
0.0
 40
1.0
 40
1.0
 40
1.0
 40
1.0
 10
6.9519
 20
-22.2396
 30
0.0
 10
6.9519
 20
-22.2396
 30
0.0
 10
8.235
 20
-22.2396
 30
0.0
 10
8.235
 20
-22.2396
 30
0.0
  0
SPLINE
  5
AB
330
1F
100
AcDbEntity
  8
AXIS
 62
   250
100
AcDbSpline
210
0.0
220
0.0
230
1.0
 70
    24
 71
     3
 72
     8
 73
     4
 74
     0
 42
0.0000000001
 43
0.0000000001
 40
0.0
 40
0.0
 40
0.0
 40
0.0
 40
1.0
 40
1.0
 40
1.0
 40
1.0
 10
8.6627
 20
-22.2396
 30
0.0
 10
8.6627
 20
-22.2396
 30
0.0
 10
9.7207
 20
-22.2396
 30
0.0
 10
9.7207
 20
-22.2396
 30
0.0
  0
SPLINE
  5
AC
330
1F
100
AcDbEntity
  8
AXIS
 62
   250
100
AcDbSpline
210
0.0
220
0.0
230
1.0
 70
    24
 71
     3
 72
     8
 73
     4
 74
     0
 42
0.0000000001
 43
0.0000000001
 40
0.0
 40
0.0
 40
0.0
 40
0.0
 40
1.0
 40
1.0
 40
1.0
 40
1.0
 10
9.8104
 20
-21.8119
 30
0.0
 10
9.8104
 20
-21.8119
 30
0.0
 10
8.6627
 20
-21.8119
 30
0.0
 10
8.6627
 20
-21.8119
 30
0.0
  0
SPLINE
  5
AD
330
1F
100
AcDbEntity
  8
AXIS
 62
   250
100
AcDbSpline
210
0.0
220
0.0
230
1.0
 70
    24
 71
     3
 72
     8
 73
     4
 74
     0
 42
0.0000000001
 43
0.0000000001
 40
0.0
 40
0.0
 40
0.0
 40
0.0
 40
1.0
 40
1.0
 40
1.0
 40
1.0
 10
8.235
 20
-21.8119
 30
0.0
 10
8.235
 20
-21.8119
 30
0.0
 10
6.9519
 20
-21.8119
 30
0.0
 10
6.9519
 20
-21.8119
 30
0.0
  0
SPLINE
  5
AE
330
1F
100
AcDbEntity
  8
AXIS
 62
   250
100
AcDbSpline
210
0.0
220
0.0
230
1.0
 70
    24
 71
     3
 72
     8
 73
     4
 74
     0
 42
0.0000000001
 43
0.0000000001
 40
0.0
 40
0.0
 40
0.0
 40
0.0
 40
1.0
 40
1.0
 40
1.0
 40
1.0
 10
-3.7409
 20
-21.8119
 30
0.0
 10
-3.7409
 20
-21.8119
 30
0.0
 10
-5.024
 20
-21.8119
 30
0.0
 10
-5.024
 20
-21.8119
 30
0.0
  0
SPLINE
  5
AF
330
1F
100
AcDbEntity
  8
AXIS
 62
   250
100
AcDbSpline
210
0.0
220
0.0
230
1.0
 70
    24
 71
     3
 72
     8
 73
     4
 74
     0
 42
0.0000000001
 43
0.0000000001
 40
0.0
 40
0.0
 40
0.0
 40
0.0
 40
1.0
 40
1.0
 40
1.0
 40
1.0
 10
-5.4517
 20
-21.8119
 30
0.0
 10
-5.4517
 20
-21.8119
 30
0.0
 10
-6.5994
 20
-21.8119
 30
0.0
 10
-6.5994
 20
-21.8119
 30
0.0
  0
SPLINE
  5
B0
330
1F
100
AcDbEntity
  8
AXIS
 62
   250
100
AcDbSpline
210
0.0
220
0.0
230
1.0
 70
    24
 71
     3
 72
     8
 73
     4
 74
     0
 42
0.0000000001
 43
0.0000000001
 40
0.0
 40
0.0
 40
0.0
 40
0.0
 40
1.0
 40
1.0
 40
1.0
 40
1.0
 10
1.3916
 20
-11.9773
 30
0.0
 10
1.3916
 20
-11.9773
 30
0.0
 10
1.3916
 20
-13.2577
 30
0.0
 10
1.3916
 20
-13.2577
 30
0.0
  0
SPLINE
  5
B1
330
1F
100
AcDbEntity
  8
AXIS
 62
   250
100
AcDbSpline
210
0.0
220
0.0
230
1.0
 70
    24
 71
     3
 72
     8
 73
     4
 74
     0
 42
0.0000000001
 43
0.0000000001
 40
0.0
 40
0.0
 40
0.0
 40
0.0
 40
1.0
 40
1.0
 40
1.0
 40
1.0
 10
1.3916
 20
-13.6854
 30
0.0
 10
1.3916
 20
-13.6854
 30
0.0
 10
1.3916
 20
-14.9685
 30
0.0
 10
1.3916
 20
-14.9685
 30
0.0
  0
SPLINE
  5
B2
330
1F
100
AcDbEntity
  8
AXIS
 62
   250
100
AcDbSpline
210
0.0
220
0.0
230
1.0
 70
    24
 71
     3
 72
     8
 73
     4
 74
     0
 42
0.0000000001
 43
0.0000000001
 40
0.0
 40
0.0
 40
0.0
 40
0.0
 40
1.0
 40
1.0
 40
1.0
 40
1.0
 10
1.3916
 20
-25.6613
 30
0.0
 10
1.3916
 20
-25.6613
 30
0.0
 10
1.3916
 20
-26.9444
 30
0.0
 10
1.3916
 20
-26.9444
 30
0.0
  0
SPLINE
  5
B3
330
1F
100
AcDbEntity
  8
AXIS
 62
   250
100
AcDbSpline
210
0.0
220
0.0
230
1.0
 70
    24
 71
     3
 72
     8
 73
     4
 74
     0
 42
0.0000000001
 43
0.0000000001
 40
0.0
 40
0.0
 40
0.0
 40
0.0
 40
1.0
 40
1.0
 40
1.0
 40
1.0
 10
1.3916
 20
-27.3721
 30
0.0
 10
1.3916
 20
-27.3721
 30
0.0
 10
1.3916
 20
-28.6525
 30
0.0
 10
1.3916
 20
-28.6525
 30
0.0
  0
SPLINE
  5
B4
330
1F
100
AcDbEntity
  8
AXIS
 62
   250
100
AcDbSpline
210
0.0
220
0.0
230
1.0
 70
    24
 71
     3
 72
     8
 73
     4
 74
     0
 42
0.0000000001
 43
0.0000000001
 40
0.0
 40
0.0
 40
0.0
 40
0.0
 40
1.0
 40
1.0
 40
1.0
 40
1.0
 10
-6.7321
 20
-20.5288
 30
0.0
 10
-6.7321
 20
-20.5288
 30
0.0
 10
-5.4517
 20
-20.5288
 30
0.0
 10
-5.4517
 20
-20.5288
 30
0.0
  0
SPLINE
  5
B5
330
1F
100
AcDbEntity
  8
AXIS
 62
   250
100
AcDbSpline
210
0.0
220
0.0
230
1.0
 70
    24
 71
     3
 72
     8
 73
     4
 74
     0
 42
0.0000000001
 43
0.0000000001
 40
0.0
 40
0.0
 40
0.0
 40
0.0
 40
1.0
 40
1.0
 40
1.0
 40
1.0
 10
-5.024
 20
-20.5288
 30
0.0
 10
-5.024
 20
-20.5288
 30
0.0
 10
-3.7409
 20
-20.5288
 30
0.0
 10
-3.7409
 20
-20.5288
 30
0.0
  0
SPLINE
  5
B6
330
1F
100
AcDbEntity
  8
AXIS
 62
   250
100
AcDbSpline
210
0.0
220
0.0
230
1.0
 70
    24
 71
     3
 72
     8
 73
     4
 74
     0
 42
0.0000000001
 43
0.0000000001
 40
0.0
 40
0.0
 40
0.0
 40
0.0
 40
1.0
 40
1.0
 40
1.0
 40
1.0
 10
6.9519
 20
-20.5288
 30
0.0
 10
6.9519
 20
-20.5288
 30
0.0
 10
8.235
 20
-20.5288
 30
0.0
 10
8.235
 20
-20.5288
 30
0.0
  0
SPLINE
  5
B7
330
1F
100
AcDbEntity
  8
AXIS
 62
   250
100
AcDbSpline
210
0.0
220
0.0
230
1.0
 70
    24
 71
     3
 72
     8
 73
     4
 74
     0
 42
0.0000000001
 43
0.0000000001
 40
0.0
 40
0.0
 40
0.0
 40
0.0
 40
1.0
 40
1.0
 40
1.0
 40
1.0
 10
8.6627
 20
-20.5288
 30
0.0
 10
8.6627
 20
-20.5288
 30
0.0
 10
9.9431
 20
-20.5288
 30
0.0
 10
9.9431
 20
-20.5288
 30
0.0
  0
SPLINE
  5
B8
330
1F
100
AcDbEntity
  8
AXIS
 62
   250
100
AcDbSpline
210
0.0
220
0.0
230
1.0
 70
    24
 71
     3
 72
     8
 73
     4
 74
     0
 42
0.0000000001
 43
0.0000000001
 40
0.0
 40
0.0
 40
0.0
 40
0.0
 40
1.0
 40
1.0
 40
1.0
 40
1.0
 10
1.8193
 20
-28.6525
 30
0.0
 10
1.8193
 20
-28.6525
 30
0.0
 10
1.8193
 20
-27.3721
 30
0.0
 10
1.8193
 20
-27.3721
 30
0.0
  0
SPLINE
  5
B9
330
1F
100
AcDbEntity
  8
AXIS
 62
   250
100
AcDbSpline
210
0.0
220
0.0
230
1.0
 70
    24
 71
     3
 72
     8
 73
     4
 74
     0
 42
0.0000000001
 43
0.0000000001
 40
0.0
 40
0.0
 40
0.0
 40
0.0
 40
1.0
 40
1.0
 40
1.0
 40
1.0
 10
1.8193
 20
-26.9444
 30
0.0
 10
1.8193
 20
-26.9444
 30
0.0
 10
1.8193
 20
-25.6613
 30
0.0
 10
1.8193
 20
-25.6613
 30
0.0
  0
SPLINE
  5
BA
330
1F
100
AcDbEntity
  8
AXIS
 62
   250
100
AcDbSpline
210
0.0
220
0.0
230
1.0
 70
    24
 71
     3
 72
     8
 73
     4
 74
     0
 42
0.0000000001
 43
0.0000000001
 40
0.0
 40
0.0
 40
0.0
 40
0.0
 40
1.0
 40
1.0
 40
1.0
 40
1.0
 10
1.8193
 20
-14.9685
 30
0.0
 10
1.8193
 20
-14.9685
 30
0.0
 10
1.8193
 20
-13.6854
 30
0.0
 10
1.8193
 20
-13.6854
 30
0.0
  0
SPLINE
  5
BB
330
1F
100
AcDbEntity
  8
AXIS
 62
   250
100
AcDbSpline
210
0.0
220
0.0
230
1.0
 70
    24
 71
     3
 72
     8
 73
     4
 74
     0
 42
0.0000000001
 43
0.0000000001
 40
0.0
 40
0.0
 40
0.0
 40
0.0
 40
1.0
 40
1.0
 40
1.0
 40
1.0
 10
1.8193
 20
-13.2577
 30
0.0
 10
1.8193
 20
-13.2577
 30
0.0
 10
1.8193
 20
-11.9773
 30
0.0
 10
1.8193
 20
-11.9773
 30
0.0
  0
SPLINE
  5
BC
330
1F
100
AcDbEntity
  8
AXIS
 62
   250
100
AcDbSpline
210
0.0
220
0.0
230
1.0
 70
    24
 71
     3
 72
     8
 73
     4
 74
     0
 42
0.0000000001
 43
0.0000000001
 40
0.0
 40
0.0
 40
0.0
 40
0.0
 40
1.0
 40
1.0
 40
1.0
 40
1.0
 10
3.1025
 20
-12.11
 30
0.0
 10
3.1025
 20
-12.11
 30
0.0
 10
3.1025
 20
-13.2577
 30
0.0
 10
3.1025
 20
-13.2577
 30
0.0
  0
SPLINE
  5
BD
330
1F
100
AcDbEntity
  8
AXIS
 62
   250
100
AcDbSpline
210
0.0
220
0.0
230
1.0
 70
    24
 71
     3
 72
     8
 73
     4
 74
     0
 42
0.0000000001
 43
0.0000000001
 40
0.0
 40
0.0
 40
0.0
 40
0.0
 40
1.0
 40
1.0
 40
1.0
 40
1.0
 10
3.1025
 20
-13.6854
 30
0.0
 10
3.1025
 20
-13.6854
 30
0.0
 10
3.1025
 20
-14.9685
 30
0.0
 10
3.1025
 20
-14.9685
 30
0.0
  0
SPLINE
  5
BE
330
1F
100
AcDbEntity
  8
AXIS
 62
   250
100
AcDbSpline
210
0.0
220
0.0
230
1.0
 70
    24
 71
     3
 72
     8
 73
     4
 74
     0
 42
0.0000000001
 43
0.0000000001
 40
0.0
 40
0.0
 40
0.0
 40
0.0
 40
1.0
 40
1.0
 40
1.0
 40
1.0
 10
3.1025
 20
-25.6613
 30
0.0
 10
3.1025
 20
-25.6613
 30
0.0
 10
3.1025
 20
-26.9444
 30
0.0
 10
3.1025
 20
-26.9444
 30
0.0
  0
SPLINE
  5
BF
330
1F
100
AcDbEntity
  8
AXIS
 62
   250
100
AcDbSpline
210
0.0
220
0.0
230
1.0
 70
    24
 71
     3
 72
     8
 73
     4
 74
     0
 42
0.0000000001
 43
0.0000000001
 40
0.0
 40
0.0
 40
0.0
 40
0.0
 40
1.0
 40
1.0
 40
1.0
 40
1.0
 10
3.1025
 20
-27.3721
 30
0.0
 10
3.1025
 20
-27.3721
 30
0.0
 10
3.1025
 20
-28.5198
 30
0.0
 10
3.1025
 20
-28.5198
 30
0.0
  0
SPLINE
  5
C0
330
1F
100
AcDbEntity
  8
AXIS
 62
   250
100
AcDbSpline
210
0.0
220
0.0
230
1.0
 70
    24
 71
     3
 72
     8
 73
     4
 74
     0
 42
0.0000000001
 43
0.0000000001
 40
0.0
 40
0.0
 40
0.0
 40
0.0
 40
1.0
 40
1.0
 40
1.0
 40
1.0
 10
9.9431
 20
-20.101
 30
0.0
 10
9.9431
 20
-20.101
 30
0.0
 10
8.6627
 20
-20.101
 30
0.0
 10
8.6627
 20
-20.101
 30
0.0
  0
SPLINE
  5
C1
330
1F
100
AcDbEntity
  8
AXIS
 62
   250
100
AcDbSpline
210
0.0
220
0.0
230
1.0
 70
    24
 71
     3
 72
     8
 73
     4
 74
     0
 42
0.0000000001
 43
0.0000000001
 40
0.0
 40
0.0
 40
0.0
 40
0.0
 40
1.0
 40
1.0
 40
1.0
 40
1.0
 10
8.235
 20
-20.101
 30
0.0
 10
8.235
 20
-20.101
 30
0.0
 10
6.9519
 20
-20.101
 30
0.0
 10
6.9519
 20
-20.101
 30
0.0
  0
SPLINE
  5
C2
330
1F
100
AcDbEntity
  8
AXIS
 62
   250
100
AcDbSpline
210
0.0
220
0.0
230
1.0
 70
    24
 71
     3
 72
     8
 73
     4
 74
     0
 42
0.0000000001
 43
0.0000000001
 40
0.0
 40
0.0
 40
0.0
 40
0.0
 40
1.0
 40
1.0
 40
1.0
 40
1.0
 10
-3.7409
 20
-20.101
 30
0.0
 10
-3.7409
 20
-20.101
 30
0.0
 10
-5.024
 20
-20.101
 30
0.0
 10
-5.024
 20
-20.101
 30
0.0
  0
SPLINE
  5
C3
330
1F
100
AcDbEntity
  8
AXIS
 62
   250
100
AcDbSpline
210
0.0
220
0.0
230
1.0
 70
    24
 71
     3
 72
     8
 73
     4
 74
     0
 42
0.0000000001
 43
0.0000000001
 40
0.0
 40
0.0
 40
0.0
 40
0.0
 40
1.0
 40
1.0
 40
1.0
 40
1.0
 10
-5.4517
 20
-20.101
 30
0.0
 10
-5.4517
 20
-20.101
 30
0.0
 10
-6.7321
 20
-20.101
 30
0.0
 10
-6.7321
 20
-20.101
 30
0.0
  0
SPLINE
  5
C4
330
1F
100
AcDbEntity
  8
AXIS
 62
   250
100
AcDbSpline
210
0.0
220
0.0
230
1.0
 70
    24
 71
     3
 72
     8
 73
     4
 74
     0
 42
0.0000000001
 43
0.0000000001
 40
0.0
 40
0.0
 40
0.0
 40
0.0
 40
1.0
 40
1.0
 40
1.0
 40
1.0
 10
-6.5994
 20
-18.8179
 30
0.0
 10
-6.5994
 20
-18.8179
 30
0.0
 10
-5.4517
 20
-18.8179
 30
0.0
 10
-5.4517
 20
-18.8179
 30
0.0
  0
SPLINE
  5
C5
330
1F
100
AcDbEntity
  8
AXIS
 62
   250
100
AcDbSpline
210
0.0
220
0.0
230
1.0
 70
    24
 71
     3
 72
     8
 73
     4
 74
     0
 42
0.0000000001
 43
0.0000000001
 40
0.0
 40
0.0
 40
0.0
 40
0.0
 40
1.0
 40
1.0
 40
1.0
 40
1.0
 10
-5.024
 20
-18.8179
 30
0.0
 10
-5.024
 20
-18.8179
 30
0.0
 10
-3.7409
 20
-18.8179
 30
0.0
 10
-3.7409
 20
-18.8179
 30
0.0
  0
SPLINE
  5
C6
330
1F
100
AcDbEntity
  8
AXIS
 62
   250
100
AcDbSpline
210
0.0
220
0.0
230
1.0
 70
    24
 71
     3
 72
     8
 73
     4
 74
     0
 42
0.0000000001
 43
0.0000000001
 40
0.0
 40
0.0
 40
0.0
 40
0.0
 40
1.0
 40
1.0
 40
1.0
 40
1.0
 10
6.9519
 20
-18.8179
 30
0.0
 10
6.9519
 20
-18.8179
 30
0.0
 10
8.235
 20
-18.8179
 30
0.0
 10
8.235
 20
-18.8179
 30
0.0
  0
SPLINE
  5
C7
330
1F
100
AcDbEntity
  8
AXIS
 62
   250
100
AcDbSpline
210
0.0
220
0.0
230
1.0
 70
    24
 71
     3
 72
     8
 73
     4
 74
     0
 42
0.0000000001
 43
0.0000000001
 40
0.0
 40
0.0
 40
0.0
 40
0.0
 40
1.0
 40
1.0
 40
1.0
 40
1.0
 10
8.6627
 20
-18.8179
 30
0.0
 10
8.6627
 20
-18.8179
 30
0.0
 10
9.8104
 20
-18.8179
 30
0.0
 10
9.8104
 20
-18.8179
 30
0.0
  0
SPLINE
  5
C8
330
1F
100
AcDbEntity
  8
AXIS
 62
   250
100
AcDbSpline
210
0.0
220
0.0
230
1.0
 70
    24
 71
     3
 72
     8
 73
     4
 74
     0
 42
0.0000000001
 43
0.0000000001
 40
0.0
 40
0.0
 40
0.0
 40
0.0
 40
1.0
 40
1.0
 40
1.0
 40
1.0
 10
3.5302
 20
-28.4301
 30
0.0
 10
3.5302
 20
-28.4301
 30
0.0
 10
3.5302
 20
-27.3721
 30
0.0
 10
3.5302
 20
-27.3721
 30
0.0
  0
SPLINE
  5
C9
330
1F
100
AcDbEntity
  8
AXIS
 62
   250
100
AcDbSpline
210
0.0
220
0.0
230
1.0
 70
    24
 71
     3
 72
     8
 73
     4
 74
     0
 42
0.0000000001
 43
0.0000000001
 40
0.0
 40
0.0
 40
0.0
 40
0.0
 40
1.0
 40
1.0
 40
1.0
 40
1.0
 10
3.5302
 20
-26.9444
 30
0.0
 10
3.5302
 20
-26.9444
 30
0.0
 10
3.5302
 20
-25.6613
 30
0.0
 10
3.5302
 20
-25.6613
 30
0.0
  0
SPLINE
  5
CA
330
1F
100
AcDbEntity
  8
AXIS
 62
   250
100
AcDbSpline
210
0.0
220
0.0
230
1.0
 70
    24
 71
     3
 72
     8
 73
     4
 74
     0
 42
0.0000000001
 43
0.0000000001
 40
0.0
 40
0.0
 40
0.0
 40
0.0
 40
1.0
 40
1.0
 40
1.0
 40
1.0
 10
3.5302
 20
-14.9685
 30
0.0
 10
3.5302
 20
-14.9685
 30
0.0
 10
3.5302
 20
-13.6854
 30
0.0
 10
3.5302
 20
-13.6854
 30
0.0
  0
SPLINE
  5
CB
330
1F
100
AcDbEntity
  8
AXIS
 62
   250
100
AcDbSpline
210
0.0
220
0.0
230
1.0
 70
    24
 71
     3
 72
     8
 73
     4
 74
     0
 42
0.0000000001
 43
0.0000000001
 40
0.0
 40
0.0
 40
0.0
 40
0.0
 40
1.0
 40
1.0
 40
1.0
 40
1.0
 10
3.5302
 20
-13.2577
 30
0.0
 10
3.5302
 20
-13.2577
 30
0.0
 10
3.5302
 20
-12.1997
 30
0.0
 10
3.5302
 20
-12.1997
 30
0.0
  0
SPLINE
  5
CC
330
1F
100
AcDbEntity
  8
AXIS
 62
   250
100
AcDbSpline
210
0.0
220
0.0
230
1.0
 70
    24
 71
     3
 72
     8
 73
     4
 74
     0
 42
0.0000000001
 43
0.0000000001
 40
0.0
 40
0.0
 40
0.0
 40
0.0
 40
1.0
 40
1.0
 40
1.0
 40
1.0
 10
4.8133
 20
-12.6161
 30
0.0
 10
4.8133
 20
-12.6161
 30
0.0
 10
4.8133
 20
-13.2577
 30
0.0
 10
4.8133
 20
-13.2577
 30
0.0
  0
SPLINE
  5
CD
330
1F
100
AcDbEntity
  8
AXIS
 62
   250
100
AcDbSpline
210
0.0
220
0.0
230
1.0
 70
    24
 71
     3
 72
     8
 73
     4
 74
     0
 42
0.0000000001
 43
0.0000000001
 40
0.0
 40
0.0
 40
0.0
 40
0.0
 40
1.0
 40
1.0
 40
1.0
 40
1.0
 10
4.8133
 20
-13.6854
 30
0.0
 10
4.8133
 20
-13.6854
 30
0.0
 10
4.8133
 20
-14.9685
 30
0.0
 10
4.8133
 20
-14.9685
 30
0.0
  0
SPLINE
  5
CE
330
1F
100
AcDbEntity
  8
AXIS
 62
   250
100
AcDbSpline
210
0.0
220
0.0
230
1.0
 70
    24
 71
     3
 72
     8
 73
     4
 74
     0
 42
0.0000000001
 43
0.0000000001
 40
0.0
 40
0.0
 40
0.0
 40
0.0
 40
1.0
 40
1.0
 40
1.0
 40
1.0
 10
4.8133
 20
-15.3962
 30
0.0
 10
4.8133
 20
-15.3962
 30
0.0
 10
4.8133
 20
-16.6794
 30
0.0
 10
4.8133
 20
-16.6794
 30
0.0
  0
SPLINE
  5
CF
330
1F
100
AcDbEntity
  8
AXIS
 62
   250
100
AcDbSpline
210
0.0
220
0.0
230
1.0
 70
    24
 71
     3
 72
     8
 73
     4
 74
     0
 42
0.0000000001
 43
0.0000000001
 40
0.0
 40
0.0
 40
0.0
 40
0.0
 40
1.0
 40
1.0
 40
1.0
 40
1.0
 10
4.8133
 20
-23.9504
 30
0.0
 10
4.8133
 20
-23.9504
 30
0.0
 10
4.8133
 20
-25.2336
 30
0.0
 10
4.8133
 20
-25.2336
 30
0.0
  0
SPLINE
  5
D0
330
1F
100
AcDbEntity
  8
AXIS
 62
   250
100
AcDbSpline
210
0.0
220
0.0
230
1.0
 70
    24
 71
     3
 72
     8
 73
     4
 74
     0
 42
0.0000000001
 43
0.0000000001
 40
0.0
 40
0.0
 40
0.0
 40
0.0
 40
1.0
 40
1.0
 40
1.0
 40
1.0
 10
4.8133
 20
-25.6613
 30
0.0
 10
4.8133
 20
-25.6613
 30
0.0
 10
4.8133
 20
-26.9444
 30
0.0
 10
4.8133
 20
-26.9444
 30
0.0
  0
SPLINE
  5
D1
330
1F
100
AcDbEntity
  8
AXIS
 62
   250
100
AcDbSpline
210
0.0
220
0.0
230
1.0
 70
    24
 71
     3
 72
     8
 73
     4
 74
     0
 42
0.0000000001
 43
0.0000000001
 40
0.0
 40
0.0
 40
0.0
 40
0.0
 40
1.0
 40
1.0
 40
1.0
 40
1.0
 10
4.8133
 20
-27.3721
 30
0.0
 10
4.8133
 20
-27.3721
 30
0.0
 10
4.8133
 20
-28.0137
 30
0.0
 10
4.8133
 20
-28.0137
 30
0.0
  0
SPLINE
  5
D2
330
1F
100
AcDbEntity
  8
AXIS
 62
   250
100
AcDbSpline
210
0.0
220
0.0
230
1.0
 70
    24
 71
     3
 72
     8
 73
     4
 74
     0
 42
0.0000000001
 43
0.0000000001
 40
0.0
 40
0.0
 40
0.0
 40
0.0
 40
1.0
 40
1.0
 40
1.0
 40
1.0
 10
9.7207
 20
-18.3902
 30
0.0
 10
9.7207
 20
-18.3902
 30
0.0
 10
8.6627
 20
-18.3902
 30
0.0
 10
8.6627
 20
-18.3902
 30
0.0
  0
SPLINE
  5
D3
330
1F
100
AcDbEntity
  8
AXIS
 62
   250
100
AcDbSpline
210
0.0
220
0.0
230
1.0
 70
    24
 71
     3
 72
     8
 73
     4
 74
     0
 42
0.0000000001
 43
0.0000000001
 40
0.0
 40
0.0
 40
0.0
 40
0.0
 40
1.0
 40
1.0
 40
1.0
 40
1.0
 10
8.235
 20
-18.3902
 30
0.0
 10
8.235
 20
-18.3902
 30
0.0
 10
6.9519
 20
-18.3902
 30
0.0
 10
6.9519
 20
-18.3902
 30
0.0
  0
SPLINE
  5
D4
330
1F
100
AcDbEntity
  8
AXIS
 62
   250
100
AcDbSpline
210
0.0
220
0.0
230
1.0
 70
    24
 71
     3
 72
     8
 73
     4
 74
     0
 42
0.0000000001
 43
0.0000000001
 40
0.0
 40
0.0
 40
0.0
 40
0.0
 40
1.0
 40
1.0
 40
1.0
 40
1.0
 10
-3.7409
 20
-18.3902
 30
0.0
 10
-3.7409
 20
-18.3902
 30
0.0
 10
-5.024
 20
-18.3902
 30
0.0
 10
-5.024
 20
-18.3902
 30
0.0
  0
SPLINE
  5
D5
330
1F
100
AcDbEntity
  8
AXIS
 62
   250
100
AcDbSpline
210
0.0
220
0.0
230
1.0
 70
    24
 71
     3
 72
     8
 73
     4
 74
     0
 42
0.0000000001
 43
0.0000000001
 40
0.0
 40
0.0
 40
0.0
 40
0.0
 40
1.0
 40
1.0
 40
1.0
 40
1.0
 10
-5.4517
 20
-18.3902
 30
0.0
 10
-5.4517
 20
-18.3902
 30
0.0
 10
-6.5097
 20
-18.3902
 30
0.0
 10
-6.5097
 20
-18.3902
 30
0.0
  0
SPLINE
  5
D6
330
1F
100
AcDbEntity
  8
AXIS
 62
   250
100
AcDbSpline
210
0.0
220
0.0
230
1.0
 70
    24
 71
     3
 72
     8
 73
     4
 74
     0
 42
0.0000000001
 43
0.0000000001
 40
0.0
 40
0.0
 40
0.0
 40
0.0
 40
1.0
 40
1.0
 40
1.0
 40
1.0
 10
-6.0933
 20
-17.1071
 30
0.0
 10
-6.0933
 20
-17.1071
 30
0.0
 10
-5.4517
 20
-17.1071
 30
0.0
 10
-5.4517
 20
-17.1071
 30
0.0
  0
SPLINE
  5
D7
330
1F
100
AcDbEntity
  8
AXIS
 62
   250
100
AcDbSpline
210
0.0
220
0.0
230
1.0
 70
    24
 71
     3
 72
     8
 73
     4
 74
     0
 42
0.0000000001
 43
0.0000000001
 40
0.0
 40
0.0
 40
0.0
 40
0.0
 40
1.0
 40
1.0
 40
1.0
 40
1.0
 10
-5.024
 20
-17.1071
 30
0.0
 10
-5.024
 20
-17.1071
 30
0.0
 10
-3.7409
 20
-17.1071
 30
0.0
 10
-3.7409
 20
-17.1071
 30
0.0
  0
SPLINE
  5
D8
330
1F
100
AcDbEntity
  8
AXIS
 62
   250
100
AcDbSpline
210
0.0
220
0.0
230
1.0
 70
    24
 71
     3
 72
     8
 73
     4
 74
     0
 42
0.0000000001
 43
0.0000000001
 40
0.0
 40
0.0
 40
0.0
 40
0.0
 40
1.0
 40
1.0
 40
1.0
 40
1.0
 10
-3.3132
 20
-17.1071
 30
0.0
 10
-3.3132
 20
-17.1071
 30
0.0
 10
-2.03
 20
-17.1071
 30
0.0
 10
-2.03
 20
-17.1071
 30
0.0
  0
SPLINE
  5
D9
330
1F
100
AcDbEntity
  8
AXIS
 62
   250
100
AcDbSpline
210
0.0
220
0.0
230
1.0
 70
    24
 71
     3
 72
     8
 73
     4
 74
     0
 42
0.0000000001
 43
0.0000000001
 40
0.0
 40
0.0
 40
0.0
 40
0.0
 40
1.0
 40
1.0
 40
1.0
 40
1.0
 10
5.241
 20
-17.1071
 30
0.0
 10
5.241
 20
-17.1071
 30
0.0
 10
6.5242
 20
-17.1071
 30
0.0
 10
6.5242
 20
-17.1071
 30
0.0
  0
SPLINE
  5
DA
330
1F
100
AcDbEntity
  8
AXIS
 62
   250
100
AcDbSpline
210
0.0
220
0.0
230
1.0
 70
    24
 71
     3
 72
     8
 73
     4
 74
     0
 42
0.0000000001
 43
0.0000000001
 40
0.0
 40
0.0
 40
0.0
 40
0.0
 40
1.0
 40
1.0
 40
1.0
 40
1.0
 10
6.9519
 20
-17.1071
 30
0.0
 10
6.9519
 20
-17.1071
 30
0.0
 10
8.235
 20
-17.1071
 30
0.0
 10
8.235
 20
-17.1071
 30
0.0
  0
SPLINE
  5
DB
330
1F
100
AcDbEntity
  8
AXIS
 62
   250
100
AcDbSpline
210
0.0
220
0.0
230
1.0
 70
    24
 71
     3
 72
     8
 73
     4
 74
     0
 42
0.0000000001
 43
0.0000000001
 40
0.0
 40
0.0
 40
0.0
 40
0.0
 40
1.0
 40
1.0
 40
1.0
 40
1.0
 10
8.6627
 20
-17.1071
 30
0.0
 10
8.6627
 20
-17.1071
 30
0.0
 10
9.3043
 20
-17.1071
 30
0.0
 10
9.3043
 20
-17.1071
 30
0.0
  0
SPLINE
  5
DC
330
1F
100
AcDbEntity
  8
AXIS
 62
   250
100
AcDbSpline
210
0.0
220
0.0
230
1.0
 70
    24
 71
     3
 72
     8
 73
     4
 74
     0
 42
0.0000000001
 43
0.0000000001
 40
0.0
 40
0.0
 40
0.0
 40
0.0
 40
1.0
 40
1.0
 40
1.0
 40
1.0
 10
5.241
 20
-27.8212
 30
0.0
 10
5.241
 20
-27.8212
 30
0.0
 10
5.241
 20
-27.3721
 30
0.0
 10
5.241
 20
-27.3721
 30
0.0
  0
SPLINE
  5
DD
330
1F
100
AcDbEntity
  8
AXIS
 62
   250
100
AcDbSpline
210
0.0
220
0.0
230
1.0
 70
    24
 71
     3
 72
     8
 73
     4
 74
     0
 42
0.0000000001
 43
0.0000000001
 40
0.0
 40
0.0
 40
0.0
 40
0.0
 40
1.0
 40
1.0
 40
1.0
 40
1.0
 10
5.241
 20
-26.9444
 30
0.0
 10
5.241
 20
-26.9444
 30
0.0
 10
5.241
 20
-25.6613
 30
0.0
 10
5.241
 20
-25.6613
 30
0.0
  0
SPLINE
  5
DE
330
1F
100
AcDbEntity
  8
AXIS
 62
   250
100
AcDbSpline
210
0.0
220
0.0
230
1.0
 70
    24
 71
     3
 72
     8
 73
     4
 74
     0
 42
0.0000000001
 43
0.0000000001
 40
0.0
 40
0.0
 40
0.0
 40
0.0
 40
1.0
 40
1.0
 40
1.0
 40
1.0
 10
5.241
 20
-25.2336
 30
0.0
 10
5.241
 20
-25.2336
 30
0.0
 10
5.241
 20
-23.9504
 30
0.0
 10
5.241
 20
-23.9504
 30
0.0
  0
SPLINE
  5
DF
330
1F
100
AcDbEntity
  8
AXIS
 62
   250
100
AcDbSpline
210
0.0
220
0.0
230
1.0
 70
    24
 71
     3
 72
     8
 73
     4
 74
     0
 42
0.0000000001
 43
0.0000000001
 40
0.0
 40
0.0
 40
0.0
 40
0.0
 40
1.0
 40
1.0
 40
1.0
 40
1.0
 10
5.241
 20
-16.6794
 30
0.0
 10
5.241
 20
-16.6794
 30
0.0
 10
5.241
 20
-15.3962
 30
0.0
 10
5.241
 20
-15.3962
 30
0.0
  0
SPLINE
  5
E0
330
1F
100
AcDbEntity
  8
AXIS
 62
   250
100
AcDbSpline
210
0.0
220
0.0
230
1.0
 70
    24
 71
     3
 72
     8
 73
     4
 74
     0
 42
0.0000000001
 43
0.0000000001
 40
0.0
 40
0.0
 40
0.0
 40
0.0
 40
1.0
 40
1.0
 40
1.0
 40
1.0
 10
5.241
 20
-14.9685
 30
0.0
 10
5.241
 20
-14.9685
 30
0.0
 10
5.241
 20
-13.6854
 30
0.0
 10
5.241
 20
-13.6854
 30
0.0
  0
SPLINE
  5
E1
330
1F
100
AcDbEntity
  8
AXIS
 62
   250
100
AcDbSpline
210
0.0
220
0.0
230
1.0
 70
    24
 71
     3
 72
     8
 73
     4
 74
     0
 42
0.0000000001
 43
0.0000000001
 40
0.0
 40
0.0
 40
0.0
 40
0.0
 40
1.0
 40
1.0
 40
1.0
 40
1.0
 10
5.241
 20
-13.2577
 30
0.0
 10
5.241
 20
-13.2577
 30
0.0
 10
5.241
 20
-12.8086
 30
0.0
 10
5.241
 20
-12.8086
 30
0.0
  0
SPLINE
  5
E2
330
1F
100
AcDbEntity
  8
AXIS
 62
   250
100
AcDbSpline
210
0.0
220
0.0
230
1.0
 70
    24
 71
     3
 72
     8
 73
     4
 74
     0
 42
0.0000000001
 43
0.0000000001
 40
0.0
 40
0.0
 40
0.0
 40
0.0
 40
1.0
 40
1.0
 40
1.0
 40
1.0
 10
9.1118
 20
-16.6794
 30
0.0
 10
9.1118
 20
-16.6794
 30
0.0
 10
8.6627
 20
-16.6794
 30
0.0
 10
8.6627
 20
-16.6794
 30
0.0
  0
SPLINE
  5
E3
330
1F
100
AcDbEntity
  8
AXIS
 62
   250
100
AcDbSpline
210
0.0
220
0.0
230
1.0
 70
    24
 71
     3
 72
     8
 73
     4
 74
     0
 42
0.0000000001
 43
0.0000000001
 40
0.0
 40
0.0
 40
0.0
 40
0.0
 40
1.0
 40
1.0
 40
1.0
 40
1.0
 10
8.235
 20
-16.6794
 30
0.0
 10
8.235
 20
-16.6794
 30
0.0
 10
6.9519
 20
-16.6794
 30
0.0
 10
6.9519
 20
-16.6794
 30
0.0
  0
SPLINE
  5
E4
330
1F
100
AcDbEntity
  8
AXIS
 62
   250
100
AcDbSpline
210
0.0
220
0.0
230
1.0
 70
    24
 71
     3
 72
     8
 73
     4
 74
     0
 42
0.0000000001
 43
0.0000000001
 40
0.0
 40
0.0
 40
0.0
 40
0.0
 40
1.0
 40
1.0
 40
1.0
 40
1.0
 10
6.5242
 20
-16.6794
 30
0.0
 10
6.5242
 20
-16.6794
 30
0.0
 10
5.241
 20
-16.6794
 30
0.0
 10
5.241
 20
-16.6794
 30
0.0
  0
SPLINE
  5
E5
330
1F
100
AcDbEntity
  8
AXIS
 62
   250
100
AcDbSpline
210
0.0
220
0.0
230
1.0
 70
    24
 71
     3
 72
     8
 73
     4
 74
     0
 42
0.0000000001
 43
0.0000000001
 40
0.0
 40
0.0
 40
0.0
 40
0.0
 40
1.0
 40
1.0
 40
1.0
 40
1.0
 10
-2.03
 20
-16.6794
 30
0.0
 10
-2.03
 20
-16.6794
 30
0.0
 10
-3.3132
 20
-16.6794
 30
0.0
 10
-3.3132
 20
-16.6794
 30
0.0
  0
SPLINE
  5
E6
330
1F
100
AcDbEntity
  8
AXIS
 62
   250
100
AcDbSpline
210
0.0
220
0.0
230
1.0
 70
    24
 71
     3
 72
     8
 73
     4
 74
     0
 42
0.0000000001
 43
0.0000000001
 40
0.0
 40
0.0
 40
0.0
 40
0.0
 40
1.0
 40
1.0
 40
1.0
 40
1.0
 10
-3.7409
 20
-16.6794
 30
0.0
 10
-3.7409
 20
-16.6794
 30
0.0
 10
-5.024
 20
-16.6794
 30
0.0
 10
-5.024
 20
-16.6794
 30
0.0
  0
SPLINE
  5
E7
330
1F
100
AcDbEntity
  8
AXIS
 62
   250
100
AcDbSpline
210
0.0
220
0.0
230
1.0
 70
    24
 71
     3
 72
     8
 73
     4
 74
     0
 42
0.0000000001
 43
0.0000000001
 40
0.0
 40
0.0
 40
0.0
 40
0.0
 40
1.0
 40
1.0
 40
1.0
 40
1.0
 10
-5.4517
 20
-16.6794
 30
0.0
 10
-5.4517
 20
-16.6794
 30
0.0
 10
-5.9008
 20
-16.6794
 30
0.0
 10
-5.9008
 20
-16.6794
 30
0.0
  0
SPLINE
  5
E8
330
1F
100
AcDbEntity
  8
AXIS
 62
   250
100
AcDbSpline
210
0.0
220
0.0
230
1.0
 70
    24
 71
     3
 72
     8
 73
     4
 74
     0
 42
0.0000000001
 43
0.0000000001
 40
0.0
 40
0.0
 40
0.0
 40
0.0
 40
1.0
 40
1.0
 40
1.0
 40
1.0
 10
6.5242
 20
-13.6854
 30
0.0
 10
6.5242
 20
-13.6854
 30
0.0
 10
6.5242
 20
-14.9685
 30
0.0
 10
6.5242
 20
-14.9685
 30
0.0
  0
SPLINE
  5
E9
330
1F
100
AcDbEntity
  8
AXIS
 62
   250
100
AcDbSpline
210
0.0
220
0.0
230
1.0
 70
    24
 71
     3
 72
     8
 73
     4
 74
     0
 42
0.0000000001
 43
0.0000000001
 40
0.0
 40
0.0
 40
0.0
 40
0.0
 40
1.0
 40
1.0
 40
1.0
 40
1.0
 10
6.5242
 20
-15.3962
 30
0.0
 10
6.5242
 20
-15.3962
 30
0.0
 10
6.5242
 20
-16.6794
 30
0.0
 10
6.5242
 20
-16.6794
 30
0.0
  0
SPLINE
  5
EA
330
1F
100
AcDbEntity
  8
AXIS
 62
   250
100
AcDbSpline
210
0.0
220
0.0
230
1.0
 70
    24
 71
     3
 72
     8
 73
     4
 74
     0
 42
0.0000000001
 43
0.0000000001
 40
0.0
 40
0.0
 40
0.0
 40
0.0
 40
1.0
 40
1.0
 40
1.0
 40
1.0
 10
6.5242
 20
-17.1071
 30
0.0
 10
6.5242
 20
-17.1071
 30
0.0
 10
6.5242
 20
-18.3902
 30
0.0
 10
6.5242
 20
-18.3902
 30
0.0
  0
SPLINE
  5
EB
330
1F
100
AcDbEntity
  8
AXIS
 62
   250
100
AcDbSpline
210
0.0
220
0.0
230
1.0
 70
    24
 71
     3
 72
     8
 73
     4
 74
     0
 42
0.0000000001
 43
0.0000000001
 40
0.0
 40
0.0
 40
0.0
 40
0.0
 40
1.0
 40
1.0
 40
1.0
 40
1.0
 10
6.5242
 20
-18.8179
 30
0.0
 10
6.5242
 20
-18.8179
 30
0.0
 10
6.5242
 20
-20.101
 30
0.0
 10
6.5242
 20
-20.101
 30
0.0
  0
SPLINE
  5
EC
330
1F
100
AcDbEntity
  8
AXIS
 62
   250
100
AcDbSpline
210
0.0
220
0.0
230
1.0
 70
    24
 71
     3
 72
     8
 73
     4
 74
     0
 42
0.0000000001
 43
0.0000000001
 40
0.0
 40
0.0
 40
0.0
 40
0.0
 40
1.0
 40
1.0
 40
1.0
 40
1.0
 10
6.5242
 20
-20.5288
 30
0.0
 10
6.5242
 20
-20.5288
 30
0.0
 10
6.5242
 20
-21.8119
 30
0.0
 10
6.5242
 20
-21.8119
 30
0.0
  0
SPLINE
  5
ED
330
1F
100
AcDbEntity
  8
AXIS
 62
   250
100
AcDbSpline
210
0.0
220
0.0
230
1.0
 70
    24
 71
     3
 72
     8
 73
     4
 74
     0
 42
0.0000000001
 43
0.0000000001
 40
0.0
 40
0.0
 40
0.0
 40
0.0
 40
1.0
 40
1.0
 40
1.0
 40
1.0
 10
6.5242
 20
-22.2396
 30
0.0
 10
6.5242
 20
-22.2396
 30
0.0
 10
6.5242
 20
-23.5227
 30
0.0
 10
6.5242
 20
-23.5227
 30
0.0
  0
SPLINE
  5
EE
330
1F
100
AcDbEntity
  8
AXIS
 62
   250
100
AcDbSpline
210
0.0
220
0.0
230
1.0
 70
    24
 71
     3
 72
     8
 73
     4
 74
     0
 42
0.0000000001
 43
0.0000000001
 40
0.0
 40
0.0
 40
0.0
 40
0.0
 40
1.0
 40
1.0
 40
1.0
 40
1.0
 10
6.5242
 20
-23.9504
 30
0.0
 10
6.5242
 20
-23.9504
 30
0.0
 10
6.5242
 20
-25.2336
 30
0.0
 10
6.5242
 20
-25.2336
 30
0.0
  0
SPLINE
  5
EF
330
1F
100
AcDbEntity
  8
AXIS
 62
   250
100
AcDbSpline
210
0.0
220
0.0
230
1.0
 70
    24
 71
     3
 72
     8
 73
     4
 74
     0
 42
0.0000000001
 43
0.0000000001
 40
0.0
 40
0.0
 40
0.0
 40
0.0
 40
1.0
 40
1.0
 40
1.0
 40
1.0
 10
6.5242
 20
-25.6613
 30
0.0
 10
6.5242
 20
-25.6613
 30
0.0
 10
6.5242
 20
-26.9444
 30
0.0
 10
6.5242
 20
-26.9444
 30
0.0
  0
SPLINE
  5
F0
330
1F
100
AcDbEntity
  8
AXIS
 62
   250
100
AcDbSpline
210
0.0
220
0.0
230
1.0
 70
    24
 71
     3
 72
     8
 73
     4
 74
     0
 42
0.0000000001
 43
0.0000000001
 40
0.0
 40
0.0
 40
0.0
 40
0.0
 40
1.0
 40
1.0
 40
1.0
 40
1.0
 10
6.9519
 20
-26.7163
 30
0.0
 10
6.9519
 20
-26.7163
 30
0.0
 10
6.9519
 20
-25.6613
 30
0.0
 10
6.9519
 20
-25.6613
 30
0.0
  0
SPLINE
  5
F1
330
1F
100
AcDbEntity
  8
AXIS
 62
   250
100
AcDbSpline
210
0.0
220
0.0
230
1.0
 70
    24
 71
     3
 72
     8
 73
     4
 74
     0
 42
0.0000000001
 43
0.0000000001
 40
0.0
 40
0.0
 40
0.0
 40
0.0
 40
1.0
 40
1.0
 40
1.0
 40
1.0
 10
6.9519
 20
-25.2336
 30
0.0
 10
6.9519
 20
-25.2336
 30
0.0
 10
6.9519
 20
-23.9504
 30
0.0
 10
6.9519
 20
-23.9504
 30
0.0
  0
SPLINE
  5
F2
330
1F
100
AcDbEntity
  8
AXIS
 62
   250
100
AcDbSpline
210
0.0
220
0.0
230
1.0
 70
    24
 71
     3
 72
     8
 73
     4
 74
     0
 42
0.0000000001
 43
0.0000000001
 40
0.0
 40
0.0
 40
0.0
 40
0.0
 40
1.0
 40
1.0
 40
1.0
 40
1.0
 10
6.9519
 20
-23.5227
 30
0.0
 10
6.9519
 20
-23.5227
 30
0.0
 10
6.9519
 20
-22.2396
 30
0.0
 10
6.9519
 20
-22.2396
 30
0.0
  0
SPLINE
  5
F3
330
1F
100
AcDbEntity
  8
AXIS
 62
   250
100
AcDbSpline
210
0.0
220
0.0
230
1.0
 70
    24
 71
     3
 72
     8
 73
     4
 74
     0
 42
0.0000000001
 43
0.0000000001
 40
0.0
 40
0.0
 40
0.0
 40
0.0
 40
1.0
 40
1.0
 40
1.0
 40
1.0
 10
6.9519
 20
-21.8119
 30
0.0
 10
6.9519
 20
-21.8119
 30
0.0
 10
6.9519
 20
-20.5288
 30
0.0
 10
6.9519
 20
-20.5288
 30
0.0
  0
SPLINE
  5
F4
330
1F
100
AcDbEntity
  8
AXIS
 62
   250
100
AcDbSpline
210
0.0
220
0.0
230
1.0
 70
    24
 71
     3
 72
     8
 73
     4
 74
     0
 42
0.0000000001
 43
0.0000000001
 40
0.0
 40
0.0
 40
0.0
 40
0.0
 40
1.0
 40
1.0
 40
1.0
 40
1.0
 10
6.9519
 20
-20.101
 30
0.0
 10
6.9519
 20
-20.101
 30
0.0
 10
6.9519
 20
-18.8179
 30
0.0
 10
6.9519
 20
-18.8179
 30
0.0
  0
SPLINE
  5
F5
330
1F
100
AcDbEntity
  8
AXIS
 62
   250
100
AcDbSpline
210
0.0
220
0.0
230
1.0
 70
    24
 71
     3
 72
     8
 73
     4
 74
     0
 42
0.0000000001
 43
0.0000000001
 40
0.0
 40
0.0
 40
0.0
 40
0.0
 40
1.0
 40
1.0
 40
1.0
 40
1.0
 10
6.9519
 20
-18.3902
 30
0.0
 10
6.9519
 20
-18.3902
 30
0.0
 10
6.9519
 20
-17.1071
 30
0.0
 10
6.9519
 20
-17.1071
 30
0.0
  0
SPLINE
  5
F6
330
1F
100
AcDbEntity
  8
AXIS
 62
   250
100
AcDbSpline
210
0.0
220
0.0
230
1.0
 70
    24
 71
     3
 72
     8
 73
     4
 74
     0
 42
0.0000000001
 43
0.0000000001
 40
0.0
 40
0.0
 40
0.0
 40
0.0
 40
1.0
 40
1.0
 40
1.0
 40
1.0
 10
6.9519
 20
-16.6794
 30
0.0
 10
6.9519
 20
-16.6794
 30
0.0
 10
6.9519
 20
-15.3962
 30
0.0
 10
6.9519
 20
-15.3962
 30
0.0
  0
SPLINE
  5
F7
330
1F
100
AcDbEntity
  8
AXIS
 62
   250
100
AcDbSpline
210
0.0
220
0.0
230
1.0
 70
    24
 71
     3
 72
     8
 73
     4
 74
     0
 42
0.0000000001
 43
0.0000000001
 40
0.0
 40
0.0
 40
0.0
 40
0.0
 40
1.0
 40
1.0
 40
1.0
 40
1.0
 10
6.9519
 20
-14.9685
 30
0.0
 10
6.9519
 20
-14.9685
 30
0.0
 10
6.9519
 20
-13.9135
 30
0.0
 10
6.9519
 20
-13.9135
 30
0.0
  0
SPLINE
  5
F8
330
1F
100
AcDbEntity
  8
AXIS
 62
   250
100
AcDbSpline
210
0.0
220
0.0
230
1.0
 70
    24
 71
     3
 72
     8
 73
     4
 74
     0
 42
0.0000000001
 43
0.0000000001
 40
0.0
 40
0.0
 40
0.0
 40
0.0
 40
1.0
 40
1.0
 40
1.0
 40
1.0
 10
-5.024
 20
-15.3962
 30
0.0
 10
-5.024
 20
-15.3962
 30
0.0
 10
-3.7409
 20
-15.3962
 30
0.0
 10
-3.7409
 20
-15.3962
 30
0.0
  0
SPLINE
  5
F9
330
1F
100
AcDbEntity
  8
AXIS
 62
   250
100
AcDbSpline
210
0.0
220
0.0
230
1.0
 70
    24
 71
     3
 72
     8
 73
     4
 74
     0
 42
0.0000000001
 43
0.0000000001
 40
0.0
 40
0.0
 40
0.0
 40
0.0
 40
1.0
 40
1.0
 40
1.0
 40
1.0
 10
-3.3132
 20
-15.3962
 30
0.0
 10
-3.3132
 20
-15.3962
 30
0.0
 10
-2.03
 20
-15.3962
 30
0.0
 10
-2.03
 20
-15.3962
 30
0.0
  0
SPLINE
  5
FA
330
1F
100
AcDbEntity
  8
AXIS
 62
   250
100
AcDbSpline
210
0.0
220
0.0
230
1.0
 70
    24
 71
     3
 72
     8
 73
     4
 74
     0
 42
0.0000000001
 43
0.0000000001
 40
0.0
 40
0.0
 40
0.0
 40
0.0
 40
1.0
 40
1.0
 40
1.0
 40
1.0
 10
-1.6023
 20
-15.3962
 30
0.0
 10
-1.6023
 20
-15.3962
 30
0.0
 10
-0.3192
 20
-15.3962
 30
0.0
 10
-0.3192
 20
-15.3962
 30
0.0
  0
SPLINE
  5
FB
330
1F
100
AcDbEntity
  8
AXIS
 62
   250
100
AcDbSpline
210
0.0
220
0.0
230
1.0
 70
    24
 71
     3
 72
     8
 73
     4
 74
     0
 42
0.0000000001
 43
0.0000000001
 40
0.0
 40
0.0
 40
0.0
 40
0.0
 40
1.0
 40
1.0
 40
1.0
 40
1.0
 10
0.1085
 20
-15.3962
 30
0.0
 10
0.1085
 20
-15.3962
 30
0.0
 10
1.3916
 20
-15.3962
 30
0.0
 10
1.3916
 20
-15.3962
 30
0.0
  0
SPLINE
  5
FC
330
1F
100
AcDbEntity
  8
AXIS
 62
   250
100
AcDbSpline
210
0.0
220
0.0
230
1.0
 70
    24
 71
     3
 72
     8
 73
     4
 74
     0
 42
0.0000000001
 43
0.0000000001
 40
0.0
 40
0.0
 40
0.0
 40
0.0
 40
1.0
 40
1.0
 40
1.0
 40
1.0
 10
1.8193
 20
-15.3962
 30
0.0
 10
1.8193
 20
-15.3962
 30
0.0
 10
3.1025
 20
-15.3962
 30
0.0
 10
3.1025
 20
-15.3962
 30
0.0
  0
SPLINE
  5
FD
330
1F
100
AcDbEntity
  8
AXIS
 62
   250
100
AcDbSpline
210
0.0
220
0.0
230
1.0
 70
    24
 71
     3
 72
     8
 73
     4
 74
     0
 42
0.0000000001
 43
0.0000000001
 40
0.0
 40
0.0
 40
0.0
 40
0.0
 40
1.0
 40
1.0
 40
1.0
 40
1.0
 10
3.5302
 20
-15.3962
 30
0.0
 10
3.5302
 20
-15.3962
 30
0.0
 10
4.8133
 20
-15.3962
 30
0.0
 10
4.8133
 20
-15.3962
 30
0.0
  0
SPLINE
  5
FE
330
1F
100
AcDbEntity
  8
AXIS
 62
   250
100
AcDbSpline
210
0.0
220
0.0
230
1.0
 70
    24
 71
     3
 72
     8
 73
     4
 74
     0
 42
0.0000000001
 43
0.0000000001
 40
0.0
 40
0.0
 40
0.0
 40
0.0
 40
1.0
 40
1.0
 40
1.0
 40
1.0
 10
5.241
 20
-15.3962
 30
0.0
 10
5.241
 20
-15.3962
 30
0.0
 10
6.5242
 20
-15.3962
 30
0.0
 10
6.5242
 20
-15.3962
 30
0.0
  0
SPLINE
  5
FF
330
1F
100
AcDbEntity
  8
AXIS
 62
   250
100
AcDbSpline
210
0.0
220
0.0
230
1.0
 70
    24
 71
     3
 72
     8
 73
     4
 74
     0
 42
0.0000000001
 43
0.0000000001
 40
0.0
 40
0.0
 40
0.0
 40
0.0
 40
1.0
 40
1.0
 40
1.0
 40
1.0
 10
6.9519
 20
-15.3962
 30
0.0
 10
6.9519
 20
-15.3962
 30
0.0
 10
8.235
 20
-15.3962
 30
0.0
 10
8.235
 20
-15.3962
 30
0.0
  0
SPLINE
  5
100
330
1F
100
AcDbEntity
  8
AXIS
 62
   250
100
AcDbSpline
210
0.0
220
0.0
230
1.0
 70
    24
 71
     3
 72
     8
 73
     4
 74
     0
 42
0.0000000001
 43
0.0000000001
 40
0.0
 40
0.0
 40
0.0
 40
0.0
 40
1.0
 40
1.0
 40
1.0
 40
1.0
 10
8.0069
 20
-14.9685
 30
0.0
 10
8.0069
 20
-14.9685
 30
0.0
 10
6.9519
 20
-14.9685
 30
0.0
 10
6.9519
 20
-14.9685
 30
0.0
  0
SPLINE
  5
101
330
1F
100
AcDbEntity
  8
AXIS
 62
   250
100
AcDbSpline
210
0.0
220
0.0
230
1.0
 70
    24
 71
     3
 72
     8
 73
     4
 74
     0
 42
0.0000000001
 43
0.0000000001
 40
0.0
 40
0.0
 40
0.0
 40
0.0
 40
1.0
 40
1.0
 40
1.0
 40
1.0
 10
6.5242
 20
-14.9685
 30
0.0
 10
6.5242
 20
-14.9685
 30
0.0
 10
5.241
 20
-14.9685
 30
0.0
 10
5.241
 20
-14.9685
 30
0.0
  0
SPLINE
  5
102
330
1F
100
AcDbEntity
  8
AXIS
 62
   250
100
AcDbSpline
210
0.0
220
0.0
230
1.0
 70
    24
 71
     3
 72
     8
 73
     4
 74
     0
 42
0.0000000001
 43
0.0000000001
 40
0.0
 40
0.0
 40
0.0
 40
0.0
 40
1.0
 40
1.0
 40
1.0
 40
1.0
 10
4.8133
 20
-14.9685
 30
0.0
 10
4.8133
 20
-14.9685
 30
0.0
 10
3.5302
 20
-14.9685
 30
0.0
 10
3.5302
 20
-14.9685
 30
0.0
  0
SPLINE
  5
103
330
1F
100
AcDbEntity
  8
AXIS
 62
   250
100
AcDbSpline
210
0.0
220
0.0
230
1.0
 70
    24
 71
     3
 72
     8
 73
     4
 74
     0
 42
0.0000000001
 43
0.0000000001
 40
0.0
 40
0.0
 40
0.0
 40
0.0
 40
1.0
 40
1.0
 40
1.0
 40
1.0
 10
3.1025
 20
-14.9685
 30
0.0
 10
3.1025
 20
-14.9685
 30
0.0
 10
1.8193
 20
-14.9685
 30
0.0
 10
1.8193
 20
-14.9685
 30
0.0
  0
SPLINE
  5
104
330
1F
100
AcDbEntity
  8
AXIS
 62
   250
100
AcDbSpline
210
0.0
220
0.0
230
1.0
 70
    24
 71
     3
 72
     8
 73
     4
 74
     0
 42
0.0000000001
 43
0.0000000001
 40
0.0
 40
0.0
 40
0.0
 40
0.0
 40
1.0
 40
1.0
 40
1.0
 40
1.0
 10
1.3916
 20
-14.9685
 30
0.0
 10
1.3916
 20
-14.9685
 30
0.0
 10
0.1085
 20
-14.9685
 30
0.0
 10
0.1085
 20
-14.9685
 30
0.0
  0
SPLINE
  5
105
330
1F
100
AcDbEntity
  8
AXIS
 62
   250
100
AcDbSpline
210
0.0
220
0.0
230
1.0
 70
    24
 71
     3
 72
     8
 73
     4
 74
     0
 42
0.0000000001
 43
0.0000000001
 40
0.0
 40
0.0
 40
0.0
 40
0.0
 40
1.0
 40
1.0
 40
1.0
 40
1.0
 10
-0.3192
 20
-14.9685
 30
0.0
 10
-0.3192
 20
-14.9685
 30
0.0
 10
-1.6023
 20
-14.9685
 30
0.0
 10
-1.6023
 20
-14.9685
 30
0.0
  0
SPLINE
  5
106
330
1F
100
AcDbEntity
  8
AXIS
 62
   250
100
AcDbSpline
210
0.0
220
0.0
230
1.0
 70
    24
 71
     3
 72
     8
 73
     4
 74
     0
 42
0.0000000001
 43
0.0000000001
 40
0.0
 40
0.0
 40
0.0
 40
0.0
 40
1.0
 40
1.0
 40
1.0
 40
1.0
 10
-2.03
 20
-14.9685
 30
0.0
 10
-2.03
 20
-14.9685
 30
0.0
 10
-3.3132
 20
-14.9685
 30
0.0
 10
-3.3132
 20
-14.9685
 30
0.0
  0
SPLINE
  5
107
330
1F
100
AcDbEntity
  8
AXIS
 62
   250
100
AcDbSpline
210
0.0
220
0.0
230
1.0
 70
    24
 71
     3
 72
     8
 73
     4
 74
     0
 42
0.0000000001
 43
0.0000000001
 40
0.0
 40
0.0
 40
0.0
 40
0.0
 40
1.0
 40
1.0
 40
1.0
 40
1.0
 10
-3.7409
 20
-14.9685
 30
0.0
 10
-3.7409
 20
-14.9685
 30
0.0
 10
-4.7959
 20
-14.9685
 30
0.0
 10
-4.7959
 20
-14.9685
 30
0.0
  0
SPLINE
  5
108
330
1F
100
AcDbEntity
  8
AXIS
 62
   250
100
AcDbSpline
210
0.0
220
0.0
230
1.0
 70
    24
 71
     3
 72
     8
 73
     4
 74
     0
 42
0.0000000001
 43
0.0000000001
 40
0.0
 40
0.0
 40
0.0
 40
0.0
 40
1.0
 40
1.0
 40
1.0
 40
1.0
 10
8.235
 20
-15.3962
 30
0.0
 10
8.235
 20
-15.3962
 30
0.0
 10
8.235
 20
-16.6794
 30
0.0
 10
8.235
 20
-16.6794
 30
0.0
  0
SPLINE
  5
109
330
1F
100
AcDbEntity
  8
AXIS
 62
   250
100
AcDbSpline
210
0.0
220
0.0
230
1.0
 70
    24
 71
     3
 72
     8
 73
     4
 74
     0
 42
0.0000000001
 43
0.0000000001
 40
0.0
 40
0.0
 40
0.0
 40
0.0
 40
1.0
 40
1.0
 40
1.0
 40
1.0
 10
8.235
 20
-17.1071
 30
0.0
 10
8.235
 20
-17.1071
 30
0.0
 10
8.235
 20
-18.3902
 30
0.0
 10
8.235
 20
-18.3902
 30
0.0
  0
SPLINE
  5
10A
330
1F
100
AcDbEntity
  8
AXIS
 62
   250
100
AcDbSpline
210
0.0
220
0.0
230
1.0
 70
    24
 71
     3
 72
     8
 73
     4
 74
     0
 42
0.0000000001
 43
0.0000000001
 40
0.0
 40
0.0
 40
0.0
 40
0.0
 40
1.0
 40
1.0
 40
1.0
 40
1.0
 10
8.235
 20
-18.8179
 30
0.0
 10
8.235
 20
-18.8179
 30
0.0
 10
8.235
 20
-20.101
 30
0.0
 10
8.235
 20
-20.101
 30
0.0
  0
SPLINE
  5
10B
330
1F
100
AcDbEntity
  8
AXIS
 62
   250
100
AcDbSpline
210
0.0
220
0.0
230
1.0
 70
    24
 71
     3
 72
     8
 73
     4
 74
     0
 42
0.0000000001
 43
0.0000000001
 40
0.0
 40
0.0
 40
0.0
 40
0.0
 40
1.0
 40
1.0
 40
1.0
 40
1.0
 10
8.235
 20
-20.5288
 30
0.0
 10
8.235
 20
-20.5288
 30
0.0
 10
8.235
 20
-21.8119
 30
0.0
 10
8.235
 20
-21.8119
 30
0.0
  0
SPLINE
  5
10C
330
1F
100
AcDbEntity
  8
AXIS
 62
   250
100
AcDbSpline
210
0.0
220
0.0
230
1.0
 70
    24
 71
     3
 72
     8
 73
     4
 74
     0
 42
0.0000000001
 43
0.0000000001
 40
0.0
 40
0.0
 40
0.0
 40
0.0
 40
1.0
 40
1.0
 40
1.0
 40
1.0
 10
8.235
 20
-22.2396
 30
0.0
 10
8.235
 20
-22.2396
 30
0.0
 10
8.235
 20
-23.5227
 30
0.0
 10
8.235
 20
-23.5227
 30
0.0
  0
SPLINE
  5
10D
330
1F
100
AcDbEntity
  8
AXIS
 62
   250
100
AcDbSpline
210
0.0
220
0.0
230
1.0
 70
    24
 71
     3
 72
     8
 73
     4
 74
     0
 42
0.0000000001
 43
0.0000000001
 40
0.0
 40
0.0
 40
0.0
 40
0.0
 40
1.0
 40
1.0
 40
1.0
 40
1.0
 10
8.235
 20
-23.9504
 30
0.0
 10
8.235
 20
-23.9504
 30
0.0
 10
8.235
 20
-25.2336
 30
0.0
 10
8.235
 20
-25.2336
 30
0.0
  0
SPLINE
  5
10E
330
1F
100
AcDbEntity
  8
AXIS
 62
   250
100
AcDbSpline
210
0.0
220
0.0
230
1.0
 70
    24
 71
     3
 72
     8
 73
     4
 74
     0
 42
0.0000000001
 43
0.0000000001
 40
0.0
 40
0.0
 40
0.0
 40
0.0
 40
1.0
 40
1.0
 40
1.0
 40
1.0
 10
8.6627
 20
-24.7598
 30
0.0
 10
8.6627
 20
-24.7598
 30
0.0
 10
8.6627
 20
-23.9504
 30
0.0
 10
8.6627
 20
-23.9504
 30
0.0
  0
SPLINE
  5
10F
330
1F
100
AcDbEntity
  8
AXIS
 62
   250
100
AcDbSpline
210
0.0
220
0.0
230
1.0
 70
    24
 71
     3
 72
     8
 73
     4
 74
     0
 42
0.0000000001
 43
0.0000000001
 40
0.0
 40
0.0
 40
0.0
 40
0.0
 40
1.0
 40
1.0
 40
1.0
 40
1.0
 10
8.6627
 20
-23.5227
 30
0.0
 10
8.6627
 20
-23.5227
 30
0.0
 10
8.6627
 20
-22.2396
 30
0.0
 10
8.6627
 20
-22.2396
 30
0.0
  0
SPLINE
  5
110
330
1F
100
AcDbEntity
  8
AXIS
 62
   250
100
AcDbSpline
210
0.0
220
0.0
230
1.0
 70
    24
 71
     3
 72
     8
 73
     4
 74
     0
 42
0.0000000001
 43
0.0000000001
 40
0.0
 40
0.0
 40
0.0
 40
0.0
 40
1.0
 40
1.0
 40
1.0
 40
1.0
 10
8.6627
 20
-21.8119
 30
0.0
 10
8.6627
 20
-21.8119
 30
0.0
 10
8.6627
 20
-20.5288
 30
0.0
 10
8.6627
 20
-20.5288
 30
0.0
  0
SPLINE
  5
111
330
1F
100
AcDbEntity
  8
AXIS
 62
   250
100
AcDbSpline
210
0.0
220
0.0
230
1.0
 70
    24
 71
     3
 72
     8
 73
     4
 74
     0
 42
0.0000000001
 43
0.0000000001
 40
0.0
 40
0.0
 40
0.0
 40
0.0
 40
1.0
 40
1.0
 40
1.0
 40
1.0
 10
8.6627
 20
-20.101
 30
0.0
 10
8.6627
 20
-20.101
 30
0.0
 10
8.6627
 20
-18.8179
 30
0.0
 10
8.6627
 20
-18.8179
 30
0.0
  0
SPLINE
  5
112
330
1F
100
AcDbEntity
  8
AXIS
 62
   250
100
AcDbSpline
210
0.0
220
0.0
230
1.0
 70
    24
 71
     3
 72
     8
 73
     4
 74
     0
 42
0.0000000001
 43
0.0000000001
 40
0.0
 40
0.0
 40
0.0
 40
0.0
 40
1.0
 40
1.0
 40
1.0
 40
1.0
 10
8.6627
 20
-18.3902
 30
0.0
 10
8.6627
 20
-18.3902
 30
0.0
 10
8.6627
 20
-17.1071
 30
0.0
 10
8.6627
 20
-17.1071
 30
0.0
  0
SPLINE
  5
113
330
1F
100
AcDbEntity
  8
AXIS
 62
   250
100
AcDbSpline
210
0.0
220
0.0
230
1.0
 70
    24
 71
     3
 72
     8
 73
     4
 74
     0
 42
0.0000000001
 43
0.0000000001
 40
0.0
 40
0.0
 40
0.0
 40
0.0
 40
1.0
 40
1.0
 40
1.0
 40
1.0
 10
8.6627
 20
-16.6794
 30
0.0
 10
8.6627
 20
-16.6794
 30
0.0
 10
8.6627
 20
-15.87
 30
0.0
 10
8.6627
 20
-15.87
 30
0.0
  0
SPLINE
  5
114
330
1F
100
AcDbEntity
  8
AXIS
 62
   250
100
AcDbSpline
210
0.0
220
0.0
230
1.0
 70
    24
 71
     3
 72
     8
 73
     4
 74
     0
 42
0.0000000001
 43
0.0000000001
 40
0.0
 40
0.0
 40
0.0
 40
0.0
 40
1.0
 40
1.0
 40
1.0
 40
1.0
 10
-3.3132
 20
-13.6854
 30
0.0
 10
-3.3132
 20
-13.6854
 30
0.0
 10
-2.03
 20
-13.6854
 30
0.0
 10
-2.03
 20
-13.6854
 30
0.0
  0
SPLINE
  5
115
330
1F
100
AcDbEntity
  8
AXIS
 62
   250
100
AcDbSpline
210
0.0
220
0.0
230
1.0
 70
    24
 71
     3
 72
     8
 73
     4
 74
     0
 42
0.0000000001
 43
0.0000000001
 40
0.0
 40
0.0
 40
0.0
 40
0.0
 40
1.0
 40
1.0
 40
1.0
 40
1.0
 10
-1.6023
 20
-13.6854
 30
0.0
 10
-1.6023
 20
-13.6854
 30
0.0
 10
-0.3192
 20
-13.6854
 30
0.0
 10
-0.3192
 20
-13.6854
 30
0.0
  0
SPLINE
  5
116
330
1F
100
AcDbEntity
  8
AXIS
 62
   250
100
AcDbSpline
210
0.0
220
0.0
230
1.0
 70
    24
 71
     3
 72
     8
 73
     4
 74
     0
 42
0.0000000001
 43
0.0000000001
 40
0.0
 40
0.0
 40
0.0
 40
0.0
 40
1.0
 40
1.0
 40
1.0
 40
1.0
 10
0.1085
 20
-13.6854
 30
0.0
 10
0.1085
 20
-13.6854
 30
0.0
 10
1.3916
 20
-13.6854
 30
0.0
 10
1.3916
 20
-13.6854
 30
0.0
  0
SPLINE
  5
117
330
1F
100
AcDbEntity
  8
AXIS
 62
   250
100
AcDbSpline
210
0.0
220
0.0
230
1.0
 70
    24
 71
     3
 72
     8
 73
     4
 74
     0
 42
0.0000000001
 43
0.0000000001
 40
0.0
 40
0.0
 40
0.0
 40
0.0
 40
1.0
 40
1.0
 40
1.0
 40
1.0
 10
1.8193
 20
-13.6854
 30
0.0
 10
1.8193
 20
-13.6854
 30
0.0
 10
3.1025
 20
-13.6854
 30
0.0
 10
3.1025
 20
-13.6854
 30
0.0
  0
SPLINE
  5
118
330
1F
100
AcDbEntity
  8
AXIS
 62
   250
100
AcDbSpline
210
0.0
220
0.0
230
1.0
 70
    24
 71
     3
 72
     8
 73
     4
 74
     0
 42
0.0000000001
 43
0.0000000001
 40
0.0
 40
0.0
 40
0.0
 40
0.0
 40
1.0
 40
1.0
 40
1.0
 40
1.0
 10
3.5302
 20
-13.6854
 30
0.0
 10
3.5302
 20
-13.6854
 30
0.0
 10
4.8133
 20
-13.6854
 30
0.0
 10
4.8133
 20
-13.6854
 30
0.0
  0
SPLINE
  5
119
330
1F
100
AcDbEntity
  8
AXIS
 62
   250
100
AcDbSpline
210
0.0
220
0.0
230
1.0
 70
    24
 71
     3
 72
     8
 73
     4
 74
     0
 42
0.0000000001
 43
0.0000000001
 40
0.0
 40
0.0
 40
0.0
 40
0.0
 40
1.0
 40
1.0
 40
1.0
 40
1.0
 10
5.241
 20
-13.6854
 30
0.0
 10
5.241
 20
-13.6854
 30
0.0
 10
6.5242
 20
-13.6854
 30
0.0
 10
6.5242
 20
-13.6854
 30
0.0
  0
SPLINE
  5
11A
330
1F
100
AcDbEntity
  8
AXIS
 62
   250
100
AcDbSpline
210
0.0
220
0.0
230
1.0
 70
    24
 71
     3
 72
     8
 73
     4
 74
     0
 42
0.0000000001
 43
0.0000000001
 40
0.0
 40
0.0
 40
0.0
 40
0.0
 40
1.0
 40
1.0
 40
1.0
 40
1.0
 10
6.0504
 20
-13.2577
 30
0.0
 10
6.0504
 20
-13.2577
 30
0.0
 10
5.241
 20
-13.2577
 30
0.0
 10
5.241
 20
-13.2577
 30
0.0
  0
SPLINE
  5
11B
330
1F
100
AcDbEntity
  8
AXIS
 62
   250
100
AcDbSpline
210
0.0
220
0.0
230
1.0
 70
    24
 71
     3
 72
     8
 73
     4
 74
     0
 42
0.0000000001
 43
0.0000000001
 40
0.0
 40
0.0
 40
0.0
 40
0.0
 40
1.0
 40
1.0
 40
1.0
 40
1.0
 10
4.8133
 20
-13.2577
 30
0.0
 10
4.8133
 20
-13.2577
 30
0.0
 10
3.5302
 20
-13.2577
 30
0.0
 10
3.5302
 20
-13.2577
 30
0.0
  0
SPLINE
  5
11C
330
1F
100
AcDbEntity
  8
AXIS
 62
   250
100
AcDbSpline
210
0.0
220
0.0
230
1.0
 70
    24
 71
     3
 72
     8
 73
     4
 74
     0
 42
0.0000000001
 43
0.0000000001
 40
0.0
 40
0.0
 40
0.0
 40
0.0
 40
1.0
 40
1.0
 40
1.0
 40
1.0
 10
3.1025
 20
-13.2577
 30
0.0
 10
3.1025
 20
-13.2577
 30
0.0
 10
1.8193
 20
-13.2577
 30
0.0
 10
1.8193
 20
-13.2577
 30
0.0
  0
SPLINE
  5
11D
330
1F
100
AcDbEntity
  8
AXIS
 62
   250
100
AcDbSpline
210
0.0
220
0.0
230
1.0
 70
    24
 71
     3
 72
     8
 73
     4
 74
     0
 42
0.0000000001
 43
0.0000000001
 40
0.0
 40
0.0
 40
0.0
 40
0.0
 40
1.0
 40
1.0
 40
1.0
 40
1.0
 10
1.3916
 20
-13.2577
 30
0.0
 10
1.3916
 20
-13.2577
 30
0.0
 10
0.1085
 20
-13.2577
 30
0.0
 10
0.1085
 20
-13.2577
 30
0.0
  0
SPLINE
  5
11E
330
1F
100
AcDbEntity
  8
AXIS
 62
   250
100
AcDbSpline
210
0.0
220
0.0
230
1.0
 70
    24
 71
     3
 72
     8
 73
     4
 74
     0
 42
0.0000000001
 43
0.0000000001
 40
0.0
 40
0.0
 40
0.0
 40
0.0
 40
1.0
 40
1.0
 40
1.0
 40
1.0
 10
-0.3192
 20
-13.2577
 30
0.0
 10
-0.3192
 20
-13.2577
 30
0.0
 10
-1.6023
 20
-13.2577
 30
0.0
 10
-1.6023
 20
-13.2577
 30
0.0
  0
SPLINE
  5
11F
330
1F
100
AcDbEntity
  8
AXIS
 62
   250
100
AcDbSpline
210
0.0
220
0.0
230
1.0
 70
    24
 71
     3
 72
     8
 73
     4
 74
     0
 42
0.0000000001
 43
0.0000000001
 40
0.0
 40
0.0
 40
0.0
 40
0.0
 40
1.0
 40
1.0
 40
1.0
 40
1.0
 10
-2.03
 20
-13.2577
 30
0.0
 10
-2.03
 20
-13.2577
 30
0.0
 10
-2.8394
 20
-13.2577
 30
0.0
 10
-2.8394
 20
-13.2577
 30
0.0
  0
SPLINE
  5
120
330
1F
100
AcDbEntity
  8
AXIS
 62
   250
100
AcDbSpline
210
0.0
220
0.0
230
1.0
 70
    11
 71
     3
 72
    20
 73
    16
 74
     0
 42
0.0000000001
 43
0.0000000001
 40
0.0
 40
0.0
 40
0.0
 40
0.0
 40
0.2
 40
0.2
 40
0.2
 40
0.2
 40
0.4
 40
0.4
 40
0.4
 40
0.4
 40
0.6
 40
0.6
 40
0.6
 40
0.6
 40
1.0
 40
1.0
 40
1.0
 40
1.0
 10
11.5497
 20
-20.3149
 30
0.0
 10
11.5497
 20
-14.8229
 30
0.0
 10
7.0976
 20
-10.3707
 30
0.0
 10
1.6055
 20
-10.3707
 30
0.0
 10
1.6055
 20
-10.3707
 30
0.0
 10
-3.8866
 20
-10.3707
 30
0.0
 10
-8.3387
 20
-14.8229
 30
0.0
 10
-8.3388
 20
-20.3149
 30
0.0
 10
-8.3388
 20
-20.3149
 30
0.0
 10
-8.3388
 20
-25.807
 30
0.0
 10
-3.8866
 20
-30.2591
 30
0.0
 10
1.6055
 20
-30.2591
 30
0.0
 10
1.6055
 20
-30.2591
 30
0.0
 10
7.0976
 20
-30.2591
 30
0.0
 10
11.5497
 20
-25.807
 30
0.0
 10
11.5497
 20
-20.3149
 30
0.0
  0
SPLINE
  5
121
330
1F
100
AcDbEntity
  8
AXIS
 62
   250
100
AcDbSpline
210
0.0
220
0.0
230
1.0
 70
     8
 71
     3
 72
     8
 73
     4
 74
     0
 42
0.0000000001
 43
0.0000000001
 40
0.0
 40
0.0
 40
0.0
 40
0.0
 40
1.0
 40
1.0
 40
1.0
 40
1.0
 10
8.0069
 20
-14.9685
 30
0.0
 10
7.6874
 20
-14.5861
 30
0.0
 10
7.3344
 20
-14.233
 30
0.0
 10
6.9519
 20
-13.9135
 30
0.0
  0
SPLINE
  5
122
330
1F
100
AcDbEntity
  8
AXIS
 62
   250
100
AcDbSpline
210
0.0
220
0.0
230
1.0
 70
     8
 71
     3
 72
     8
 73
     4
 74
     0
 42
0.0000000001
 43
0.0000000001
 40
0.0
 40
0.0
 40
0.0
 40
0.0
 40
1.0
 40
1.0
 40
1.0
 40
1.0
 10
6.9519
 20
-26.7163
 30
0.0
 10
7.3344
 20
-26.3968
 30
0.0
 10
7.6874
 20
-26.0438
 30
0.0
 10
8.0069
 20
-25.6613
 30
0.0
  0
SPLINE
  5
123
330
1F
100
AcDbEntity
  8
AXIS
 62
   250
100
AcDbSpline
210
0.0
220
0.0
230
1.0
 70
     8
 71
     3
 72
     8
 73
     4
 74
     0
 42
0.0000000001
 43
0.0000000001
 40
0.0
 40
0.0
 40
0.0
 40
0.0
 40
1.0
 40
1.0
 40
1.0
 40
1.0
 10
-3.7409
 20
-13.9135
 30
0.0
 10
-4.1233
 20
-14.233
 30
0.0
 10
-4.4764
 20
-14.5861
 30
0.0
 10
-4.7959
 20
-14.9685
 30
0.0
  0
SPLINE
  5
124
330
1F
100
AcDbEntity
  8
AXIS
 62
   250
100
AcDbSpline
210
0.0
220
0.0
230
1.0
 70
     8
 71
     3
 72
     8
 73
     4
 74
     0
 42
0.0000000001
 43
0.0000000001
 40
0.0
 40
0.0
 40
0.0
 40
0.0
 40
1.0
 40
1.0
 40
1.0
 40
1.0
 10
-4.7959
 20
-25.6613
 30
0.0
 10
-4.4764
 20
-26.0438
 30
0.0
 10
-4.1233
 20
-26.3968
 30
0.0
 10
-3.7409
 20
-26.7163
 30
0.0
  0
SPLINE
  5
125
330
1F
100
AcDbEntity
  8
AXIS
 62
   250
100
AcDbSpline
210
0.0
220
0.0
230
1.0
 70
     8
 71
     3
 72
     8
 73
     4
 74
     0
 42
0.0000000001
 43
0.0000000001
 40
0.0
 40
0.0
 40
0.0
 40
0.0
 40
1.0
 40
1.0
 40
1.0
 40
1.0
 10
-5.4517
 20
-15.87
 30
0.0
 10
-5.6163
 20
-16.1313
 30
0.0
 10
-5.7662
 20
-16.4015
 30
0.0
 10
-5.9008
 20
-16.6794
 30
0.0
  0
SPLINE
  5
126
330
1F
100
AcDbEntity
  8
AXIS
 62
   250
100
AcDbSpline
210
0.0
220
0.0
230
1.0
 70
     8
 71
     3
 72
     8
 73
     4
 74
     0
 42
0.0000000001
 43
0.0000000001
 40
0.0
 40
0.0
 40
0.0
 40
0.0
 40
1.0
 40
1.0
 40
1.0
 40
1.0
 10
-6.0933
 20
-17.1071
 30
0.0
 10
-6.2665
 20
-17.5229
 30
0.0
 10
-6.4058
 20
-17.952
 30
0.0
 10
-6.5097
 20
-18.3902
 30
0.0
  0
SPLINE
  5
127
330
1F
100
AcDbEntity
  8
AXIS
 62
   250
100
AcDbSpline
210
0.0
220
0.0
230
1.0
 70
     8
 71
     3
 72
     8
 73
     4
 74
     0
 42
0.0000000001
 43
0.0000000001
 40
0.0
 40
0.0
 40
0.0
 40
0.0
 40
1.0
 40
1.0
 40
1.0
 40
1.0
 10
-6.5994
 20
-18.8179
 30
0.0
 10
-6.6767
 20
-19.2416
 30
0.0
 10
-6.721
 20
-19.6706
 30
0.0
 10
-6.7321
 20
-20.101
 30
0.0
  0
SPLINE
  5
128
330
1F
100
AcDbEntity
  8
AXIS
 62
   250
100
AcDbSpline
210
0.0
220
0.0
230
1.0
 70
     8
 71
     3
 72
     8
 73
     4
 74
     0
 42
0.0000000001
 43
0.0000000001
 40
0.0
 40
0.0
 40
0.0
 40
0.0
 40
1.0
 40
1.0
 40
1.0
 40
1.0
 10
-6.7321
 20
-20.5288
 30
0.0
 10
-6.721
 20
-20.9592
 30
0.0
 10
-6.6767
 20
-21.3882
 30
0.0
 10
-6.5994
 20
-21.8119
 30
0.0
  0
SPLINE
  5
129
330
1F
100
AcDbEntity
  8
AXIS
 62
   250
100
AcDbSpline
210
0.0
220
0.0
230
1.0
 70
     8
 71
     3
 72
     8
 73
     4
 74
     0
 42
0.0000000001
 43
0.0000000001
 40
0.0
 40
0.0
 40
0.0
 40
0.0
 40
1.0
 40
1.0
 40
1.0
 40
1.0
 10
-6.5097
 20
-22.2396
 30
0.0
 10
-6.4058
 20
-22.6779
 30
0.0
 10
-6.2665
 20
-23.107
 30
0.0
 10
-6.0933
 20
-23.5227
 30
0.0
  0
SPLINE
  5
12A
330
1F
100
AcDbEntity
  8
AXIS
 62
   250
100
AcDbSpline
210
0.0
220
0.0
230
1.0
 70
     8
 71
     3
 72
     8
 73
     4
 74
     0
 42
0.0000000001
 43
0.0000000001
 40
0.0
 40
0.0
 40
0.0
 40
0.0
 40
1.0
 40
1.0
 40
1.0
 40
1.0
 10
-5.9008
 20
-23.9504
 30
0.0
 10
-5.7662
 20
-24.2283
 30
0.0
 10
-5.6163
 20
-24.4985
 30
0.0
 10
-5.4517
 20
-24.7598
 30
0.0
  0
SPLINE
  5
12B
330
1F
100
AcDbEntity
  8
AXIS
 62
   250
100
AcDbSpline
210
0.0
220
0.0
230
1.0
 70
     8
 71
     3
 72
     8
 73
     4
 74
     0
 42
0.0000000001
 43
0.0000000001
 40
0.0
 40
0.0
 40
0.0
 40
0.0
 40
1.0
 40
1.0
 40
1.0
 40
1.0
 10
-2.8394
 20
-27.3721
 30
0.0
 10
-2.5781
 20
-27.5367
 30
0.0
 10
-2.3079
 20
-27.6866
 30
0.0
 10
-2.03
 20
-27.8212
 30
0.0
  0
SPLINE
  5
12C
330
1F
100
AcDbEntity
  8
AXIS
 62
   250
100
AcDbSpline
210
0.0
220
0.0
230
1.0
 70
     8
 71
     3
 72
     8
 73
     4
 74
     0
 42
0.0000000001
 43
0.0000000001
 40
0.0
 40
0.0
 40
0.0
 40
0.0
 40
1.0
 40
1.0
 40
1.0
 40
1.0
 10
-1.6023
 20
-28.0137
 30
0.0
 10
-1.1866
 20
-28.1869
 30
0.0
 10
-0.7574
 20
-28.3262
 30
0.0
 10
-0.3192
 20
-28.4301
 30
0.0
  0
SPLINE
  5
12D
330
1F
100
AcDbEntity
  8
AXIS
 62
   250
100
AcDbSpline
210
0.0
220
0.0
230
1.0
 70
     8
 71
     3
 72
     8
 73
     4
 74
     0
 42
0.0000000001
 43
0.0000000001
 40
0.0
 40
0.0
 40
0.0
 40
0.0
 40
1.0
 40
1.0
 40
1.0
 40
1.0
 10
0.1085
 20
-28.5198
 30
0.0
 10
0.5322
 20
-28.5971
 30
0.0
 10
0.9611
 20
-28.6415
 30
0.0
 10
1.3916
 20
-28.6525
 30
0.0
  0
SPLINE
  5
12E
330
1F
100
AcDbEntity
  8
AXIS
 62
   250
100
AcDbSpline
210
0.0
220
0.0
230
1.0
 70
     8
 71
     3
 72
     8
 73
     4
 74
     0
 42
0.0000000001
 43
0.0000000001
 40
0.0
 40
0.0
 40
0.0
 40
0.0
 40
1.0
 40
1.0
 40
1.0
 40
1.0
 10
1.8193
 20
-28.6525
 30
0.0
 10
2.2499
 20
-28.6415
 30
0.0
 10
2.6789
 20
-28.5971
 30
0.0
 10
3.1025
 20
-28.5198
 30
0.0
  0
SPLINE
  5
12F
330
1F
100
AcDbEntity
  8
AXIS
 62
   250
100
AcDbSpline
210
0.0
220
0.0
230
1.0
 70
     8
 71
     3
 72
     8
 73
     4
 74
     0
 42
0.0000000001
 43
0.0000000001
 40
0.0
 40
0.0
 40
0.0
 40
0.0
 40
1.0
 40
1.0
 40
1.0
 40
1.0
 10
3.5302
 20
-28.4301
 30
0.0
 10
3.9685
 20
-28.3262
 30
0.0
 10
4.3976
 20
-28.1869
 30
0.0
 10
4.8133
 20
-28.0137
 30
0.0
  0
SPLINE
  5
130
330
1F
100
AcDbEntity
  8
AXIS
 62
   250
100
AcDbSpline
210
0.0
220
0.0
230
1.0
 70
     8
 71
     3
 72
     8
 73
     4
 74
     0
 42
0.0000000001
 43
0.0000000001
 40
0.0
 40
0.0
 40
0.0
 40
0.0
 40
1.0
 40
1.0
 40
1.0
 40
1.0
 10
5.241
 20
-27.8212
 30
0.0
 10
5.5189
 20
-27.6866
 30
0.0
 10
5.7891
 20
-27.5367
 30
0.0
 10
6.0504
 20
-27.3721
 30
0.0
  0
SPLINE
  5
131
330
1F
100
AcDbEntity
  8
AXIS
 62
   250
100
AcDbSpline
210
0.0
220
0.0
230
1.0
 70
     8
 71
     3
 72
     8
 73
     4
 74
     0
 42
0.0000000001
 43
0.0000000001
 40
0.0
 40
0.0
 40
0.0
 40
0.0
 40
1.0
 40
1.0
 40
1.0
 40
1.0
 10
8.6627
 20
-24.7598
 30
0.0
 10
8.8273
 20
-24.4985
 30
0.0
 10
8.9772
 20
-24.2283
 30
0.0
 10
9.1118
 20
-23.9504
 30
0.0
  0
SPLINE
  5
132
330
1F
100
AcDbEntity
  8
AXIS
 62
   250
100
AcDbSpline
210
0.0
220
0.0
230
1.0
 70
     8
 71
     3
 72
     8
 73
     4
 74
     0
 42
0.0000000001
 43
0.0000000001
 40
0.0
 40
0.0
 40
0.0
 40
0.0
 40
1.0
 40
1.0
 40
1.0
 40
1.0
 10
6.0504
 20
-13.2577
 30
0.0
 10
5.7891
 20
-13.0932
 30
0.0
 10
5.5189
 20
-12.9432
 30
0.0
 10
5.241
 20
-12.8086
 30
0.0
  0
SPLINE
  5
133
330
1F
100
AcDbEntity
  8
AXIS
 62
   250
100
AcDbSpline
210
0.0
220
0.0
230
1.0
 70
     8
 71
     3
 72
     8
 73
     4
 74
     0
 42
0.0000000001
 43
0.0000000001
 40
0.0
 40
0.0
 40
0.0
 40
0.0
 40
1.0
 40
1.0
 40
1.0
 40
1.0
 10
4.8133
 20
-12.6161
 30
0.0
 10
4.3976
 20
-12.4429
 30
0.0
 10
3.9685
 20
-12.3036
 30
0.0
 10
3.5302
 20
-12.1997
 30
0.0
  0
SPLINE
  5
134
330
1F
100
AcDbEntity
  8
AXIS
 62
   250
100
AcDbSpline
210
0.0
220
0.0
230
1.0
 70
     8
 71
     3
 72
     8
 73
     4
 74
     0
 42
0.0000000001
 43
0.0000000001
 40
0.0
 40
0.0
 40
0.0
 40
0.0
 40
1.0
 40
1.0
 40
1.0
 40
1.0
 10
3.1025
 20
-12.11
 30
0.0
 10
2.6789
 20
-12.0327
 30
0.0
 10
2.2499
 20
-11.9884
 30
0.0
 10
1.8193
 20
-11.9773
 30
0.0
  0
SPLINE
  5
135
330
1F
100
AcDbEntity
  8
AXIS
 62
   250
100
AcDbSpline
210
0.0
220
0.0
230
1.0
 70
     8
 71
     3
 72
     8
 73
     4
 74
     0
 42
0.0000000001
 43
0.0000000001
 40
0.0
 40
0.0
 40
0.0
 40
0.0
 40
1.0
 40
1.0
 40
1.0
 40
1.0
 10
1.3916
 20
-11.9773
 30
0.0
 10
0.9611
 20
-11.9884
 30
0.0
 10
0.5322
 20
-12.0327
 30
0.0
 10
0.1085
 20
-12.11
 30
0.0
  0
SPLINE
  5
136
330
1F
100
AcDbEntity
  8
AXIS
 62
   250
100
AcDbSpline
210
0.0
220
0.0
230
1.0
 70
     8
 71
     3
 72
     8
 73
     4
 74
     0
 42
0.0000000001
 43
0.0000000001
 40
0.0
 40
0.0
 40
0.0
 40
0.0
 40
1.0
 40
1.0
 40
1.0
 40
1.0
 10
-0.3192
 20
-12.1997
 30
0.0
 10
-0.7574
 20
-12.3036
 30
0.0
 10
-1.1866
 20
-12.4429
 30
0.0
 10
-1.6023
 20
-12.6161
 30
0.0
  0
SPLINE
  5
137
330
1F
100
AcDbEntity
  8
AXIS
 62
   250
100
AcDbSpline
210
0.0
220
0.0
230
1.0
 70
     8
 71
     3
 72
     8
 73
     4
 74
     0
 42
0.0000000001
 43
0.0000000001
 40
0.0
 40
0.0
 40
0.0
 40
0.0
 40
1.0
 40
1.0
 40
1.0
 40
1.0
 10
-2.03
 20
-12.8086
 30
0.0
 10
-2.3079
 20
-12.9432
 30
0.0
 10
-2.5781
 20
-13.0932
 30
0.0
 10
-2.8394
 20
-13.2577
 30
0.0
  0
SPLINE
  5
138
330
1F
100
AcDbEntity
  8
AXIS
 62
   250
100
AcDbSpline
210
0.0
220
0.0
230
1.0
 70
     8
 71
     3
 72
     8
 73
     4
 74
     0
 42
0.0000000001
 43
0.0000000001
 40
0.0
 40
0.0
 40
0.0
 40
0.0
 40
1.0
 40
1.0
 40
1.0
 40
1.0
 10
9.3043
 20
-23.5227
 30
0.0
 10
9.4775
 20
-23.107
 30
0.0
 10
9.6168
 20
-22.6779
 30
0.0
 10
9.7207
 20
-22.2396
 30
0.0
  0
SPLINE
  5
139
330
1F
100
AcDbEntity
  8
AXIS
 62
   250
100
AcDbSpline
210
0.0
220
0.0
230
1.0
 70
     8
 71
     3
 72
     8
 73
     4
 74
     0
 42
0.0000000001
 43
0.0000000001
 40
0.0
 40
0.0
 40
0.0
 40
0.0
 40
1.0
 40
1.0
 40
1.0
 40
1.0
 10
9.8104
 20
-21.8119
 30
0.0
 10
9.8877
 20
-21.3882
 30
0.0
 10
9.9321
 20
-20.9592
 30
0.0
 10
9.9431
 20
-20.5288
 30
0.0
  0
SPLINE
  5
13A
330
1F
100
AcDbEntity
  8
AXIS
 62
   250
100
AcDbSpline
210
0.0
220
0.0
230
1.0
 70
     8
 71
     3
 72
     8
 73
     4
 74
     0
 42
0.0000000001
 43
0.0000000001
 40
0.0
 40
0.0
 40
0.0
 40
0.0
 40
1.0
 40
1.0
 40
1.0
 40
1.0
 10
9.9431
 20
-20.101
 30
0.0
 10
9.9321
 20
-19.6706
 30
0.0
 10
9.8877
 20
-19.2416
 30
0.0
 10
9.8104
 20
-18.8179
 30
0.0
  0
SPLINE
  5
13B
330
1F
100
AcDbEntity
  8
AXIS
 62
   250
100
AcDbSpline
210
0.0
220
0.0
230
1.0
 70
     8
 71
     3
 72
     8
 73
     4
 74
     0
 42
0.0000000001
 43
0.0000000001
 40
0.0
 40
0.0
 40
0.0
 40
0.0
 40
1.0
 40
1.0
 40
1.0
 40
1.0
 10
9.1118
 20
-16.6794
 30
0.0
 10
8.9772
 20
-16.4015
 30
0.0
 10
8.8273
 20
-16.1313
 30
0.0
 10
8.6627
 20
-15.87
 30
0.0
  0
SPLINE
  5
13C
330
1F
100
AcDbEntity
  8
AXIS
 62
   250
100
AcDbSpline
210
0.0
220
0.0
230
1.0
 70
     8
 71
     3
 72
     8
 73
     4
 74
     0
 42
0.0000000001
 43
0.0000000001
 40
0.0
 40
0.0
 40
0.0
 40
0.0
 40
1.0
 40
1.0
 40
1.0
 40
1.0
 10
9.7207
 20
-18.3902
 30
0.0
 10
9.6168
 20
-17.952
 30
0.0
 10
9.4775
 20
-17.5229
 30
0.0
 10
9.3043
 20
-17.1071
 30
0.0
  0
SPLINE
  5
13D
330
1F
100
AcDbEntity
  8
AXIS
 62
   250
100
AcDbSpline
210
0.0
220
0.0
230
1.0
 70
    24
 71
     3
 72
     8
 73
     4
 74
     0
 42
0.0000000001
 43
0.0000000001
 40
0.0
 40
0.0
 40
0.0
 40
0.0
 40
1.0
 40
1.0
 40
1.0
 40
1.0
 10
-14.4336
 20
28.6205
 30
0.0
 10
-14.4336
 20
28.6205
 30
0.0
 10
-14.4336
 20
26.9096
 30
0.0
 10
-14.4336
 20
26.9096
 30
0.0
  0
SPLINE
  5
13E
330
1F
100
AcDbEntity
  8
AXIS
 62
   250
100
AcDbSpline
210
0.0
220
0.0
230
1.0
 70
    24
 71
     3
 72
     8
 73
     4
 74
     0
 42
0.0000000001
 43
0.0000000001
 40
0.0
 40
0.0
 40
0.0
 40
0.0
 40
1.0
 40
1.0
 40
1.0
 40
1.0
 10
-6.8875
 20
15.7892
 30
0.0
 10
-6.8875
 20
15.7892
 30
0.0
 10
9.4694
 20
15.7892
 30
0.0
 10
9.4694
 20
15.7892
 30
0.0
  0
SPLINE
  5
13F
330
1F
100
AcDbEntity
  8
AXIS
 62
   250
100
AcDbSpline
210
0.0
220
0.0
230
1.0
 70
    24
 71
     3
 72
     8
 73
     4
 74
     0
 42
0.0000000001
 43
0.0000000001
 40
0.0
 40
0.0
 40
0.0
 40
0.0
 40
1.0
 40
1.0
 40
1.0
 40
1.0
 10
-14.4336
 20
26.9096
 30
0.0
 10
-14.4336
 20
26.9096
 30
0.0
 10
17.6446
 20
26.9096
 30
0.0
 10
17.6446
 20
26.9096
 30
0.0
  0
SPLINE
  5
140
330
1F
100
AcDbEntity
  8
AXIS
 62
   250
100
AcDbSpline
210
0.0
220
0.0
230
1.0
 70
    24
 71
     3
 72
     8
 73
     4
 74
     0
 42
0.0000000001
 43
0.0000000001
 40
0.0
 40
0.0
 40
0.0
 40
0.0
 40
1.0
 40
1.0
 40
1.0
 40
1.0
 10
-14.4336
 20
28.6205
 30
0.0
 10
-14.4336
 20
28.6205
 30
0.0
 10
17.6446
 20
28.6205
 30
0.0
 10
17.6446
 20
28.6205
 30
0.0
  0
SPLINE
  5
141
330
1F
100
AcDbEntity
  8
AXIS
 62
   250
100
AcDbSpline
210
0.0
220
0.0
230
1.0
 70
    24
 71
     3
 72
     8
 73
     4
 74
     0
 42
0.0000000001
 43
0.0000000001
 40
0.0
 40
0.0
 40
0.0
 40
0.0
 40
1.0
 40
1.0
 40
1.0
 40
1.0
 10
6.5242
 20
29.262
 30
0.0
 10
6.5242
 20
29.262
 30
0.0
 10
-3.3132
 20
29.262
 30
0.0
 10
-3.3132
 20
29.262
 30
0.0
  0
SPLINE
  5
142
330
1F
100
AcDbEntity
  8
AXIS
 62
   250
100
AcDbSpline
210
0.0
220
0.0
230
1.0
 70
    24
 71
     3
 72
     8
 73
     4
 74
     0
 42
0.0000000001
 43
0.0000000001
 40
0.0
 40
0.0
 40
0.0
 40
0.0
 40
1.0
 40
1.0
 40
1.0
 40
1.0
 10
17.6446
 20
28.6205
 30
0.0
 10
17.6446
 20
28.6205
 30
0.0
 10
17.6446
 20
26.9096
 30
0.0
 10
17.6446
 20
26.9096
 30
0.0
  0
SPLINE
  5
143
330
1F
100
AcDbEntity
  8
AXIS
 62
   250
100
AcDbSpline
210
0.0
220
0.0
230
1.0
 70
    24
 71
     3
 72
     8
 73
     4
 74
     0
 42
0.0000000001
 43
0.0000000001
 40
0.0
 40
0.0
 40
0.0
 40
0.0
 40
1.0
 40
1.0
 40
1.0
 40
1.0
 10
-14.4336
 20
-5.3451
 30
0.0
 10
-14.4336
 20
-5.3451
 30
0.0
 10
-14.4336
 20
-35.2847
 30
0.0
 10
-14.4336
 20
-35.2847
 30
0.0
  0
SPLINE
  5
144
330
1F
100
AcDbEntity
  8
AXIS
 62
   250
100
AcDbSpline
210
0.0
220
0.0
230
1.0
 70
    24
 71
     3
 72
     8
 73
     4
 74
     0
 42
0.0000000001
 43
0.0000000001
 40
0.0
 40
0.0
 40
0.0
 40
0.0
 40
1.0
 40
1.0
 40
1.0
 40
1.0
 10
-13.3643
 20
-36.354
 30
0.0
 10
-13.3643
 20
-36.354
 30
0.0
 10
16.5753
 20
-36.354
 30
0.0
 10
16.5753
 20
-36.354
 30
0.0
  0
SPLINE
  5
145
330
1F
100
AcDbEntity
  8
AXIS
 62
   250
100
AcDbSpline
210
0.0
220
0.0
230
1.0
 70
    24
 71
     3
 72
     8
 73
     4
 74
     0
 42
0.0000000001
 43
0.0000000001
 40
0.0
 40
0.0
 40
0.0
 40
0.0
 40
1.0
 40
1.0
 40
1.0
 40
1.0
 10
17.6446
 20
-35.2847
 30
0.0
 10
17.6446
 20
-35.2847
 30
0.0
 10
17.6446
 20
-5.3451
 30
0.0
 10
17.6446
 20
-5.3451
 30
0.0
  0
SPLINE
  5
146
330
1F
100
AcDbEntity
  8
AXIS
 62
   250
100
AcDbSpline
210
0.0
220
0.0
230
1.0
 70
    24
 71
     3
 72
     8
 73
     4
 74
     0
 42
0.0000000001
 43
0.0000000001
 40
0.0
 40
0.0
 40
0.0
 40
0.0
 40
1.0
 40
1.0
 40
1.0
 40
1.0
 10
16.5753
 20
-4.2758
 30
0.0
 10
16.5753
 20
-4.2758
 30
0.0
 10
-13.3643
 20
-4.2758
 30
0.0
 10
-13.3643
 20
-4.2758
 30
0.0
  0
SPLINE
  5
147
330
1F
100
AcDbEntity
  8
AXIS
 62
   250
100
AcDbSpline
210
0.0
220
0.0
230
1.0
 70
     8
 71
     3
 72
     8
 73
     4
 74
     0
 42
0.0000000001
 43
0.0000000001
 40
0.0
 40
0.0
 40
0.0
 40
0.0
 40
1.0
 40
1.0
 40
1.0
 40
1.0
 10
8.221
 20
28.621
 30
0.0
 10
7.7523
 20
29.0341
 30
0.0
 10
7.1489
 20
29.262
 30
0.0
 10
6.5242
 20
29.262
 30
0.0
  0
SPLINE
  5
148
330
1F
100
AcDbEntity
  8
AXIS
 62
   250
100
AcDbSpline
210
0.0
220
0.0
230
1.0
 70
     8
 71
     3
 72
     8
 73
     4
 74
     0
 42
0.0000000001
 43
0.0000000001
 40
0.0
 40
0.0
 40
0.0
 40
0.0
 40
1.0
 40
1.0
 40
1.0
 40
1.0
 10
-3.3132
 20
29.262
 30
0.0
 10
-3.9379
 20
29.262
 30
0.0
 10
-4.5413
 20
29.0341
 30
0.0
 10
-5.01
 20
28.621
 30
0.0
  0
SPLINE
  5
149
330
1F
100
AcDbEntity
  8
AXIS
 62
   250
100
AcDbSpline
210
0.0
220
0.0
230
1.0
 70
     8
 71
     3
 72
     8
 73
     4
 74
     0
 42
0.0000000001
 43
0.0000000001
 40
0.0
 40
0.0
 40
0.0
 40
0.0
 40
1.0
 40
1.0
 40
1.0
 40
1.0
 10
-7.9566
 20
16.8398
 30
0.0
 10
-7.9464
 20
16.2566
 30
0.0
 10
-7.4707
 20
15.7892
 30
0.0
 10
-6.8875
 20
15.7892
 30
0.0
  0
SPLINE
  5
14A
330
1F
100
AcDbEntity
  8
AXIS
 62
   250
100
AcDbSpline
210
0.0
220
0.0
230
1.0
 70
     8
 71
     3
 72
     8
 73
     4
 74
     0
 42
0.0000000001
 43
0.0000000001
 40
0.0
 40
0.0
 40
0.0
 40
0.0
 40
1.0
 40
1.0
 40
1.0
 40
1.0
 10
-14.4336
 20
-35.2847
 30
0.0
 10
-14.4336
 20
-35.8753
 30
0.0
 10
-13.9549
 20
-36.354
 30
0.0
 10
-13.3643
 20
-36.354
 30
0.0
  0
SPLINE
  5
14B
330
1F
100
AcDbEntity
  8
AXIS
 62
   250
100
AcDbSpline
210
0.0
220
0.0
230
1.0
 70
     8
 71
     3
 72
     8
 73
     4
 74
     0
 42
0.0000000001
 43
0.0000000001
 40
0.0
 40
0.0
 40
0.0
 40
0.0
 40
1.0
 40
1.0
 40
1.0
 40
1.0
 10
-13.3643
 20
-4.2758
 30
0.0
 10
-13.9549
 20
-4.2758
 30
0.0
 10
-14.4336
 20
-4.7545
 30
0.0
 10
-14.4336
 20
-5.3451
 30
0.0
  0
SPLINE
  5
14C
330
1F
100
AcDbEntity
  8
AXIS
 62
   250
100
AcDbSpline
210
0.0
220
0.0
230
1.0
 70
     8
 71
     3
 72
     8
 73
     4
 74
     0
 42
0.0000000001
 43
0.0000000001
 40
0.0
 40
0.0
 40
0.0
 40
0.0
 40
1.0
 40
1.0
 40
1.0
 40
1.0
 10
16.5753
 20
-36.354
 30
0.0
 10
17.1659
 20
-36.354
 30
0.0
 10
17.6446
 20
-35.8753
 30
0.0
 10
17.6446
 20
-35.2847
 30
0.0
  0
SPLINE
  5
14D
330
1F
100
AcDbEntity
  8
AXIS
 62
   250
100
AcDbSpline
210
0.0
220
0.0
230
1.0
 70
     8
 71
     3
 72
     8
 73
     4
 74
     0
 42
0.0000000001
 43
0.0000000001
 40
0.0
 40
0.0
 40
0.0
 40
0.0
 40
1.0
 40
1.0
 40
1.0
 40
1.0
 10
-5.8763
 20
-20.5288
 30
0.0
 10
-5.864
 20
-20.9602
 30
0.0
 10
-5.8144
 20
-21.3896
 30
0.0
 10
-5.7281
 20
-21.8124
 30
0.0
  0
SPLINE
  5
14E
330
1F
100
AcDbEntity
  8
AXIS
 62
   250
100
AcDbSpline
210
0.0
220
0.0
230
1.0
 70
     8
 71
     3
 72
     8
 73
     4
 74
     0
 42
0.0000000001
 43
0.0000000001
 40
0.0
 40
0.0
 40
0.0
 40
0.0
 40
1.0
 40
1.0
 40
1.0
 40
1.0
 10
-5.6275
 20
-22.2403
 30
0.0
 10
-5.5766
 20
-22.4315
 30
0.0
 10
-5.5181
 20
-22.6207
 30
0.0
 10
-5.4522
 20
-22.8073
 30
0.0
  0
SPLINE
  5
14F
330
1F
100
AcDbEntity
  8
AXIS
 62
   250
100
AcDbSpline
210
0.0
220
0.0
230
1.0
 70
     8
 71
     3
 72
     8
 73
     4
 74
     0
 42
0.0000000001
 43
0.0000000001
 40
0.0
 40
0.0
 40
0.0
 40
0.0
 40
1.0
 40
1.0
 40
1.0
 40
1.0
 10
-4.9371
 20
-23.9507
 30
0.0
 10
-4.6823
 20
-24.4091
 30
0.0
 10
-4.38
 20
-24.8396
 30
0.0
 10
-4.0352
 20
-25.2348
 30
0.0
  0
SPLINE
  5
150
330
1F
100
AcDbEntity
  8
AXIS
 62
   250
100
AcDbSpline
210
0.0
220
0.0
230
1.0
 70
     8
 71
     3
 72
     8
 73
     4
 74
     0
 42
0.0000000001
 43
0.0000000001
 40
0.0
 40
0.0
 40
0.0
 40
0.0
 40
1.0
 40
1.0
 40
1.0
 40
1.0
 10
-3.3145
 20
-25.9557
 30
0.0
 10
-2.9192
 20
-26.3004
 30
0.0
 10
-2.4887
 20
-26.6027
 30
0.0
 10
-2.0303
 20
-26.8575
 30
0.0
  0
SPLINE
  5
151
330
1F
100
AcDbEntity
  8
AXIS
 62
   250
100
AcDbSpline
210
0.0
220
0.0
230
1.0
 70
     8
 71
     3
 72
     8
 73
     4
 74
     0
 42
0.0000000001
 43
0.0000000001
 40
0.0
 40
0.0
 40
0.0
 40
0.0
 40
1.0
 40
1.0
 40
1.0
 40
1.0
 10
-0.8869
 20
-27.3727
 30
0.0
 10
-0.7003
 20
-27.4386
 30
0.0
 10
-0.5111
 20
-27.497
 30
0.0
 10
-0.3199
 20
-27.5479
 30
0.0
  0
SPLINE
  5
152
330
1F
100
AcDbEntity
  8
AXIS
 62
   250
100
AcDbSpline
210
0.0
220
0.0
230
1.0
 70
     8
 71
     3
 72
     8
 73
     4
 74
     0
 42
0.0000000001
 43
0.0000000001
 40
0.0
 40
0.0
 40
0.0
 40
0.0
 40
1.0
 40
1.0
 40
1.0
 40
1.0
 10
0.108
 20
-27.6485
 30
0.0
 10
0.5307
 20
-27.7348
 30
0.0
 10
0.9602
 20
-27.7844
 30
0.0
 10
1.3916
 20
-27.7968
 30
0.0
  0
SPLINE
  5
153
330
1F
100
AcDbEntity
  8
AXIS
 62
   250
100
AcDbSpline
210
0.0
220
0.0
230
1.0
 70
     8
 71
     3
 72
     8
 73
     4
 74
     0
 42
0.0000000001
 43
0.0000000001
 40
0.0
 40
0.0
 40
0.0
 40
0.0
 40
1.0
 40
1.0
 40
1.0
 40
1.0
 10
1.8194
 20
-27.7968
 30
0.0
 10
2.2508
 20
-27.7844
 30
0.0
 10
2.6803
 20
-27.7348
 30
0.0
 10
3.1031
 20
-27.6485
 30
0.0
  0
SPLINE
  5
154
330
1F
100
AcDbEntity
  8
AXIS
 62
   250
100
AcDbSpline
210
0.0
220
0.0
230
1.0
 70
     8
 71
     3
 72
     8
 73
     4
 74
     0
 42
0.0000000001
 43
0.0000000001
 40
0.0
 40
0.0
 40
0.0
 40
0.0
 40
1.0
 40
1.0
 40
1.0
 40
1.0
 10
3.5309
 20
-27.5479
 30
0.0
 10
3.7221
 20
-27.497
 30
0.0
 10
3.9113
 20
-27.4386
 30
0.0
 10
4.0979
 20
-27.3727
 30
0.0
  0
SPLINE
  5
155
330
1F
100
AcDbEntity
  8
AXIS
 62
   250
100
AcDbSpline
210
0.0
220
0.0
230
1.0
 70
     8
 71
     3
 72
     8
 73
     4
 74
     0
 42
0.0000000001
 43
0.0000000001
 40
0.0
 40
0.0
 40
0.0
 40
0.0
 40
1.0
 40
1.0
 40
1.0
 40
1.0
 10
5.2413
 20
-26.8575
 30
0.0
 10
5.6997
 20
-26.6027
 30
0.0
 10
6.1302
 20
-26.3004
 30
0.0
 10
6.5255
 20
-25.9557
 30
0.0
  0
SPLINE
  5
156
330
1F
100
AcDbEntity
  8
AXIS
 62
   250
100
AcDbSpline
210
0.0
220
0.0
230
1.0
 70
     8
 71
     3
 72
     8
 73
     4
 74
     0
 42
0.0000000001
 43
0.0000000001
 40
0.0
 40
0.0
 40
0.0
 40
0.0
 40
1.0
 40
1.0
 40
1.0
 40
1.0
 10
7.2463
 20
-25.2348
 30
0.0
 10
7.591
 20
-24.8396
 30
0.0
 10
7.8933
 20
-24.4091
 30
0.0
 10
8.1481
 20
-23.9507
 30
0.0
  0
SPLINE
  5
157
330
1F
100
AcDbEntity
  8
AXIS
 62
   250
100
AcDbSpline
210
0.0
220
0.0
230
1.0
 70
     8
 71
     3
 72
     8
 73
     4
 74
     0
 42
0.0000000001
 43
0.0000000001
 40
0.0
 40
0.0
 40
0.0
 40
0.0
 40
1.0
 40
1.0
 40
1.0
 40
1.0
 10
8.6633
 20
-22.8073
 30
0.0
 10
8.7292
 20
-22.6207
 30
0.0
 10
8.7876
 20
-22.4315
 30
0.0
 10
8.8386
 20
-22.2403
 30
0.0
  0
SPLINE
  5
158
330
1F
100
AcDbEntity
  8
AXIS
 62
   250
100
AcDbSpline
210
0.0
220
0.0
230
1.0
 70
     8
 71
     3
 72
     8
 73
     4
 74
     0
 42
0.0000000001
 43
0.0000000001
 40
0.0
 40
0.0
 40
0.0
 40
0.0
 40
1.0
 40
1.0
 40
1.0
 40
1.0
 10
8.9391
 20
-21.8124
 30
0.0
 10
9.0254
 20
-21.3896
 30
0.0
 10
9.0751
 20
-20.9602
 30
0.0
 10
9.0874
 20
-20.5288
 30
0.0
  0
SPLINE
  5
159
330
1F
100
AcDbEntity
  8
AXIS
 62
   250
100
AcDbSpline
210
0.0
220
0.0
230
1.0
 70
     8
 71
     3
 72
     8
 73
     4
 74
     0
 42
0.0000000001
 43
0.0000000001
 40
0.0
 40
0.0
 40
0.0
 40
0.0
 40
1.0
 40
1.0
 40
1.0
 40
1.0
 10
9.0874
 20
-20.101
 30
0.0
 10
9.0751
 20
-19.6696
 30
0.0
 10
9.0254
 20
-19.2402
 30
0.0
 10
8.9391
 20
-18.8174
 30
0.0
  0
SPLINE
  5
15A
330
1F
100
AcDbEntity
  8
AXIS
 62
   250
100
AcDbSpline
210
0.0
220
0.0
230
1.0
 70
     8
 71
     3
 72
     8
 73
     4
 74
     0
 42
0.0000000001
 43
0.0000000001
 40
0.0
 40
0.0
 40
0.0
 40
0.0
 40
1.0
 40
1.0
 40
1.0
 40
1.0
 10
8.8386
 20
-18.3895
 30
0.0
 10
8.7876
 20
-18.1983
 30
0.0
 10
8.7292
 20
-18.0091
 30
0.0
 10
8.6633
 20
-17.8225
 30
0.0
  0
SPLINE
  5
15B
330
1F
100
AcDbEntity
  8
AXIS
 62
   250
100
AcDbSpline
210
0.0
220
0.0
230
1.0
 70
     8
 71
     3
 72
     8
 73
     4
 74
     0
 42
0.0000000001
 43
0.0000000001
 40
0.0
 40
0.0
 40
0.0
 40
0.0
 40
1.0
 40
1.0
 40
1.0
 40
1.0
 10
8.1481
 20
-16.6792
 30
0.0
 10
7.8933
 20
-16.2207
 30
0.0
 10
7.591
 20
-15.7902
 30
0.0
 10
7.2463
 20
-15.395
 30
0.0
  0
SPLINE
  5
15C
330
1F
100
AcDbEntity
  8
AXIS
 62
   250
100
AcDbSpline
210
0.0
220
0.0
230
1.0
 70
     8
 71
     3
 72
     8
 73
     4
 74
     0
 42
0.0000000001
 43
0.0000000001
 40
0.0
 40
0.0
 40
0.0
 40
0.0
 40
1.0
 40
1.0
 40
1.0
 40
1.0
 10
6.5255
 20
-14.6742
 30
0.0
 10
6.1302
 20
-14.3294
 30
0.0
 10
5.6997
 20
-14.0271
 30
0.0
 10
5.2413
 20
-13.7724
 30
0.0
  0
SPLINE
  5
15D
330
1F
100
AcDbEntity
  8
AXIS
 62
   250
100
AcDbSpline
210
0.0
220
0.0
230
1.0
 70
     8
 71
     3
 72
     8
 73
     4
 74
     0
 42
0.0000000001
 43
0.0000000001
 40
0.0
 40
0.0
 40
0.0
 40
0.0
 40
1.0
 40
1.0
 40
1.0
 40
1.0
 10
4.0979
 20
-13.2572
 30
0.0
 10
3.9113
 20
-13.1913
 30
0.0
 10
3.7221
 20
-13.1328
 30
0.0
 10
3.5309
 20
-13.0819
 30
0.0
  0
SPLINE
  5
15E
330
1F
100
AcDbEntity
  8
AXIS
 62
   250
100
AcDbSpline
210
0.0
220
0.0
230
1.0
 70
     8
 71
     3
 72
     8
 73
     4
 74
     0
 42
0.0000000001
 43
0.0000000001
 40
0.0
 40
0.0
 40
0.0
 40
0.0
 40
1.0
 40
1.0
 40
1.0
 40
1.0
 10
3.1031
 20
-12.9813
 30
0.0
 10
2.6803
 20
-12.895
 30
0.0
 10
2.2508
 20
-12.8454
 30
0.0
 10
1.8194
 20
-12.8331
 30
0.0
  0
SPLINE
  5
15F
330
1F
100
AcDbEntity
  8
AXIS
 62
   250
100
AcDbSpline
210
0.0
220
0.0
230
1.0
 70
     8
 71
     3
 72
     8
 73
     4
 74
     0
 42
0.0000000001
 43
0.0000000001
 40
0.0
 40
0.0
 40
0.0
 40
0.0
 40
1.0
 40
1.0
 40
1.0
 40
1.0
 10
1.3916
 20
-12.8331
 30
0.0
 10
0.9602
 20
-12.8454
 30
0.0
 10
0.5307
 20
-12.895
 30
0.0
 10
0.108
 20
-12.9813
 30
0.0
  0
SPLINE
  5
160
330
1F
100
AcDbEntity
  8
AXIS
 62
   250
100
AcDbSpline
210
0.0
220
0.0
230
1.0
 70
     8
 71
     3
 72
     8
 73
     4
 74
     0
 42
0.0000000001
 43
0.0000000001
 40
0.0
 40
0.0
 40
0.0
 40
0.0
 40
1.0
 40
1.0
 40
1.0
 40
1.0
 10
-0.3199
 20
-13.0819
 30
0.0
 10
-0.5111
 20
-13.1328
 30
0.0
 10
-0.7003
 20
-13.1913
 30
0.0
 10
-0.8869
 20
-13.2572
 30
0.0
  0
SPLINE
  5
161
330
1F
100
AcDbEntity
  8
AXIS
 62
   250
100
AcDbSpline
210
0.0
220
0.0
230
1.0
 70
     8
 71
     3
 72
     8
 73
     4
 74
     0
 42
0.0000000001
 43
0.0000000001
 40
0.0
 40
0.0
 40
0.0
 40
0.0
 40
1.0
 40
1.0
 40
1.0
 40
1.0
 10
-2.0303
 20
-13.7724
 30
0.0
 10
-2.4887
 20
-14.0271
 30
0.0
 10
-2.9192
 20
-14.3294
 30
0.0
 10
-3.3145
 20
-14.6742
 30
0.0
  0
SPLINE
  5
162
330
1F
100
AcDbEntity
  8
AXIS
 62
   250
100
AcDbSpline
210
0.0
220
0.0
230
1.0
 70
     8
 71
     3
 72
     8
 73
     4
 74
     0
 42
0.0000000001
 43
0.0000000001
 40
0.0
 40
0.0
 40
0.0
 40
0.0
 40
1.0
 40
1.0
 40
1.0
 40
1.0
 10
-4.0352
 20
-15.395
 30
0.0
 10
-4.38
 20
-15.7902
 30
0.0
 10
-4.6823
 20
-16.2207
 30
0.0
 10
-4.9371
 20
-16.6792
 30
0.0
  0
SPLINE
  5
163
330
1F
100
AcDbEntity
  8
AXIS
 62
   250
100
AcDbSpline
210
0.0
220
0.0
230
1.0
 70
     8
 71
     3
 72
     8
 73
     4
 74
     0
 42
0.0000000001
 43
0.0000000001
 40
0.0
 40
0.0
 40
0.0
 40
0.0
 40
1.0
 40
1.0
 40
1.0
 40
1.0
 10
-5.4522
 20
-17.8225
 30
0.0
 10
-5.5181
 20
-18.0091
 30
0.0
 10
-5.5766
 20
-18.1983
 30
0.0
 10
-5.6275
 20
-18.3895
 30
0.0
  0
SPLINE
  5
164
330
1F
100
AcDbEntity
  8
AXIS
 62
   250
100
AcDbSpline
210
0.0
220
0.0
230
1.0
 70
     8
 71
     3
 72
     8
 73
     4
 74
     0
 42
0.0000000001
 43
0.0000000001
 40
0.0
 40
0.0
 40
0.0
 40
0.0
 40
1.0
 40
1.0
 40
1.0
 40
1.0
 10
-5.7281
 20
-18.8174
 30
0.0
 10
-5.8144
 20
-19.2402
 30
0.0
 10
-5.864
 20
-19.6696
 30
0.0
 10
-5.8763
 20
-20.101
 30
0.0
  0
SPLINE
  5
165
330
1F
100
AcDbEntity
  8
AXIS
 62
   250
100
AcDbSpline
210
0.0
220
0.0
230
1.0
 70
     8
 71
     3
 72
     8
 73
     4
 74
     0
 42
0.0000000001
 43
0.0000000001
 40
0.0
 40
0.0
 40
0.0
 40
0.0
 40
1.0
 40
1.0
 40
1.0
 40
1.0
 10
17.6446
 20
-5.3451
 30
0.0
 10
17.6446
 20
-4.7545
 30
0.0
 10
17.1659
 20
-4.2758
 30
0.0
 10
16.5753
 20
-4.2758
 30
0.0
  0
SPLINE
  5
166
330
1F
100
AcDbEntity
  8
AXIS
 62
   250
100
AcDbSpline
210
0.0
220
0.0
230
1.0
 70
    24
 71
     3
 72
     8
 73
     4
 74
     0
 42
0.0000000001
 43
0.0000000001
 40
0.0
 40
0.0
 40
0.0
 40
0.0
 40
1.0
 40
1.0
 40
1.0
 40
1.0
 10
1.6055
 20
6.1657
 30
0.0
 10
1.6055
 20
6.1657
 30
0.0
 10
16.5753
 20
6.1657
 30
0.0
 10
16.5753
 20
6.1657
 30
0.0
  0
SPLINE
  5
167
330
1F
100
AcDbEntity
  8
AXIS
 62
   250
100
AcDbSpline
210
0.0
220
0.0
230
1.0
 70
    24
 71
     3
 72
     8
 73
     4
 74
     0
 42
0.0000000001
 43
0.0000000001
 40
0.0
 40
0.0
 40
0.0
 40
0.0
 40
1.0
 40
1.0
 40
1.0
 40
1.0
 10
-7.9566
 20
16.8398
 30
0.0
 10
-7.9566
 20
16.8398
 30
0.0
 10
-8.1249
 20
26.4819
 30
0.0
 10
-8.1249
 20
26.4819
 30
0.0
  0
SPLINE
  5
168
330
1F
100
AcDbEntity
  8
AXIS
 62
   250
100
AcDbSpline
210
0.0
220
0.0
230
1.0
 70
    24
 71
     3
 72
     8
 73
     4
 74
     0
 42
0.0000000001
 43
0.0000000001
 40
0.0
 40
0.0
 40
0.0
 40
0.0
 40
1.0
 40
1.0
 40
1.0
 40
1.0
 10
-8.9803
 20
26.4819
 30
0.0
 10
-8.9803
 20
26.4819
 30
0.0
 10
-8.9803
 20
26.9096
 30
0.0
 10
-8.9803
 20
26.9096
 30
0.0
  0
SPLINE
  5
169
330
1F
100
AcDbEntity
  8
AXIS
  6
NEW_LINE1
 62
   250
100
AcDbSpline
210
0.0
220
0.0
230
1.0
 70
    24
 71
     3
 72
     8
 73
     4
 74
     0
 42
0.0000000001
 43
0.0000000001
 40
0.0
 40
0.0
 40
0.0
 40
0.0
 40
1.0
 40
1.0
 40
1.0
 40
1.0
 10
18.0723
 20
11.5121
 30
0.0
 10
18.0723
 20
11.5121
 30
0.0
 10
0.2251
 20
11.5121
 30
0.0
 10
0.2251
 20
11.5121
 30
0.0
  0
SPLINE
  5
16B
330
1F
100
AcDbEntity
  8
AXIS
 62
   250
100
AcDbSpline
210
0.0
220
0.0
230
1.0
 70
    24
 71
     3
 72
     8
 73
     4
 74
     0
 42
0.0000000001
 43
0.0000000001
 40
0.0
 40
0.0
 40
0.0
 40
0.0
 40
1.0
 40
1.0
 40
1.0
 40
1.0
 10
-3.7409
 20
15.7892
 30
0.0
 10
-3.7409
 20
15.7892
 30
0.0
 10
-3.7409
 20
11.5121
 30
0.0
 10
-3.7409
 20
11.5121
 30
0.0
  0
SPLINE
  5
16C
330
1F
100
AcDbEntity
  8
AXIS
 62
   250
100
AcDbSpline
210
0.0
220
0.0
230
1.0
 70
    24
 71
     3
 72
     8
 73
     4
 74
     0
 42
0.0000000001
 43
0.0000000001
 40
0.0
 40
0.0
 40
0.0
 40
0.0
 40
1.0
 40
1.0
 40
1.0
 40
1.0
 10
-2.8855
 20
29.262
 30
0.0
 10
-2.8855
 20
29.262
 30
0.0
 10
-2.8855
 20
30.1174
 30
0.0
 10
-2.8855
 20
30.1174
 30
0.0
  0
SPLINE
  5
16D
330
1F
100
AcDbEntity
  8
AXIS
 62
   250
100
AcDbSpline
210
0.0
220
0.0
230
1.0
 70
    24
 71
     3
 72
     8
 73
     4
 74
     0
 42
0.0000000001
 43
0.0000000001
 40
0.0
 40
0.0
 40
0.0
 40
0.0
 40
1.0
 40
1.0
 40
1.0
 40
1.0
 10
9.4694
 20
15.7892
 30
0.0
 10
9.4694
 20
15.7892
 30
0.0
 10
-6.8875
 20
15.7892
 30
0.0
 10
-6.8875
 20
15.7892
 30
0.0
  0
SPLINE
  5
16E
330
1F
100
AcDbEntity
  8
AXIS
 62
   250
100
AcDbSpline
210
0.0
220
0.0
230
1.0
 70
    24
 71
     3
 72
     8
 73
     4
 74
     0
 42
0.0000000001
 43
0.0000000001
 40
0.0
 40
0.0
 40
0.0
 40
0.0
 40
1.0
 40
1.0
 40
1.0
 40
1.0
 10
11.1679
 20
16.8584
 30
0.0
 10
11.1679
 20
16.8584
 30
0.0
 10
16.5753
 20
16.8584
 30
0.0
 10
16.5753
 20
16.8584
 30
0.0
  0
SPLINE
  5
16F
330
1F
100
AcDbEntity
  8
AXIS
  6
NEW_LINE2
 62
   250
100
AcDbSpline
210
0.0
220
0.0
230
1.0
 70
    24
 71
     3
 72
     8
 73
     4
 74
     0
 42
0.0000000001
 43
0.0000000001
 40
0.0
 40
0.0
 40
0.0
 40
0.0
 40
1.0
 40
1.0
 40
1.0
 40
1.0
 10
1.6055
 20
11.0844
 30
0.0
 10
1.6055
 20
11.0844
 30
0.0
 10
1.6055
 20
32.7885
 30
0.0
 10
1.6055
 20
32.7885
 30
0.0
  0
SPLINE
  5
171
330
1F
100
AcDbEntity
  8
AXIS
 62
   250
100
AcDbSpline
210
0.0
220
0.0
230
1.0
 70
    24
 71
     3
 72
     8
 73
     4
 74
     0
 42
0.0000000001
 43
0.0000000001
 40
0.0
 40
0.0
 40
0.0
 40
0.0
 40
1.0
 40
1.0
 40
1.0
 40
1.0
 10
-8.9803
 20
26.4819
 30
0.0
 10
-8.9803
 20
26.4819
 30
0.0
 10
12.1913
 20
26.4819
 30
0.0
 10
12.1913
 20
26.4819
 30
0.0
  0
SPLINE
  5
172
330
1F
100
AcDbEntity
  8
AXIS
 62
   250
100
AcDbSpline
210
0.0
220
0.0
230
1.0
 70
    24
 71
     3
 72
     8
 73
     4
 74
     0
 42
0.0000000001
 43
0.0000000001
 40
0.0
 40
0.0
 40
0.0
 40
0.0
 40
1.0
 40
1.0
 40
1.0
 40
1.0
 10
11.1679
 20
16.8584
 30
0.0
 10
11.1679
 20
16.8584
 30
0.0
 10
11.3359
 20
26.4819
 30
0.0
 10
11.3359
 20
26.4819
 30
0.0
  0
SPLINE
  5
173
330
1F
100
AcDbEntity
  8
AXIS
 62
   250
100
AcDbSpline
210
0.0
220
0.0
230
1.0
 70
    24
 71
     3
 72
     8
 73
     4
 74
     0
 42
0.0000000001
 43
0.0000000001
 40
0.0
 40
0.0
 40
0.0
 40
0.0
 40
1.0
 40
1.0
 40
1.0
 40
1.0
 10
12.1913
 20
26.4819
 30
0.0
 10
12.1913
 20
26.4819
 30
0.0
 10
12.1913
 20
26.9096
 30
0.0
 10
12.1913
 20
26.9096
 30
0.0
  0
SPLINE
  5
174
330
1F
100
AcDbEntity
  8
AXIS
 62
   250
100
AcDbSpline
210
0.0
220
0.0
230
1.0
 70
    24
 71
     3
 72
     8
 73
     4
 74
     0
 42
0.0000000001
 43
0.0000000001
 40
0.0
 40
0.0
 40
0.0
 40
0.0
 40
1.0
 40
1.0
 40
1.0
 40
1.0
 10
-2.03
 20
-17.1071
 30
0.0
 10
-2.03
 20
-17.1071
 30
0.0
 10
-2.03
 20
-17.6783
 30
0.0
 10
-2.03
 20
-17.6783
 30
0.0
  0
SPLINE
  5
175
330
1F
100
AcDbEntity
  8
AXIS
 62
   250
100
AcDbSpline
210
0.0
220
0.0
230
1.0
 70
    24
 71
     3
 72
     8
 73
     4
 74
     0
 42
0.0000000001
 43
0.0000000001
 40
0.0
 40
0.0
 40
0.0
 40
0.0
 40
1.0
 40
1.0
 40
1.0
 40
1.0
 10
-2.03
 20
-22.9515
 30
0.0
 10
-2.03
 20
-22.9515
 30
0.0
 10
-2.03
 20
-23.5227
 30
0.0
 10
-2.03
 20
-23.5227
 30
0.0
  0
SPLINE
  5
176
330
1F
100
AcDbEntity
  8
AXIS
 62
   250
100
AcDbSpline
210
0.0
220
0.0
230
1.0
 70
    24
 71
     3
 72
     8
 73
     4
 74
     0
 42
0.0000000001
 43
0.0000000001
 40
0.0
 40
0.0
 40
0.0
 40
0.0
 40
1.0
 40
1.0
 40
1.0
 40
1.0
 10
-1.6023
 20
-23.9504
 30
0.0
 10
-1.6023
 20
-23.9504
 30
0.0
 10
-1.0311
 20
-23.9504
 30
0.0
 10
-1.0311
 20
-23.9504
 30
0.0
  0
SPLINE
  5
177
330
1F
100
AcDbEntity
  8
AXIS
 62
   250
100
AcDbSpline
210
0.0
220
0.0
230
1.0
 70
    24
 71
     3
 72
     8
 73
     4
 74
     0
 42
0.0000000001
 43
0.0000000001
 40
0.0
 40
0.0
 40
0.0
 40
0.0
 40
1.0
 40
1.0
 40
1.0
 40
1.0
 10
4.2421
 20
-23.9504
 30
0.0
 10
4.2421
 20
-23.9504
 30
0.0
 10
4.8133
 20
-23.9504
 30
0.0
 10
4.8133
 20
-23.9504
 30
0.0
  0
SPLINE
  5
178
330
1F
100
AcDbEntity
  8
AXIS
 62
   250
100
AcDbSpline
210
0.0
220
0.0
230
1.0
 70
    24
 71
     3
 72
     8
 73
     4
 74
     0
 42
0.0000000001
 43
0.0000000001
 40
0.0
 40
0.0
 40
0.0
 40
0.0
 40
1.0
 40
1.0
 40
1.0
 40
1.0
 10
-0.3192
 20
-15.3962
 30
0.0
 10
-0.3192
 20
-15.3962
 30
0.0
 10
-0.3192
 20
-16.2573
 30
0.0
 10
-0.3192
 20
-16.2573
 30
0.0
  0
SPLINE
  5
179
330
1F
100
AcDbEntity
  8
AXIS
 62
   250
100
AcDbSpline
210
0.0
220
0.0
230
1.0
 70
    24
 71
     3
 72
     8
 73
     4
 74
     0
 42
0.0000000001
 43
0.0000000001
 40
0.0
 40
0.0
 40
0.0
 40
0.0
 40
1.0
 40
1.0
 40
1.0
 40
1.0
 10
-0.3192
 20
-24.3725
 30
0.0
 10
-0.3192
 20
-24.3725
 30
0.0
 10
-0.3192
 20
-25.2336
 30
0.0
 10
-0.3192
 20
-25.2336
 30
0.0
  0
SPLINE
  5
17A
330
1F
100
AcDbEntity
  8
AXIS
 62
   250
100
AcDbSpline
210
0.0
220
0.0
230
1.0
 70
    24
 71
     3
 72
     8
 73
     4
 74
     0
 42
0.0000000001
 43
0.0000000001
 40
0.0
 40
0.0
 40
0.0
 40
0.0
 40
1.0
 40
1.0
 40
1.0
 40
1.0
 10
0.1085
 20
-25.2336
 30
0.0
 10
0.1085
 20
-25.2336
 30
0.0
 10
0.1085
 20
-24.549
 30
0.0
 10
0.1085
 20
-24.549
 30
0.0
  0
SPLINE
  5
17B
330
1F
100
AcDbEntity
  8
AXIS
 62
   250
100
AcDbSpline
210
0.0
220
0.0
230
1.0
 70
    24
 71
     3
 72
     8
 73
     4
 74
     0
 42
0.0000000001
 43
0.0000000001
 40
0.0
 40
0.0
 40
0.0
 40
0.0
 40
1.0
 40
1.0
 40
1.0
 40
1.0
 10
0.1085
 20
-16.0808
 30
0.0
 10
0.1085
 20
-16.0808
 30
0.0
 10
0.1085
 20
-15.3962
 30
0.0
 10
0.1085
 20
-15.3962
 30
0.0
  0
SPLINE
  5
17C
330
1F
100
AcDbEntity
  8
AXIS
 62
   250
100
AcDbSpline
210
0.0
220
0.0
230
1.0
 70
    24
 71
     3
 72
     8
 73
     4
 74
     0
 42
0.0000000001
 43
0.0000000001
 40
0.0
 40
0.0
 40
0.0
 40
0.0
 40
1.0
 40
1.0
 40
1.0
 40
1.0
 10
-3.3132
 20
-22.2396
 30
0.0
 10
-3.3132
 20
-22.2396
 30
0.0
 10
-2.4521
 20
-22.2396
 30
0.0
 10
-2.4521
 20
-22.2396
 30
0.0
  0
SPLINE
  5
17D
330
1F
100
AcDbEntity
  8
AXIS
 62
   250
100
AcDbSpline
210
0.0
220
0.0
230
1.0
 70
    24
 71
     3
 72
     8
 73
     4
 74
     0
 42
0.0000000001
 43
0.0000000001
 40
0.0
 40
0.0
 40
0.0
 40
0.0
 40
1.0
 40
1.0
 40
1.0
 40
1.0
 10
5.6631
 20
-22.2396
 30
0.0
 10
5.6631
 20
-22.2396
 30
0.0
 10
6.5242
 20
-22.2396
 30
0.0
 10
6.5242
 20
-22.2396
 30
0.0
  0
SPLINE
  5
17E
330
1F
100
AcDbEntity
  8
AXIS
 62
   250
100
AcDbSpline
210
0.0
220
0.0
230
1.0
 70
    24
 71
     3
 72
     8
 73
     4
 74
     0
 42
0.0000000001
 43
0.0000000001
 40
0.0
 40
0.0
 40
0.0
 40
0.0
 40
1.0
 40
1.0
 40
1.0
 40
1.0
 10
6.5242
 20
-21.8119
 30
0.0
 10
6.5242
 20
-21.8119
 30
0.0
 10
5.8396
 20
-21.8119
 30
0.0
 10
5.8396
 20
-21.8119
 30
0.0
  0
SPLINE
  5
17F
330
1F
100
AcDbEntity
  8
AXIS
 62
   250
100
AcDbSpline
210
0.0
220
0.0
230
1.0
 70
    24
 71
     3
 72
     8
 73
     4
 74
     0
 42
0.0000000001
 43
0.0000000001
 40
0.0
 40
0.0
 40
0.0
 40
0.0
 40
1.0
 40
1.0
 40
1.0
 40
1.0
 10
-2.6286
 20
-21.8119
 30
0.0
 10
-2.6286
 20
-21.8119
 30
0.0
 10
-3.3132
 20
-21.8119
 30
0.0
 10
-3.3132
 20
-21.8119
 30
0.0
  0
SPLINE
  5
180
330
1F
100
AcDbEntity
  8
AXIS
 62
   250
100
AcDbSpline
210
0.0
220
0.0
230
1.0
 70
    24
 71
     3
 72
     8
 73
     4
 74
     0
 42
0.0000000001
 43
0.0000000001
 40
0.0
 40
0.0
 40
0.0
 40
0.0
 40
1.0
 40
1.0
 40
1.0
 40
1.0
 10
1.3916
 20
-15.3962
 30
0.0
 10
1.3916
 20
-15.3962
 30
0.0
 10
1.3916
 20
-15.829
 30
0.0
 10
1.3916
 20
-15.829
 30
0.0
  0
SPLINE
  5
181
330
1F
100
AcDbEntity
  8
AXIS
 62
   250
100
AcDbSpline
210
0.0
220
0.0
230
1.0
 70
    24
 71
     3
 72
     8
 73
     4
 74
     0
 42
0.0000000001
 43
0.0000000001
 40
0.0
 40
0.0
 40
0.0
 40
0.0
 40
1.0
 40
1.0
 40
1.0
 40
1.0
 10
1.3916
 20
-24.8008
 30
0.0
 10
1.3916
 20
-24.8008
 30
0.0
 10
1.3916
 20
-25.2336
 30
0.0
 10
1.3916
 20
-25.2336
 30
0.0
  0
SPLINE
  5
182
330
1F
100
AcDbEntity
  8
AXIS
  6
NEW_LINE3
 62
   250
100
AcDbSpline
210
0.0
220
0.0
230
1.0
 70
    24
 71
     3
 72
     8
 73
     4
 74
     0
 42
0.0000000001
 43
0.0000000001
 40
0.0
 40
0.0
 40
0.0
 40
0.0
 40
1.0
 40
1.0
 40
1.0
 40
1.0
 10
1.6056
 20
-9.4543
 30
0.0
 10
1.6056
 20
-9.4543
 30
0.0
 10
1.6056
 20
-31.3284
 30
0.0
 10
1.6056
 20
-31.3284
 30
0.0
  0
SPLINE
  5
184
330
1F
100
AcDbEntity
  8
AXIS
 62
   250
100
AcDbSpline
210
0.0
220
0.0
230
1.0
 70
    24
 71
     3
 72
     8
 73
     4
 74
     0
 42
0.0000000001
 43
0.0000000001
 40
0.0
 40
0.0
 40
0.0
 40
0.0
 40
1.0
 40
1.0
 40
1.0
 40
1.0
 10
-3.3132
 20
-20.5288
 30
0.0
 10
-3.3132
 20
-20.5288
 30
0.0
 10
-2.8803
 20
-20.5288
 30
0.0
 10
-2.8803
 20
-20.5288
 30
0.0
  0
SPLINE
  5
185
330
1F
100
AcDbEntity
  8
AXIS
 62
   250
100
AcDbSpline
210
0.0
220
0.0
230
1.0
 70
    24
 71
     3
 72
     8
 73
     4
 74
     0
 42
0.0000000001
 43
0.0000000001
 40
0.0
 40
0.0
 40
0.0
 40
0.0
 40
1.0
 40
1.0
 40
1.0
 40
1.0
 10
6.0914
 20
-20.5288
 30
0.0
 10
6.0914
 20
-20.5288
 30
0.0
 10
6.5242
 20
-20.5288
 30
0.0
 10
6.5242
 20
-20.5288
 30
0.0
  0
SPLINE
  5
186
330
1F
100
AcDbEntity
  8
AXIS
  6
NEW_LINE4
 62
   250
100
AcDbSpline
210
0.0
220
0.0
230
1.0
 70
    24
 71
     3
 72
     8
 73
     4
 74
     0
 42
0.0000000001
 43
0.0000000001
 40
0.0
 40
0.0
 40
0.0
 40
0.0
 40
1.0
 40
1.0
 40
1.0
 40
1.0
 10
12.529
 20
-20.3149
 30
0.0
 10
12.529
 20
-20.3149
 30
0.0
 10
-9.408
 20
-20.3149
 30
0.0
 10
-9.408
 20
-20.3149
 30
0.0
  0
SPLINE
  5
188
330
1F
100
AcDbEntity
  8
AXIS
 62
   250
100
AcDbSpline
210
0.0
220
0.0
230
1.0
 70
    24
 71
     3
 72
     8
 73
     4
 74
     0
 42
0.0000000001
 43
0.0000000001
 40
0.0
 40
0.0
 40
0.0
 40
0.0
 40
1.0
 40
1.0
 40
1.0
 40
1.0
 10
1.8193
 20
-25.2336
 30
0.0
 10
1.8193
 20
-25.2336
 30
0.0
 10
1.8193
 20
-24.8008
 30
0.0
 10
1.8193
 20
-24.8008
 30
0.0
  0
SPLINE
  5
189
330
1F
100
AcDbEntity
  8
AXIS
 62
   250
100
AcDbSpline
210
0.0
220
0.0
230
1.0
 70
    24
 71
     3
 72
     8
 73
     4
 74
     0
 42
0.0000000001
 43
0.0000000001
 40
0.0
 40
0.0
 40
0.0
 40
0.0
 40
1.0
 40
1.0
 40
1.0
 40
1.0
 10
1.8193
 20
-15.829
 30
0.0
 10
1.8193
 20
-15.829
 30
0.0
 10
1.8193
 20
-15.3962
 30
0.0
 10
1.8193
 20
-15.3962
 30
0.0
  0
SPLINE
  5
18A
330
1F
100
AcDbEntity
  8
AXIS
 62
   250
100
AcDbSpline
210
0.0
220
0.0
230
1.0
 70
    24
 71
     3
 72
     8
 73
     4
 74
     0
 42
0.0000000001
 43
0.0000000001
 40
0.0
 40
0.0
 40
0.0
 40
0.0
 40
1.0
 40
1.0
 40
1.0
 40
1.0
 10
3.1025
 20
-15.3962
 30
0.0
 10
3.1025
 20
-15.3962
 30
0.0
 10
3.1025
 20
-16.0808
 30
0.0
 10
3.1025
 20
-16.0808
 30
0.0
  0
SPLINE
  5
18B
330
1F
100
AcDbEntity
  8
AXIS
 62
   250
100
AcDbSpline
210
0.0
220
0.0
230
1.0
 70
    24
 71
     3
 72
     8
 73
     4
 74
     0
 42
0.0000000001
 43
0.0000000001
 40
0.0
 40
0.0
 40
0.0
 40
0.0
 40
1.0
 40
1.0
 40
1.0
 40
1.0
 10
3.1025
 20
-24.549
 30
0.0
 10
3.1025
 20
-24.549
 30
0.0
 10
3.1025
 20
-25.2336
 30
0.0
 10
3.1025
 20
-25.2336
 30
0.0
  0
SPLINE
  5
18C
330
1F
100
AcDbEntity
  8
AXIS
 62
   250
100
AcDbSpline
210
0.0
220
0.0
230
1.0
 70
    24
 71
     3
 72
     8
 73
     4
 74
     0
 42
0.0000000001
 43
0.0000000001
 40
0.0
 40
0.0
 40
0.0
 40
0.0
 40
1.0
 40
1.0
 40
1.0
 40
1.0
 10
6.5242
 20
-20.101
 30
0.0
 10
6.5242
 20
-20.101
 30
0.0
 10
6.0914
 20
-20.101
 30
0.0
 10
6.0914
 20
-20.101
 30
0.0
  0
SPLINE
  5
18D
330
1F
100
AcDbEntity
  8
AXIS
 62
   250
100
AcDbSpline
210
0.0
220
0.0
230
1.0
 70
    24
 71
     3
 72
     8
 73
     4
 74
     0
 42
0.0000000001
 43
0.0000000001
 40
0.0
 40
0.0
 40
0.0
 40
0.0
 40
1.0
 40
1.0
 40
1.0
 40
1.0
 10
-2.8803
 20
-20.101
 30
0.0
 10
-2.8803
 20
-20.101
 30
0.0
 10
-3.3132
 20
-20.101
 30
0.0
 10
-3.3132
 20
-20.101
 30
0.0
  0
SPLINE
  5
18E
330
1F
100
AcDbEntity
  8
AXIS
 62
   250
100
AcDbSpline
210
0.0
220
0.0
230
1.0
 70
    24
 71
     3
 72
     8
 73
     4
 74
     0
 42
0.0000000001
 43
0.0000000001
 40
0.0
 40
0.0
 40
0.0
 40
0.0
 40
1.0
 40
1.0
 40
1.0
 40
1.0
 10
-3.3132
 20
-18.8179
 30
0.0
 10
-3.3132
 20
-18.8179
 30
0.0
 10
-2.6286
 20
-18.8179
 30
0.0
 10
-2.6286
 20
-18.8179
 30
0.0
  0
SPLINE
  5
18F
330
1F
100
AcDbEntity
  8
AXIS
 62
   250
100
AcDbSpline
210
0.0
220
0.0
230
1.0
 70
    24
 71
     3
 72
     8
 73
     4
 74
     0
 42
0.0000000001
 43
0.0000000001
 40
0.0
 40
0.0
 40
0.0
 40
0.0
 40
1.0
 40
1.0
 40
1.0
 40
1.0
 10
5.8396
 20
-18.8179
 30
0.0
 10
5.8396
 20
-18.8179
 30
0.0
 10
6.5242
 20
-18.8179
 30
0.0
 10
6.5242
 20
-18.8179
 30
0.0
  0
SPLINE
  5
190
330
1F
100
AcDbEntity
  8
AXIS
 62
   250
100
AcDbSpline
210
0.0
220
0.0
230
1.0
 70
    24
 71
     3
 72
     8
 73
     4
 74
     0
 42
0.0000000001
 43
0.0000000001
 40
0.0
 40
0.0
 40
0.0
 40
0.0
 40
1.0
 40
1.0
 40
1.0
 40
1.0
 10
3.5302
 20
-25.2336
 30
0.0
 10
3.5302
 20
-25.2336
 30
0.0
 10
3.5302
 20
-24.3725
 30
0.0
 10
3.5302
 20
-24.3725
 30
0.0
  0
SPLINE
  5
191
330
1F
100
AcDbEntity
  8
AXIS
 62
   250
100
AcDbSpline
210
0.0
220
0.0
230
1.0
 70
    24
 71
     3
 72
     8
 73
     4
 74
     0
 42
0.0000000001
 43
0.0000000001
 40
0.0
 40
0.0
 40
0.0
 40
0.0
 40
1.0
 40
1.0
 40
1.0
 40
1.0
 10
3.5302
 20
-16.2573
 30
0.0
 10
3.5302
 20
-16.2573
 30
0.0
 10
3.5302
 20
-15.3962
 30
0.0
 10
3.5302
 20
-15.3962
 30
0.0
  0
SPLINE
  5
192
330
1F
100
AcDbEntity
  8
AXIS
 62
   250
100
AcDbSpline
210
0.0
220
0.0
230
1.0
 70
    24
 71
     3
 72
     8
 73
     4
 74
     0
 42
0.0000000001
 43
0.0000000001
 40
0.0
 40
0.0
 40
0.0
 40
0.0
 40
1.0
 40
1.0
 40
1.0
 40
1.0
 10
6.5242
 20
-18.3902
 30
0.0
 10
6.5242
 20
-18.3902
 30
0.0
 10
5.6631
 20
-18.3902
 30
0.0
 10
5.6631
 20
-18.3902
 30
0.0
  0
SPLINE
  5
193
330
1F
100
AcDbEntity
  8
AXIS
 62
   250
100
AcDbSpline
210
0.0
220
0.0
230
1.0
 70
    24
 71
     3
 72
     8
 73
     4
 74
     0
 42
0.0000000001
 43
0.0000000001
 40
0.0
 40
0.0
 40
0.0
 40
0.0
 40
1.0
 40
1.0
 40
1.0
 40
1.0
 10
-2.4521
 20
-18.3902
 30
0.0
 10
-2.4521
 20
-18.3902
 30
0.0
 10
-3.3132
 20
-18.3902
 30
0.0
 10
-3.3132
 20
-18.3902
 30
0.0
  0
SPLINE
  5
194
330
1F
100
AcDbEntity
  8
AXIS
 62
   250
100
AcDbSpline
210
0.0
220
0.0
230
1.0
 70
    24
 71
     3
 72
     8
 73
     4
 74
     0
 42
0.0000000001
 43
0.0000000001
 40
0.0
 40
0.0
 40
0.0
 40
0.0
 40
1.0
 40
1.0
 40
1.0
 40
1.0
 10
5.241
 20
-23.5227
 30
0.0
 10
5.241
 20
-23.5227
 30
0.0
 10
5.241
 20
-22.9515
 30
0.0
 10
5.241
 20
-22.9515
 30
0.0
  0
SPLINE
  5
195
330
1F
100
AcDbEntity
  8
AXIS
 62
   250
100
AcDbSpline
210
0.0
220
0.0
230
1.0
 70
    24
 71
     3
 72
     8
 73
     4
 74
     0
 42
0.0000000001
 43
0.0000000001
 40
0.0
 40
0.0
 40
0.0
 40
0.0
 40
1.0
 40
1.0
 40
1.0
 40
1.0
 10
5.241
 20
-17.6783
 30
0.0
 10
5.241
 20
-17.6783
 30
0.0
 10
5.241
 20
-17.1071
 30
0.0
 10
5.241
 20
-17.1071
 30
0.0
  0
SPLINE
  5
196
330
1F
100
AcDbEntity
  8
AXIS
 62
   250
100
AcDbSpline
210
0.0
220
0.0
230
1.0
 70
    24
 71
     3
 72
     8
 73
     4
 74
     0
 42
0.0000000001
 43
0.0000000001
 40
0.0
 40
0.0
 40
0.0
 40
0.0
 40
1.0
 40
1.0
 40
1.0
 40
1.0
 10
4.8133
 20
-16.6794
 30
0.0
 10
4.8133
 20
-16.6794
 30
0.0
 10
4.2421
 20
-16.6794
 30
0.0
 10
4.2421
 20
-16.6794
 30
0.0
  0
SPLINE
  5
197
330
1F
100
AcDbEntity
  8
AXIS
 62
   250
100
AcDbSpline
210
0.0
220
0.0
230
1.0
 70
    24
 71
     3
 72
     8
 73
     4
 74
     0
 42
0.0000000001
 43
0.0000000001
 40
0.0
 40
0.0
 40
0.0
 40
0.0
 40
1.0
 40
1.0
 40
1.0
 40
1.0
 10
-1.0311
 20
-16.6794
 30
0.0
 10
-1.0311
 20
-16.6794
 30
0.0
 10
-1.6023
 20
-16.6794
 30
0.0
 10
-1.6023
 20
-16.6794
 30
0.0
  0
SPLINE
  5
198
330
1F
100
AcDbEntity
  8
AXIS
 62
   250
100
AcDbSpline
210
0.0
220
0.0
230
1.0
 70
     8
 71
     3
 72
     8
 73
     4
 74
     0
 42
0.0000000001
 43
0.0000000001
 40
0.0
 40
0.0
 40
0.0
 40
0.0
 40
1.0
 40
1.0
 40
1.0
 40
1.0
 10
-3.7409
 20
11.5121
 30
0.0
 10
-3.7409
 20
8.5593
 30
0.0
 10
-1.3472
 20
6.1657
 30
0.0
 10
1.6055
 20
6.1657
 30
0.0
  0
SPLINE
  5
199
330
1F
100
AcDbEntity
  8
AXIS
 62
   250
100
AcDbSpline
210
0.0
220
0.0
230
1.0
 70
    11
 71
     3
 72
    20
 73
    16
 74
     0
 42
0.0000000001
 43
0.0000000001
 40
0.0
 40
0.0
 40
0.0
 40
0.0
 40
0.2
 40
0.2
 40
0.2
 40
0.2
 40
0.4
 40
0.4
 40
0.4
 40
0.4
 40
0.6
 40
0.6
 40
0.6
 40
0.6
 40
1.0
 40
1.0
 40
1.0
 40
1.0
 10
11.7636
 20
-20.3149
 30
0.0
 10
11.7636
 20
-14.7048
 30
0.0
 10
7.2157
 20
-10.1568
 30
0.0
 10
1.6055
 20
-10.1568
 30
0.0
 10
1.6055
 20
-10.1568
 30
0.0
 10
-4.0046
 20
-10.1568
 30
0.0
 10
-8.5526
 20
-14.7048
 30
0.0
 10
-8.5526
 20
-20.3149
 30
0.0
 10
-8.5526
 20
-20.3149
 30
0.0
 10
-8.5526
 20
-25.9251
 30
0.0
 10
-4.0046
 20
-30.473
 30
0.0
 10
1.6055
 20
-30.473
 30
0.0
 10
1.6055
 20
-30.473
 30
0.0
 10
7.2157
 20
-30.473
 30
0.0
 10
11.7636
 20
-25.9251
 30
0.0
 10
11.7636
 20
-20.3149
 30
0.0
  0
SPLINE
  5
19A
330
1F
100
AcDbEntity
  8
AXIS
 62
   250
100
AcDbSpline
210
0.0
220
0.0
230
1.0
 70
     8
 71
     3
 72
     8
 73
     4
 74
     0
 42
0.0000000001
 43
0.0000000001
 40
0.0
 40
0.0
 40
0.0
 40
0.0
 40
1.0
 40
1.0
 40
1.0
 40
1.0
 10
5.241
 20
-22.9515
 30
0.0
 10
5.4033
 20
-22.7277
 30
0.0
 10
5.5447
 20
-22.4894
 30
0.0
 10
5.6631
 20
-22.2396
 30
0.0
  0
SPLINE
  5
19B
330
1F
100
AcDbEntity
  8
AXIS
 62
   250
100
AcDbSpline
210
0.0
220
0.0
230
1.0
 70
     8
 71
     3
 72
     8
 73
     4
 74
     0
 42
0.0000000001
 43
0.0000000001
 40
0.0
 40
0.0
 40
0.0
 40
0.0
 40
1.0
 40
1.0
 40
1.0
 40
1.0
 10
5.8396
 20
-21.8119
 30
0.0
 10
5.9857
 20
-21.3988
 30
0.0
 10
6.0705
 20
-20.9665
 30
0.0
 10
6.0914
 20
-20.5288
 30
0.0
  0
SPLINE
  5
19C
330
1F
100
AcDbEntity
  8
AXIS
 62
   250
100
AcDbSpline
210
0.0
220
0.0
230
1.0
 70
     8
 71
     3
 72
     8
 73
     4
 74
     0
 42
0.0000000001
 43
0.0000000001
 40
0.0
 40
0.0
 40
0.0
 40
0.0
 40
1.0
 40
1.0
 40
1.0
 40
1.0
 10
6.0914
 20
-20.101
 30
0.0
 10
6.0705
 20
-19.6634
 30
0.0
 10
5.9857
 20
-19.2311
 30
0.0
 10
5.8396
 20
-18.8179
 30
0.0
  0
SPLINE
  5
19D
330
1F
100
AcDbEntity
  8
AXIS
 62
   250
100
AcDbSpline
210
0.0
220
0.0
230
1.0
 70
     8
 71
     3
 72
     8
 73
     4
 74
     0
 42
0.0000000001
 43
0.0000000001
 40
0.0
 40
0.0
 40
0.0
 40
0.0
 40
1.0
 40
1.0
 40
1.0
 40
1.0
 10
5.6631
 20
-18.3902
 30
0.0
 10
5.5447
 20
-18.1404
 30
0.0
 10
5.4033
 20
-17.9021
 30
0.0
 10
5.241
 20
-17.6783
 30
0.0
  0
SPLINE
  5
19E
330
1F
100
AcDbEntity
  8
AXIS
 62
   250
100
AcDbSpline
210
0.0
220
0.0
230
1.0
 70
     8
 71
     3
 72
     8
 73
     4
 74
     0
 42
0.0000000001
 43
0.0000000001
 40
0.0
 40
0.0
 40
0.0
 40
0.0
 40
1.0
 40
1.0
 40
1.0
 40
1.0
 10
3.5302
 20
-24.3725
 30
0.0
 10
3.78
 20
-24.2541
 30
0.0
 10
4.0183
 20
-24.1127
 30
0.0
 10
4.2421
 20
-23.9504
 30
0.0
  0
SPLINE
  5
19F
330
1F
100
AcDbEntity
  8
AXIS
 62
   250
100
AcDbSpline
210
0.0
220
0.0
230
1.0
 70
     8
 71
     3
 72
     8
 73
     4
 74
     0
 42
0.0000000001
 43
0.0000000001
 40
0.0
 40
0.0
 40
0.0
 40
0.0
 40
1.0
 40
1.0
 40
1.0
 40
1.0
 10
4.2421
 20
-16.6794
 30
0.0
 10
4.0183
 20
-16.5171
 30
0.0
 10
3.78
 20
-16.3758
 30
0.0
 10
3.5302
 20
-16.2573
 30
0.0
  0
SPLINE
  5
1A0
330
1F
100
AcDbEntity
  8
AXIS
 62
   250
100
AcDbSpline
210
0.0
220
0.0
230
1.0
 70
     8
 71
     3
 72
     8
 73
     4
 74
     0
 42
0.0000000001
 43
0.0000000001
 40
0.0
 40
0.0
 40
0.0
 40
0.0
 40
1.0
 40
1.0
 40
1.0
 40
1.0
 10
1.8193
 20
-24.8008
 30
0.0
 10
2.2571
 20
-24.7799
 30
0.0
 10
2.6894
 20
-24.6951
 30
0.0
 10
3.1025
 20
-24.549
 30
0.0
  0
SPLINE
  5
1A1
330
1F
100
AcDbEntity
  8
AXIS
 62
   250
100
AcDbSpline
210
0.0
220
0.0
230
1.0
 70
     8
 71
     3
 72
     8
 73
     4
 74
     0
 42
0.0000000001
 43
0.0000000001
 40
0.0
 40
0.0
 40
0.0
 40
0.0
 40
1.0
 40
1.0
 40
1.0
 40
1.0
 10
3.1025
 20
-16.0808
 30
0.0
 10
2.6894
 20
-15.9347
 30
0.0
 10
2.2571
 20
-15.8499
 30
0.0
 10
1.8193
 20
-15.829
 30
0.0
  0
SPLINE
  5
1A2
330
1F
100
AcDbEntity
  8
AXIS
 62
   250
100
AcDbSpline
210
0.0
220
0.0
230
1.0
 70
     8
 71
     3
 72
     8
 73
     4
 74
     0
 42
0.0000000001
 43
0.0000000001
 40
0.0
 40
0.0
 40
0.0
 40
0.0
 40
1.0
 40
1.0
 40
1.0
 40
1.0
 10
0.1085
 20
-24.549
 30
0.0
 10
0.5217
 20
-24.6951
 30
0.0
 10
0.954
 20
-24.7799
 30
0.0
 10
1.3916
 20
-24.8008
 30
0.0
  0
SPLINE
  5
1A3
330
1F
100
AcDbEntity
  8
AXIS
 62
   250
100
AcDbSpline
210
0.0
220
0.0
230
1.0
 70
     8
 71
     3
 72
     8
 73
     4
 74
     0
 42
0.0000000001
 43
0.0000000001
 40
0.0
 40
0.0
 40
0.0
 40
0.0
 40
1.0
 40
1.0
 40
1.0
 40
1.0
 10
1.3916
 20
-15.829
 30
0.0
 10
0.954
 20
-15.8499
 30
0.0
 10
0.5217
 20
-15.9347
 30
0.0
 10
0.1085
 20
-16.0808
 30
0.0
  0
SPLINE
  5
1A4
330
1F
100
AcDbEntity
  8
AXIS
 62
   250
100
AcDbSpline
210
0.0
220
0.0
230
1.0
 70
     8
 71
     3
 72
     8
 73
     4
 74
     0
 42
0.0000000001
 43
0.0000000001
 40
0.0
 40
0.0
 40
0.0
 40
0.0
 40
1.0
 40
1.0
 40
1.0
 40
1.0
 10
-1.0311
 20
-23.9504
 30
0.0
 10
-0.8073
 20
-24.1127
 30
0.0
 10
-0.5689
 20
-24.2541
 30
0.0
 10
-0.3192
 20
-24.3725
 30
0.0
  0
SPLINE
  5
1A5
330
1F
100
AcDbEntity
  8
AXIS
 62
   250
100
AcDbSpline
210
0.0
220
0.0
230
1.0
 70
     8
 71
     3
 72
     8
 73
     4
 74
     0
 42
0.0000000001
 43
0.0000000001
 40
0.0
 40
0.0
 40
0.0
 40
0.0
 40
1.0
 40
1.0
 40
1.0
 40
1.0
 10
-0.3192
 20
-16.2573
 30
0.0
 10
-0.5689
 20
-16.3758
 30
0.0
 10
-0.8073
 20
-16.5171
 30
0.0
 10
-1.0311
 20
-16.6794
 30
0.0
  0
SPLINE
  5
1A6
330
1F
100
AcDbEntity
  8
AXIS
 62
   250
100
AcDbSpline
210
0.0
220
0.0
230
1.0
 70
     8
 71
     3
 72
     8
 73
     4
 74
     0
 42
0.0000000001
 43
0.0000000001
 40
0.0
 40
0.0
 40
0.0
 40
0.0
 40
1.0
 40
1.0
 40
1.0
 40
1.0
 10
-2.4521
 20
-22.2396
 30
0.0
 10
-2.3336
 20
-22.4894
 30
0.0
 10
-2.1923
 20
-22.7277
 30
0.0
 10
-2.03
 20
-22.9515
 30
0.0
  0
SPLINE
  5
1A7
330
1F
100
AcDbEntity
  8
AXIS
 62
   250
100
AcDbSpline
210
0.0
220
0.0
230
1.0
 70
     8
 71
     3
 72
     8
 73
     4
 74
     0
 42
0.0000000001
 43
0.0000000001
 40
0.0
 40
0.0
 40
0.0
 40
0.0
 40
1.0
 40
1.0
 40
1.0
 40
1.0
 10
-2.8803
 20
-20.5288
 30
0.0
 10
-2.8595
 20
-20.9665
 30
0.0
 10
-2.7747
 20
-21.3988
 30
0.0
 10
-2.6286
 20
-21.8119
 30
0.0
  0
SPLINE
  5
1A8
330
1F
100
AcDbEntity
  8
AXIS
 62
   250
100
AcDbSpline
210
0.0
220
0.0
230
1.0
 70
     8
 71
     3
 72
     8
 73
     4
 74
     0
 42
0.0000000001
 43
0.0000000001
 40
0.0
 40
0.0
 40
0.0
 40
0.0
 40
1.0
 40
1.0
 40
1.0
 40
1.0
 10
-2.6286
 20
-18.8179
 30
0.0
 10
-2.7747
 20
-19.2311
 30
0.0
 10
-2.8595
 20
-19.6634
 30
0.0
 10
-2.8803
 20
-20.101
 30
0.0
  0
SPLINE
  5
1A9
330
1F
100
AcDbEntity
  8
AXIS
 62
   250
100
AcDbSpline
210
0.0
220
0.0
230
1.0
 70
     8
 71
     3
 72
     8
 73
     4
 74
     0
 42
0.0000000001
 43
0.0000000001
 40
0.0
 40
0.0
 40
0.0
 40
0.0
 40
1.0
 40
1.0
 40
1.0
 40
1.0
 10
-2.03
 20
-17.6783
 30
0.0
 10
-2.1923
 20
-17.9021
 30
0.0
 10
-2.3336
 20
-18.1404
 30
0.0
 10
-2.4521
 20
-18.3902
 30
0.0
  0
SPLINE
  5
1AA
330
1F
100
AcDbEntity
  8
AXIS
 62
   250
100
AcDbSpline
210
0.0
220
0.0
230
1.0
 70
     8
 71
     3
 72
    48
 73
    44
 74
     0
 42
0.0000000001
 43
0.0000000001
 40
0.0
 40
0.0
 40
0.0
 40
0.0
 40
0.0833333333333333
 40
0.0833333333333333
 40
0.0833333333333333
 40
0.0833333333333333
 40
0.1666666666666667
 40
0.1666666666666667
 40
0.1666666666666667
 40
0.1666666666666667
 40
0.25
 40
0.25
 40
0.25
 40
0.25
 40
0.3333333333333333
 40
0.3333333333333333
 40
0.3333333333333333
 40
0.3333333333333333
 40
0.4166666666666667
 40
0.4166666666666667
 40
0.4166666666666667
 40
0.4166666666666667
 40
0.5
 40
0.5
 40
0.5
 40
0.5
 40
0.5833333333333334
 40
0.5833333333333334
 40
0.5833333333333334
 40
0.5833333333333334
 40
0.6666666666666666
 40
0.6666666666666666
 40
0.6666666666666666
 40
0.6666666666666666
 40
0.75
 40
0.75
 40
0.75
 40
0.75
 40
0.8333333333333334
 40
0.8333333333333334
 40
0.8333333333333334
 40
0.8333333333333334
 40
1.0
 40
1.0
 40
1.0
 40
1.0
 10
11.1572
 20
16.8398
 30
0.0
 10
11.1572
 20
16.8398
 30
0.0
 10
11.1287
 20
16.7921
 30
0.0
 10
11.1287
 20
16.7921
 30
0.0
 10
11.1287
 20
16.7921
 30
0.0
 10
11.1287
 20
16.7921
 30
0.0
 10
11.0795
 20
16.7163
 30
0.0
 10
11.0795
 20
16.7163
 30
0.0
 10
11.0795
 20
16.7163
 30
0.0
 10
11.0795
 20
16.7163
 30
0.0
 10
11.0052
 20
16.6149
 30
0.0
 10
11.0052
 20
16.6149
 30
0.0
 10
11.0052
 20
16.6149
 30
0.0
 10
11.0052
 20
16.6149
 30
0.0
 10
10.9
 20
16.4901
 30
0.0
 10
10.9
 20
16.4901
 30
0.0
 10
10.9
 20
16.4901
 30
0.0
 10
10.9
 20
16.4901
 30
0.0
 10
10.7555
 20
16.3453
 30
0.0
 10
10.7555
 20
16.3453
 30
0.0
 10
10.7555
 20
16.3453
 30
0.0
 10
10.7555
 20
16.3453
 30
0.0
 10
10.5675
 20
16.1906
 30
0.0
 10
10.5675
 20
16.1906
 30
0.0
 10
10.5675
 20
16.1906
 30
0.0
 10
10.5675
 20
16.1906
 30
0.0
 10
10.3525
 20
16.0497
 30
0.0
 10
10.3525
 20
16.0497
 30
0.0
 10
10.3525
 20
16.0497
 30
0.0
 10
10.3525
 20
16.0497
 30
0.0
 10
10.128
 20
15.9369
 30
0.0
 10
10.128
 20
15.9369
 30
0.0
 10
10.128
 20
15.9369
 30
0.0
 10
10.128
 20
15.9369
 30
0.0
 10
9.9054
 20
15.8562
 30
0.0
 10
9.9054
 20
15.8562
 30
0.0
 10
9.9054
 20
15.8562
 30
0.0
 10
9.9054
 20
15.8562
 30
0.0
 10
9.684
 20
15.8063
 30
0.0
 10
9.684
 20
15.8063
 30
0.0
 10
9.684
 20
15.8063
 30
0.0
 10
9.684
 20
15.8063
 30
0.0
 10
9.4694
 20
15.7892
 30
0.0
 10
9.4694
 20
15.7892
 30
0.0
  0
SPLINE
  5
1AB
330
1F
100
AcDbEntity
  8
AXIS
 62
   250
100
AcDbSpline
210
0.0
220
0.0
230
1.0
 70
     8
 71
     3
 72
    12
 73
     8
 74
     0
 42
0.0000000001
 43
0.0000000001
 40
0.0
 40
0.0
 40
0.0
 40
0.0
 40
0.3333333333333333
 40
0.3333333333333333
 40
0.3333333333333333
 40
0.3333333333333333
 40
1.0
 40
1.0
 40
1.0
 40
1.0
 10
11.1679
 20
16.8584
 30
0.0
 10
11.1679
 20
16.8584
 30
0.0
 10
11.1652
 20
16.8538
 30
0.0
 10
11.1652
 20
16.8538
 30
0.0
 10
11.1652
 20
16.8538
 30
0.0
 10
11.1652
 20
16.8538
 30
0.0
 10
11.1572
 20
16.8398
 30
0.0
 10
11.1572
 20
16.8398
 30
0.0
  0
SPLINE
  5
1AC
330
1F
100
AcDbEntity
  8
AXIS
 62
   250
100
AcDbSpline
210
0.0
220
0.0
230
1.0
 70
    11
 71
     3
 72
    84
 73
    80
 74
     0
 42
0.0000000001
 43
0.0000000001
 40
0.0
 40
0.0
 40
0.0
 40
0.0
 40
0.0476190476190476
 40
0.0476190476190476
 40
0.0476190476190476
 40
0.0476190476190476
 40
0.0952380952380952
 40
0.0952380952380952
 40
0.0952380952380952
 40
0.0952380952380952
 40
0.1428571428571428
 40
0.1428571428571428
 40
0.1428571428571428
 40
0.1428571428571428
 40
0.1904761904761905
 40
0.1904761904761905
 40
0.1904761904761905
 40
0.1904761904761905
 40
0.2380952380952381
 40
0.2380952380952381
 40
0.2380952380952381
 40
0.2380952380952381
 40
0.2857142857142857
 40
0.2857142857142857
 40
0.2857142857142857
 40
0.2857142857142857
 40
0.3333333333333333
 40
0.3333333333333333
 40
0.3333333333333333
 40
0.3333333333333333
 40
0.3809523809523809
 40
0.3809523809523809
 40
0.3809523809523809
 40
0.3809523809523809
 40
0.4285714285714285
 40
0.4285714285714285
 40
0.4285714285714285
 40
0.4285714285714285
 40
0.4761904761904762
 40
0.4761904761904762
 40
0.4761904761904762
 40
0.4761904761904762
 40
0.5238095238095238
 40
0.5238095238095238
 40
0.5238095238095238
 40
0.5238095238095238
 40
0.5714285714285714
 40
0.5714285714285714
 40
0.5714285714285714
 40
0.5714285714285714
 40
0.6190476190476191
 40
0.6190476190476191
 40
0.6190476190476191
 40
0.6190476190476191
 40
0.6666666666666666
 40
0.6666666666666666
 40
0.6666666666666666
 40
0.6666666666666666
 40
0.7142857142857143
 40
0.7142857142857143
 40
0.7142857142857143
 40
0.7142857142857143
 40
0.7619047619047619
 40
0.7619047619047619
 40
0.7619047619047619
 40
0.7619047619047619
 40
0.8095238095238095
 40
0.8095238095238095
 40
0.8095238095238095
 40
0.8095238095238095
 40
0.8571428571428571
 40
0.8571428571428571
 40
0.8571428571428571
 40
0.8571428571428571
 40
0.9047619047619048
 40
0.9047619047619048
 40
0.9047619047619048
 40
0.9047619047619048
 40
1.0
 40
1.0
 40
1.0
 40
1.0
 10
0.2929
 20
36.1766
 30
0.0
 10
0.2929
 20
36.1766
 30
0.0
 10
0.5243
 20
36.4357
 30
0.0
 10
0.5243
 20
36.4357
 30
0.0
 10
0.5243
 20
36.4357
 30
0.0
 10
0.5243
 20
36.4357
 30
0.0
 10
0.6607
 20
36.32
 30
0.0
 10
0.6607
 20
36.32
 30
0.0
 10
0.6607
 20
36.32
 30
0.0
 10
0.6607
 20
36.32
 30
0.0
 10
0.4185
 20
36.0472
 30
0.0
 10
0.4185
 20
36.0472
 30
0.0
 10
0.4185
 20
36.0472
 30
0.0
 10
0.4975
 20
35.9296
 30
0.0
 10
0.5506
 20
35.8266
 30
0.0
 10
0.5784
 20
35.7387
 30
0.0
 10
0.5784
 20
35.7387
 30
0.0
 10
0.6151
 20
35.6229
 30
0.0
 10
0.6334
 20
35.4931
 30
0.0
 10
0.6334
 20
35.3501
 30
0.0
 10
0.6334
 20
35.3501
 30
0.0
 10
0.6334
 20
35.1432
 30
0.0
 10
0.5916
 20
34.9588
 30
0.0
 10
0.5078
 20
34.7975
 30
0.0
 10
0.5078
 20
34.7975
 30
0.0
 10
0.4241
 20
34.6356
 30
0.0
 10
0.307
 20
34.5134
 30
0.0
 10
0.156
 20
34.4306
 30
0.0
 10
0.156
 20
34.4306
 30
0.0
 10
0.0045
 20
34.3483
 30
0.0
 10
-0.1558
 20
34.3069
 30
0.0
 10
-0.3256
 20
34.3069
 30
0.0
 10
-0.3256
 20
34.3069
 30
0.0
 10
-0.4526
 20
34.3069
 30
0.0
 10
-0.5674
 20
34.3247
 30
0.0
 10
-0.6704
 20
34.3605
 30
0.0
 10
-0.6704
 20
34.3605
 30
0.0
 10
-0.7494
 20
34.3882
 30
0.0
 10
-0.8416
 20
34.4409
 30
0.0
 10
-0.9475
 20
34.519
 30
0.0
 10
-0.9475
 20
34.519
 30
0.0
 10
-0.9475
 20
34.519
 30
0.0
 10
-1.1789
 20
34.2598
 30
0.0
 10
-1.1789
 20
34.2598
 30
0.0
 10
-1.1789
 20
34.2598
 30
0.0
 10
-1.1789
 20
34.2598
 30
0.0
 10
-1.3153
 20
34.3755
 30
0.0
 10
-1.3153
 20
34.3755
 30
0.0
 10
-1.3153
 20
34.3755
 30
0.0
 10
-1.3153
 20
34.3755
 30
0.0
 10
-1.0726
 20
34.6469
 30
0.0
 10
-1.0726
 20
34.6469
 30
0.0
 10
-1.0726
 20
34.6469
 30
0.0
 10
-1.1629
 20
34.7838
 30
0.0
 10
-1.2231
 20
34.9009
 30
0.0
 10
-1.2532
 20
34.9978
 30
0.0
 10
-1.2532
 20
34.9978
 30
0.0
 10
-1.2833
 20
35.0947
 30
0.0
 10
-1.2988
 20
35.2114
 30
0.0
 10
-1.2988
 20
35.3473
 30
0.0
 10
-1.2988
 20
35.3473
 30
0.0
 10
-1.2988
 20
35.5547
 30
0.0
 10
-1.2574
 20
35.7396
 30
0.0
 10
-1.1747
 20
35.9019
 30
0.0
 10
-1.1747
 20
35.9019
 30
0.0
 10
-1.0919
 20
36.0642
 30
0.0
 10
-0.9762
 20
36.1869
 30
0.0
 10
-0.8266
 20
36.2706
 30
0.0
 10
-0.8266
 20
36.2706
 30
0.0
 10
-0.6775
 20
36.3539
 30
0.0
 10
-0.5114
 20
36.3958
 30
0.0
 10
-0.3285
 20
36.3958
 30
0.0
 10
-0.3285
 20
36.3958
 30
0.0
 10
-0.2052
 20
36.3958
 30
0.0
 10
-0.0975
 20
36.3798
 30
0.0
 10
-0.0053
 20
36.3468
 30
0.0
 10
-0.0053
 20
36.3468
 30
0.0
 10
0.0869
 20
36.3144
 30
0.0
 10
0.1866
 20
36.2575
 30
0.0
 10
0.2929
 20
36.1766
 30
0.0
  0
SPLINE
  5
1AD
330
1F
100
AcDbEntity
  8
AXIS
 62
   250
100
AcDbSpline
210
0.0
220
0.0
230
1.0
 70
    11
 71
     3
 72
    32
 73
    28
 74
     0
 42
0.0000000001
 43
0.0000000001
 40
0.0
 40
0.0
 40
0.0
 40
0.0
 40
0.125
 40
0.125
 40
0.125
 40
0.125
 40
0.25
 40
0.25
 40
0.25
 40
0.25
 40
0.375
 40
0.375
 40
0.375
 40
0.375
 40
0.5
 40
0.5
 40
0.5
 40
0.5
 40
0.625
 40
0.625
 40
0.625
 40
0.625
 40
0.75
 40
0.75
 40
0.75
 40
0.75
 40
1.0
 40
1.0
 40
1.0
 40
1.0
 10
0.1278
 20
35.9908
 30
0.0
 10
0.0412
 20
36.0585
 30
0.0
 10
-0.0345
 20
36.1051
 30
0.0
 10
-0.0989
 20
36.13
 30
0.0
 10
-0.0989
 20
36.13
 30
0.0
 10
-0.1638
 20
36.1545
 30
0.0
 10
-0.24
 20
36.1672
 30
0.0
 10
-0.3271
 20
36.1672
 30
0.0
 10
-0.3271
 20
36.1672
 30
0.0
 10
-0.5284
 20
36.1672
 30
0.0
 10
-0.6944
 20
36.099
 30
0.0
 10
-0.8261
 20
35.9626
 30
0.0
 10
-0.8261
 20
35.9626
 30
0.0
 10
-0.9574
 20
35.8261
 30
0.0
 10
-1.0232
 20
35.6225
 30
0.0
 10
-1.0232
 20
35.3511
 30
0.0
 10
-1.0232
 20
35.3511
 30
0.0
 10
-1.0232
 20
35.2448
 30
0.0
 10
-1.0129
 20
35.1502
 30
0.0
 10
-0.9926
 20
35.0674
 30
0.0
 10
-0.9926
 20
35.0674
 30
0.0
 10
-0.978
 20
35.0058
 30
0.0
 10
-0.9475
 20
34.9301
 30
0.0
 10
-0.9004
 20
34.8403
 30
0.0
 10
-0.9004
 20
34.8403
 30
0.0
 10
-0.9004
 20
34.8403
 30
0.0
 10
0.1278
 20
35.9908
 30
0.0
 10
0.1278
 20
35.9908
 30
0.0
  0
SPLINE
  5
1AE
330
1F
100
AcDbEntity
  8
AXIS
 62
   250
100
AcDbSpline
210
0.0
220
0.0
230
1.0
 70
    11
 71
     3
 72
    28
 73
    24
 74
     0
 42
0.0000000001
 43
0.0000000001
 40
0.0
 40
0.0
 40
0.0
 40
0.0
 40
0.1428571428571428
 40
0.1428571428571428
 40
0.1428571428571428
 40
0.1428571428571428
 40
0.2857142857142857
 40
0.2857142857142857
 40
0.2857142857142857
 40
0.2857142857142857
 40
0.4285714285714285
 40
0.4285714285714285
 40
0.4285714285714285
 40
0.4285714285714285
 40
0.5714285714285714
 40
0.5714285714285714
 40
0.5714285714285714
 40
0.5714285714285714
 40
0.7142857142857143
 40
0.7142857142857143
 40
0.7142857142857143
 40
0.7142857142857143
 40
1.0
 40
1.0
 40
1.0
 40
1.0
 10
0.2407
 20
35.8487
 30
0.0
 10
0.2407
 20
35.8487
 30
0.0
 10
-0.7833
 20
34.7024
 30
0.0
 10
-0.7833
 20
34.7024
 30
0.0
 10
-0.7833
 20
34.7024
 30
0.0
 10
-0.7128
 20
34.6446
 30
0.0
 10
-0.6474
 20
34.6041
 30
0.0
 10
-0.5876
 20
34.5811
 30
0.0
 10
-0.5876
 20
34.5811
 30
0.0
 10
-0.5096
 20
34.5505
 30
0.0
 10
-0.4249
 20
34.5355
 30
0.0
 10
-0.3341
 20
34.5355
 30
0.0
 10
-0.3341
 20
34.5355
 30
0.0
 10
-0.1337
 20
34.5355
 30
0.0
 10
0.0314
 20
34.606
 30
0.0
 10
0.1621
 20
34.7476
 30
0.0
 10
0.1621
 20
34.7476
 30
0.0
 10
0.2924
 20
34.8892
 30
0.0
 10
0.3578
 20
35.0877
 30
0.0
 10
0.3578
 20
35.3431
 30
0.0
 10
0.3578
 20
35.3431
 30
0.0
 10
0.3578
 20
35.534
 30
0.0
 10
0.3188
 20
35.7029
 30
0.0
 10
0.2407
 20
35.8487
 30
0.0
  0
SPLINE
  5
1AF
330
1F
100
AcDbEntity
  8
AXIS
 62
   250
100
AcDbSpline
210
0.0
220
0.0
230
1.0
 70
    11
 71
     3
 72
    92
 73
    88
 74
     0
 42
0.0000000001
 43
0.0000000001
 40
0.0
 40
0.0
 40
0.0
 40
0.0
 40
0.0434782608695652
 40
0.0434782608695652
 40
0.0434782608695652
 40
0.0434782608695652
 40
0.0869565217391304
 40
0.0869565217391304
 40
0.0869565217391304
 40
0.0869565217391304
 40
0.1304347826086956
 40
0.1304347826086956
 40
0.1304347826086956
 40
0.1304347826086956
 40
0.1739130434782609
 40
0.1739130434782609
 40
0.1739130434782609
 40
0.1739130434782609
 40
0.2173913043478261
 40
0.2173913043478261
 40
0.2173913043478261
 40
0.2173913043478261
 40
0.2608695652173913
 40
0.2608695652173913
 40
0.2608695652173913
 40
0.2608695652173913
 40
0.3043478260869565
 40
0.3043478260869565
 40
0.3043478260869565
 40
0.3043478260869565
 40
0.3478260869565217
 40
0.3478260869565217
 40
0.3478260869565217
 40
0.3478260869565217
 40
0.391304347826087
 40
0.391304347826087
 40
0.391304347826087
 40
0.391304347826087
 40
0.4347826086956522
 40
0.4347826086956522
 40
0.4347826086956522
 40
0.4347826086956522
 40
0.4782608695652174
 40
0.4782608695652174
 40
0.4782608695652174
 40
0.4782608695652174
 40
0.5217391304347826
 40
0.5217391304347826
 40
0.5217391304347826
 40
0.5217391304347826
 40
0.5652173913043478
 40
0.5652173913043478
 40
0.5652173913043478
 40
0.5652173913043478
 40
0.6086956521739131
 40
0.6086956521739131
 40
0.6086956521739131
 40
0.6086956521739131
 40
0.6521739130434783
 40
0.6521739130434783
 40
0.6521739130434783
 40
0.6521739130434783
 40
0.6956521739130435
 40
0.6956521739130435
 40
0.6956521739130435
 40
0.6956521739130435
 40
0.7391304347826086
 40
0.7391304347826086
 40
0.7391304347826086
 40
0.7391304347826086
 40
0.782608695652174
 40
0.782608695652174
 40
0.782608695652174
 40
0.782608695652174
 40
0.8260869565217391
 40
0.8260869565217391
 40
0.8260869565217391
 40
0.8260869565217391
 40
0.8695652173913043
 40
0.8695652173913043
 40
0.8695652173913043
 40
0.8695652173913043
 40
0.9130434782608695
 40
0.9130434782608695
 40
0.9130434782608695
 40
0.9130434782608695
 40
1.0
 40
1.0
 40
1.0
 40
1.0
 10
0.9199
 20
34.8083
 30
0.0
 10
0.9199
 20
34.8083
 30
0.0
 10
1.1584
 20
34.8304
 30
0.0
 10
1.1584
 20
34.8304
 30
0.0
 10
1.1584
 20
34.8304
 30
0.0
 10
1.1786
 20
34.7184
 30
0.0
 10
1.2172
 20
34.6371
 30
0.0
 10
1.2741
 20
34.5863
 30
0.0
 10
1.2741
 20
34.5863
 30
0.0
 10
1.331
 20
34.5359
 30
0.0
 10
1.4039
 20
34.5105
 30
0.0
 10
1.4933
 20
34.5105
 30
0.0
 10
1.4933
 20
34.5105
 30
0.0
 10
1.5695
 20
34.5105
 30
0.0
 10
1.6362
 20
34.5279
 30
0.0
 10
1.6936
 20
34.5632
 30
0.0
 10
1.6936
 20
34.5632
 30
0.0
 10
1.751
 20
34.598
 30
0.0
 10
1.7981
 20
34.6446
 30
0.0
 10
1.8347
 20
34.7029
 30
0.0
 10
1.8347
 20
34.7029
 30
0.0
 10
1.8719
 20
34.7612
 30
0.0
 10
1.9025
 20
34.8403
 30
0.0
 10
1.9274
 20
34.939
 30
0.0
 10
1.9274
 20
34.939
 30
0.0
 10
1.9519
 20
35.0383
 30
0.0
 10
1.9646
 20
35.1394
 30
0.0
 10
1.9646
 20
35.2424
 30
0.0
 10
1.9646
 20
35.2424
 30
0.0
 10
1.9646
 20
35.2532
 30
0.0
 10
1.9641
 20
35.2702
 30
0.0
 10
1.9632
 20
35.2918
 30
0.0
 10
1.9632
 20
35.2918
 30
0.0
 10
1.9133
 20
35.2133
 30
0.0
 10
1.8456
 20
35.1488
 30
0.0
 10
1.76
 20
35.0999
 30
0.0
 10
1.76
 20
35.0999
 30
0.0
 10
1.6739
 20
35.0505
 30
0.0
 10
1.5807
 20
35.0261
 30
0.0
 10
1.481
 20
35.0261
 30
0.0
 10
1.481
 20
35.0261
 30
0.0
 10
1.3136
 20
35.0261
 30
0.0
 10
1.172
 20
35.0867
 30
0.0
 10
1.0563
 20
35.2081
 30
0.0
 10
1.0563
 20
35.2081
 30
0.0
 10
0.9406
 20
35.3294
 30
0.0
 10
0.8827
 20
35.4889
 30
0.0
 10
0.8827
 20
35.6874
 30
0.0
 10
0.8827
 20
35.6874
 30
0.0
 10
0.8827
 20
35.8925
 30
0.0
 10
0.9429
 20
36.0571
 30
0.0
 10
1.0638
 20
36.1822
 30
0.0
 10
1.0638
 20
36.1822
 30
0.0
 10
1.1847
 20
36.3073
 30
0.0
 10
1.3362
 20
36.3699
 30
0.0
 10
1.5182
 20
36.3699
 30
0.0
 10
1.5182
 20
36.3699
 30
0.0
 10
1.6494
 20
36.3699
 30
0.0
 10
1.7694
 20
36.3341
 30
0.0
 10
1.8785
 20
36.2636
 30
0.0
 10
1.8785
 20
36.2636
 30
0.0
 10
1.9871
 20
36.193
 30
0.0
 10
2.0699
 20
36.0919
 30
0.0
 10
2.1264
 20
35.9611
 30
0.0
 10
2.1264
 20
35.9611
 30
0.0
 10
2.1828
 20
35.8304
 30
0.0
 10
2.211
 20
35.6408
 30
0.0
 10
2.211
 20
35.3925
 30
0.0
 10
2.211
 20
35.3925
 30
0.0
 10
2.211
 20
35.1347
 30
0.0
 10
2.1833
 20
34.9292
 30
0.0
 10
2.1273
 20
34.7758
 30
0.0
 10
2.1273
 20
34.7758
 30
0.0
 10
2.0709
 20
34.6229
 30
0.0
 10
1.9876
 20
34.5068
 30
0.0
 10
1.8771
 20
34.4268
 30
0.0
 10
1.8771
 20
34.4268
 30
0.0
 10
1.7661
 20
34.3468
 30
0.0
 10
1.6367
 20
34.3069
 30
0.0
 10
1.4876
 20
34.3069
 30
0.0
 10
1.4876
 20
34.3069
 30
0.0
 10
1.3296
 20
34.3069
 30
0.0
 10
1.2007
 20
34.3506
 30
0.0
 10
1.1005
 20
34.4386
 30
0.0
 10
1.1005
 20
34.4386
 30
0.0
 10
1.0003
 20
34.5261
 30
0.0
 10
0.9401
 20
34.6493
 30
0.0
 10
0.9199
 20
34.8083
 30
0.0
  0
SPLINE
  5
1B0
330
1F
100
AcDbEntity
  8
AXIS
 62
   250
100
AcDbSpline
210
0.0
220
0.0
230
1.0
 70
    11
 71
     3
 72
    36
 73
    32
 74
     0
 42
0.0000000001
 43
0.0000000001
 40
0.0
 40
0.0
 40
0.0
 40
0.0
 40
0.1111111111111111
 40
0.1111111111111111
 40
0.1111111111111111
 40
0.1111111111111111
 40
0.2222222222222222
 40
0.2222222222222222
 40
0.2222222222222222
 40
0.2222222222222222
 40
0.3333333333333333
 40
0.3333333333333333
 40
0.3333333333333333
 40
0.3333333333333333
 40
0.4444444444444444
 40
0.4444444444444444
 40
0.4444444444444444
 40
0.4444444444444444
 40
0.5555555555555556
 40
0.5555555555555556
 40
0.5555555555555556
 40
0.5555555555555556
 40
0.6666666666666666
 40
0.6666666666666666
 40
0.6666666666666666
 40
0.6666666666666666
 40
0.7777777777777778
 40
0.7777777777777778
 40
0.7777777777777778
 40
0.7777777777777778
 40
1.0
 40
1.0
 40
1.0
 40
1.0
 10
1.9354
 20
35.7001
 30
0.0
 10
1.9354
 20
35.8421
 30
0.0
 10
1.8978
 20
35.9555
 30
0.0
 10
1.822
 20
36.0388
 30
0.0
 10
1.822
 20
36.0388
 30
0.0
 10
1.7458
 20
36.1225
 30
0.0
 10
1.6551
 20
36.1643
 30
0.0
 10
1.5483
 20
36.1643
 30
0.0
 10
1.5483
 20
36.1643
 30
0.0
 10
1.4382
 20
36.1643
 30
0.0
 10
1.3423
 20
36.1192
 30
0.0
 10
1.2604
 20
36.0293
 30
0.0
 10
1.2604
 20
36.0293
 30
0.0
 10
1.1786
 20
35.939
 30
0.0
 10
1.1377
 20
35.8224
 30
0.0
 10
1.1377
 20
35.6794
 30
0.0
 10
1.1377
 20
35.6794
 30
0.0
 10
1.1377
 20
35.5505
 30
0.0
 10
1.1767
 20
35.4461
 30
0.0
 10
1.2543
 20
35.3657
 30
0.0
 10
1.2543
 20
35.3657
 30
0.0
 10
1.3319
 20
35.2852
 30
0.0
 10
1.4274
 20
35.2452
 30
0.0
 10
1.5412
 20
35.2452
 30
0.0
 10
1.5412
 20
35.2452
 30
0.0
 10
1.6565
 20
35.2452
 30
0.0
 10
1.7505
 20
35.2852
 30
0.0
 10
1.8244
 20
35.3657
 30
0.0
 10
1.8244
 20
35.3657
 30
0.0
 10
1.8987
 20
35.4461
 30
0.0
 10
1.9354
 20
35.5576
 30
0.0
 10
1.9354
 20
35.7001
 30
0.0
  0
SPLINE
  5
1B1
330
1F
100
AcDbEntity
  8
AXIS
 62
   250
100
AcDbSpline
210
0.0
220
0.0
230
1.0
 70
    11
 71
     3
 72
   124
 73
   120
 74
     0
 42
0.0000000001
 43
0.0000000001
 40
0.0
 40
0.0
 40
0.0
 40
0.0
 40
0.032258064516129
 40
0.032258064516129
 40
0.032258064516129
 40
0.032258064516129
 40
0.0645161290322581
 40
0.0645161290322581
 40
0.0645161290322581
 40
0.0645161290322581
 40
0.0967741935483871
 40
0.0967741935483871
 40
0.0967741935483871
 40
0.0967741935483871
 40
0.1290322580645161
 40
0.1290322580645161
 40
0.1290322580645161
 40
0.1290322580645161
 40
0.1612903225806452
 40
0.1612903225806452
 40
0.1612903225806452
 40
0.1612903225806452
 40
0.1935483870967742
 40
0.1935483870967742
 40
0.1935483870967742
 40
0.1935483870967742
 40
0.2258064516129032
 40
0.2258064516129032
 40
0.2258064516129032
 40
0.2258064516129032
 40
0.2580645161290323
 40
0.2580645161290323
 40
0.2580645161290323
 40
0.2580645161290323
 40
0.2903225806451613
 40
0.2903225806451613
 40
0.2903225806451613
 40
0.2903225806451613
 40
0.3225806451612903
 40
0.3225806451612903
 40
0.3225806451612903
 40
0.3225806451612903
 40
0.3548387096774194
 40
0.3548387096774194
 40
0.3548387096774194
 40
0.3548387096774194
 40
0.3870967741935484
 40
0.3870967741935484
 40
0.3870967741935484
 40
0.3870967741935484
 40
0.4193548387096774
 40
0.4193548387096774
 40
0.4193548387096774
 40
0.4193548387096774
 40
0.4516129032258064
 40
0.4516129032258064
 40
0.4516129032258064
 40
0.4516129032258064
 40
0.4838709677419355
 40
0.4838709677419355
 40
0.4838709677419355
 40
0.4838709677419355
 40
0.5161290322580645
 40
0.5161290322580645
 40
0.5161290322580645
 40
0.5161290322580645
 40
0.5483870967741935
 40
0.5483870967741935
 40
0.5483870967741935
 40
0.5483870967741935
 40
0.5806451612903226
 40
0.5806451612903226
 40
0.5806451612903226
 40
0.5806451612903226
 40
0.6129032258064516
 40
0.6129032258064516
 40
0.6129032258064516
 40
0.6129032258064516
 40
0.6451612903225806
 40
0.6451612903225806
 40
0.6451612903225806
 40
0.6451612903225806
 40
0.6774193548387096
 40
0.6774193548387096
 40
0.6774193548387096
 40
0.6774193548387096
 40
0.7096774193548387
 40
0.7096774193548387
 40
0.7096774193548387
 40
0.7096774193548387
 40
0.7419354838709677
 40
0.7419354838709677
 40
0.7419354838709677
 40
0.7419354838709677
 40
0.7741935483870968
 40
0.7741935483870968
 40
0.7741935483870968
 40
0.7741935483870968
 40
0.8064516129032258
 40
0.8064516129032258
 40
0.8064516129032258
 40
0.8064516129032258
 40
0.8387096774193549
 40
0.8387096774193549
 40
0.8387096774193549
 40
0.8387096774193549
 40
0.8709677419354839
 40
0.8709677419354839
 40
0.8709677419354839
 40
0.8709677419354839
 40
0.9032258064516129
 40
0.9032258064516129
 40
0.9032258064516129
 40
0.9032258064516129
 40
0.9354838709677419
 40
0.9354838709677419
 40
0.9354838709677419
 40
0.9354838709677419
 40
1.0
 40
1.0
 40
1.0
 40
1.0
 10
2.4537
 20
34.8746
 30
0.0
 10
2.4537
 20
34.8746
 30
0.0
 10
2.7016
 20
34.9075
 30
0.0
 10
2.7016
 20
34.9075
 30
0.0
 10
2.7016
 20
34.9075
 30
0.0
 10
2.7303
 20
34.7669
 30
0.0
 10
2.7788
 20
34.6658
 30
0.0
 10
2.847
 20
34.6037
 30
0.0
 10
2.847
 20
34.6037
 30
0.0
 10
2.9156
 20
34.5416
 30
0.0
 10
2.9989
 20
34.5105
 30
0.0
 10
3.0972
 20
34.5105
 30
0.0
 10
3.0972
 20
34.5105
 30
0.0
 10
3.2138
 20
34.5105
 30
0.0
 10
3.3126
 20
34.551
 30
0.0
 10
3.3931
 20
34.6319
 30
0.0
 10
3.3931
 20
34.6319
 30
0.0
 10
3.473
 20
34.7128
 30
0.0
 10
3.5135
 20
34.813
 30
0.0
 10
3.5135
 20
34.9325
 30
0.0
 10
3.5135
 20
34.9325
 30
0.0
 10
3.5135
 20
35.0463
 30
0.0
 10
3.4763
 20
35.1404
 30
0.0
 10
3.402
 20
35.2142
 30
0.0
 10
3.402
 20
35.2142
 30
0.0
 10
3.3272
 20
35.288
 30
0.0
 10
3.2327
 20
35.3252
 30
0.0
 10
3.1179
 20
35.3252
 30
0.0
 10
3.1179
 20
35.3252
 30
0.0
 10
3.0709
 20
35.3252
 30
0.0
 10
3.0125
 20
35.3158
 30
0.0
 10
2.9429
 20
35.2975
 30
0.0
 10
2.9429
 20
35.2975
 30
0.0
 10
2.9429
 20
35.2975
 30
0.0
 10
2.9707
 20
35.5152
 30
0.0
 10
2.9707
 20
35.5152
 30
0.0
 10
2.9707
 20
35.5152
 30
0.0
 10
2.9871
 20
35.5134
 30
0.0
 10
3.0003
 20
35.5124
 30
0.0
 10
3.0106
 20
35.5124
 30
0.0
 10
3.0106
 20
35.5124
 30
0.0
 10
3.116
 20
35.5124
 30
0.0
 10
3.211
 20
35.5402
 30
0.0
 10
3.2957
 20
35.5952
 30
0.0
 10
3.2957
 20
35.5952
 30
0.0
 10
3.3804
 20
35.6502
 30
0.0
 10
3.4227
 20
35.7354
 30
0.0
 10
3.4227
 20
35.8501
 30
0.0
 10
3.4227
 20
35.8501
 30
0.0
 10
3.4227
 20
35.9409
 30
0.0
 10
3.3916
 20
36.0166
 30
0.0
 10
3.33
 20
36.0759
 30
0.0
 10
3.33
 20
36.0759
 30
0.0
 10
3.2684
 20
36.1356
 30
0.0
 10
3.1889
 20
36.1658
 30
0.0
 10
3.0915
 20
36.1658
 30
0.0
 10
3.0915
 20
36.1658
 30
0.0
 10
2.9951
 20
36.1658
 30
0.0
 10
2.9147
 20
36.1352
 30
0.0
 10
2.8507
 20
36.075
 30
0.0
 10
2.8507
 20
36.075
 30
0.0
 10
2.7863
 20
36.0143
 30
0.0
 10
2.7449
 20
35.923
 30
0.0
 10
2.7265
 20
35.8017
 30
0.0
 10
2.7265
 20
35.8017
 30
0.0
 10
2.7265
 20
35.8017
 30
0.0
 10
2.4787
 20
35.8459
 30
0.0
 10
2.4787
 20
35.8459
 30
0.0
 10
2.4787
 20
35.8459
 30
0.0
 10
2.5088
 20
36.0124
 30
0.0
 10
2.5779
 20
36.1413
 30
0.0
 10
2.6852
 20
36.2325
 30
0.0
 10
2.6852
 20
36.2325
 30
0.0
 10
2.7929
 20
36.3238
 30
0.0
 10
2.9265
 20
36.3699
 30
0.0
 10
3.0864
 20
36.3699
 30
0.0
 10
3.0864
 20
36.3699
 30
0.0
 10
3.1964
 20
36.3699
 30
0.0
 10
3.298
 20
36.3459
 30
0.0
 10
3.3907
 20
36.2989
 30
0.0
 10
3.3907
 20
36.2989
 30
0.0
 10
3.4834
 20
36.2514
 30
0.0
 10
3.5544
 20
36.1869
 30
0.0
 10
3.6038
 20
36.1051
 30
0.0
 10
3.6038
 20
36.1051
 30
0.0
 10
3.6527
 20
36.0232
 30
0.0
 10
3.6776
 20
35.9367
 30
0.0
 10
3.6776
 20
35.8445
 30
0.0
 10
3.6776
 20
35.8445
 30
0.0
 10
3.6776
 20
35.7575
 30
0.0
 10
3.6541
 20
35.678
 30
0.0
 10
3.6071
 20
35.606
 30
0.0
 10
3.6071
 20
35.606
 30
0.0
 10
3.56
 20
35.5345
 30
0.0
 10
3.4909
 20
35.4776
 30
0.0
 10
3.3992
 20
35.4353
 30
0.0
 10
3.3992
 20
35.4353
 30
0.0
 10
3.5186
 20
35.408
 30
0.0
 10
3.6113
 20
35.3506
 30
0.0
 10
3.6776
 20
35.2636
 30
0.0
 10
3.6776
 20
35.2636
 30
0.0
 10
3.7435
 20
35.177
 30
0.0
 10
3.7764
 20
35.0684
 30
0.0
 10
3.7764
 20
34.9381
 30
0.0
 10
3.7764
 20
34.9381
 30
0.0
 10
3.7764
 20
34.7617
 30
0.0
 10
3.7124
 20
34.6121
 30
0.0
 10
3.5836
 20
34.4894
 30
0.0
 10
3.5836
 20
34.4894
 30
0.0
 10
3.4551
 20
34.3666
 30
0.0
 10
3.2924
 20
34.3055
 30
0.0
 10
3.0958
 20
34.3055
 30
0.0
 10
3.0958
 20
34.3055
 30
0.0
 10
2.9185
 20
34.3055
 30
0.0
 10
2.7712
 20
34.3581
 30
0.0
 10
2.6541
 20
34.464
 30
0.0
 10
2.6541
 20
34.464
 30
0.0
 10
2.537
 20
34.5693
 30
0.0
 10
2.4702
 20
34.7062
 30
0.0
 10
2.4537
 20
34.8746
 30
0.0
  0
SPLINE
  5
1B2
330
1F
100
AcDbEntity
  8
AXIS
 62
   250
100
AcDbSpline
210
0.0
220
0.0
230
1.0
 70
    24
 71
     3
 72
     8
 73
     4
 74
     0
 42
0.0000000001
 43
0.0000000001
 40
0.0
 40
0.0
 40
0.0
 40
0.0
 40
1.0
 40
1.0
 40
1.0
 40
1.0
 10
10.2681
 20
33.9521
 30
0.0
 10
10.2681
 20
33.9521
 30
0.0
 10
-7.659
 20
33.9521
 30
0.0
 10
-7.659
 20
33.9521
 30
0.0
  0
SPLINE
  5
1B3
330
1F
100
AcDbEntity
  8
AXIS
 62
   250
100
AcDbSpline
210
0.0
220
0.0
230
1.0
 70
    11
 71
     3
 72
    20
 73
    16
 74
     0
 42
0.0000000001
 43
0.0000000001
 40
0.0
 40
0.0
 40
0.0
 40
0.0
 40
0.2
 40
0.2
 40
0.2
 40
0.2
 40
0.4
 40
0.4
 40
0.4
 40
0.4
 40
0.6
 40
0.6
 40
0.6
 40
0.6
 40
1.0
 40
1.0
 40
1.0
 40
1.0
 10
9.1362
 20
34.2995
 30
0.0
 10
9.1362
 20
34.2995
 30
0.0
 10
11.4836
 20
33.9682
 30
0.0
 10
11.4836
 20
33.9682
 30
0.0
 10
11.4836
 20
33.9682
 30
0.0
 10
11.4836
 20
33.9682
 30
0.0
 10
11.4836
 20
33.8946
 30
0.0
 10
11.4836
 20
33.8946
 30
0.0
 10
11.4836
 20
33.8946
 30
0.0
 10
11.4836
 20
33.8946
 30
0.0
 10
9.1362
 20
33.5413
 30
0.0
 10
9.1362
 20
33.5413
 30
0.0
 10
9.1362
 20
33.5413
 30
0.0
 10
9.1362
 20
33.5413
 30
0.0
 10
9.1362
 20
34.2995
 30
0.0
 10
9.1362
 20
34.2995
 30
0.0
  0
SPLINE
  5
1B4
330
1F
100
AcDbEntity
  8
AXIS
 62
   250
100
AcDbSpline
210
0.0
220
0.0
230
1.0
 70
    11
 71
     3
 72
    20
 73
    16
 74
     0
 42
0.0000000001
 43
0.0000000001
 40
0.0
 40
0.0
 40
0.0
 40
0.0
 40
0.2
 40
0.2
 40
0.2
 40
0.2
 40
0.4
 40
0.4
 40
0.4
 40
0.4
 40
0.6
 40
0.6
 40
0.6
 40
0.6
 40
1.0
 40
1.0
 40
1.0
 40
1.0
 10
-5.7899
 20
33.5681
 30
0.0
 10
-5.7899
 20
33.5681
 30
0.0
 10
-8.1373
 20
33.8993
 30
0.0
 10
-8.1373
 20
33.8993
 30
0.0
 10
-8.1373
 20
33.8993
 30
0.0
 10
-8.1373
 20
33.8993
 30
0.0
 10
-8.1373
 20
33.9729
 30
0.0
 10
-8.1373
 20
33.9729
 30
0.0
 10
-8.1373
 20
33.9729
 30
0.0
 10
-8.1373
 20
33.9729
 30
0.0
 10
-5.7899
 20
34.3262
 30
0.0
 10
-5.7899
 20
34.3262
 30
0.0
 10
-5.7899
 20
34.3262
 30
0.0
 10
-5.7899
 20
34.3262
 30
0.0
 10
-5.7899
 20
33.5681
 30
0.0
 10
-5.7899
 20
33.5681
 30
0.0
  0
SPLINE
  5
1B5
330
1F
100
AcDbEntity
  8
AXIS
 62
   250
100
AcDbSpline
210
0.0
220
0.0
230
1.0
 70
    24
 71
     3
 72
     8
 73
     4
 74
     0
 42
0.0000000001
 43
0.0000000001
 40
0.0
 40
0.0
 40
0.0
 40
0.0
 40
1.0
 40
1.0
 40
1.0
 40
1.0
 10
-19.3586
 20
27.8973
 30
0.0
 10
-19.3586
 20
27.8973
 30
0.0
 10
-19.3586
 20
6.3036
 30
0.0
 10
-19.3586
 20
6.3036
 30
0.0
  0
SPLINE
  5
1B6
330
1F
100
AcDbEntity
  8
AXIS
 62
   250
100
AcDbSpline
210
0.0
220
0.0
230
1.0
 70
    11
 71
     3
 72
    40
 73
    36
 74
     0
 42
0.0000000001
 43
0.0000000001
 40
0.0
 40
0.0
 40
0.0
 40
0.0
 40
0.1
 40
0.1
 40
0.1
 40
0.1
 40
0.2
 40
0.2
 40
0.2
 40
0.2
 40
0.3
 40
0.3
 40
0.3
 40
0.3
 40
0.4
 40
0.4
 40
0.4
 40
0.4
 40
0.5
 40
0.5
 40
0.5
 40
0.5
 40
0.6
 40
0.6
 40
0.6
 40
0.6
 40
0.7
 40
0.7
 40
0.7
 40
0.7
 40
0.8
 40
0.8
 40
0.8
 40
0.8
 40
1.0
 40
1.0
 40
1.0
 40
1.0
 10
-19.6894
 20
15.9827
 30
0.0
 10
-19.6894
 20
15.9827
 30
0.0
 10
-19.6894
 20
15.7348
 30
0.0
 10
-19.6894
 20
15.7348
 30
0.0
 10
-19.6894
 20
15.7348
 30
0.0
 10
-19.6894
 20
15.7348
 30
0.0
 10
-21.2698
 20
15.7348
 30
0.0
 10
-21.2698
 20
15.7348
 30
0.0
 10
-21.2698
 20
15.7348
 30
0.0
 10
-21.2129
 20
15.675
 30
0.0
 10
-21.156
 20
15.597
 30
0.0
 10
-21.0991
 20
15.5001
 30
0.0
 10
-21.0991
 20
15.5001
 30
0.0
 10
-21.0422
 20
15.4027
 30
0.0
 10
-20.9994
 20
15.3157
 30
0.0
 10
-20.9711
 20
15.2385
 30
0.0
 10
-20.9711
 20
15.2385
 30
0.0
 10
-20.9711
 20
15.2385
 30
0.0
 10
-21.2106
 20
15.2385
 30
0.0
 10
-21.2106
 20
15.2385
 30
0.0
 10
-21.2106
 20
15.2385
 30
0.0
 10
-21.2759
 20
15.3773
 30
0.0
 10
-21.355
 20
15.4987
 30
0.0
 10
-21.4476
 20
15.6026
 30
0.0
 10
-21.4476
 20
15.6026
 30
0.0
 10
-21.5408
 20
15.7061
 30
0.0
 10
-21.6306
 20
15.7799
 30
0.0
 10
-21.7181
 20
15.8232
 30
0.0
 10
-21.7181
 20
15.8232
 30
0.0
 10
-21.7181
 20
15.8232
 30
0.0
 10
-21.7181
 20
15.9827
 30
0.0
 10
-21.7181
 20
15.9827
 30
0.0
 10
-21.7181
 20
15.9827
 30
0.0
 10
-21.7181
 20
15.9827
 30
0.0
 10
-19.6894
 20
15.9827
 30
0.0
 10
-19.6894
 20
15.9827
 30
0.0
  0
SPLINE
  5
1B7
330
1F
100
AcDbEntity
  8
AXIS
 62
   250
100
AcDbSpline
210
0.0
220
0.0
230
1.0
 70
    11
 71
     3
 72
    52
 73
    48
 74
     0
 42
0.0000000001
 43
0.0000000001
 40
0.0
 40
0.0
 40
0.0
 40
0.0
 40
0.0769230769230769
 40
0.0769230769230769
 40
0.0769230769230769
 40
0.0769230769230769
 40
0.1538461538461539
 40
0.1538461538461539
 40
0.1538461538461539
 40
0.1538461538461539
 40
0.2307692307692308
 40
0.2307692307692308
 40
0.2307692307692308
 40
0.2307692307692308
 40
0.3076923076923077
 40
0.3076923076923077
 40
0.3076923076923077
 40
0.3076923076923077
 40
0.3846153846153846
 40
0.3846153846153846
 40
0.3846153846153846
 40
0.3846153846153846
 40
0.4615384615384616
 40
0.4615384615384616
 40
0.4615384615384616
 40
0.4615384615384616
 40
0.5384615384615384
 40
0.5384615384615384
 40
0.5384615384615384
 40
0.5384615384615384
 40
0.6153846153846154
 40
0.6153846153846154
 40
0.6153846153846154
 40
0.6153846153846154
 40
0.6923076923076923
 40
0.6923076923076923
 40
0.6923076923076923
 40
0.6923076923076923
 40
0.7692307692307693
 40
0.7692307692307693
 40
0.7692307692307693
 40
0.7692307692307693
 40
0.8461538461538461
 40
0.8461538461538461
 40
0.8461538461538461
 40
0.8461538461538461
 40
1.0
 40
1.0
 40
1.0
 40
1.0
 10
-20.6856
 20
16.6181
 30
0.0
 10
-20.9246
 20
16.6181
 30
0.0
 10
-21.117
 20
16.6426
 30
0.0
 10
-21.2623
 20
16.692
 30
0.0
 10
-21.2623
 20
16.692
 30
0.0
 10
-21.4081
 20
16.7409
 30
0.0
 10
-21.5205
 20
16.8143
 30
0.0
 10
-21.5996
 20
16.9112
 30
0.0
 10
-21.5996
 20
16.9112
 30
0.0
 10
-21.6786
 20
17.0081
 30
0.0
 10
-21.7181
 20
17.1299
 30
0.0
 10
-21.7181
 20
17.2766
 30
0.0
 10
-21.7181
 20
17.2766
 30
0.0
 10
-21.7181
 20
17.3853
 30
0.0
 10
-21.696
 20
17.4803
 30
0.0
 10
-21.6522
 20
17.5621
 30
0.0
 10
-21.6522
 20
17.5621
 30
0.0
 10
-21.609
 20
17.644
 30
0.0
 10
-21.5459
 20
17.7113
 30
0.0
 10
-21.4636
 20
17.7649
 30
0.0
 10
-21.4636
 20
17.7649
 30
0.0
 10
-21.3813
 20
17.818
 30
0.0
 10
-21.2811
 20
17.8599
 30
0.0
 10
-21.1631
 20
17.89
 30
0.0
 10
-21.1631
 20
17.89
 30
0.0
 10
-21.045
 20
17.9206
 30
0.0
 10
-20.886
 20
17.9356
 30
0.0
 10
-20.6856
 20
17.9356
 30
0.0
 10
-20.6856
 20
17.9356
 30
0.0
 10
-20.4486
 20
17.9356
 30
0.0
 10
-20.2576
 20
17.9112
 30
0.0
 10
-20.1118
 20
17.8627
 30
0.0
 10
-20.1118
 20
17.8627
 30
0.0
 10
-19.966
 20
17.8138
 30
0.0
 10
-19.8536
 20
17.7409
 30
0.0
 10
-19.7741
 20
17.644
 30
0.0
 10
-19.7741
 20
17.644
 30
0.0
 10
-19.6946
 20
17.5471
 30
0.0
 10
-19.6551
 20
17.4248
 30
0.0
 10
-19.6551
 20
17.2766
 30
0.0
 10
-19.6551
 20
17.2766
 30
0.0
 10
-19.6551
 20
17.0819
 30
0.0
 10
-19.7247
 20
16.929
 30
0.0
 10
-19.8644
 20
16.818
 30
0.0
 10
-19.8644
 20
16.818
 30
0.0
 10
-20.0323
 20
16.6849
 30
0.0
 10
-20.3065
 20
16.6181
 30
0.0
 10
-20.6856
 20
16.6181
 30
0.0
  0
SPLINE
  5
1B8
330
1F
100
AcDbEntity
  8
AXIS
 62
   250
100
AcDbSpline
210
0.0
220
0.0
230
1.0
 70
    11
 71
     3
 72
    36
 73
    32
 74
     0
 42
0.0000000001
 43
0.0000000001
 40
0.0
 40
0.0
 40
0.0
 40
0.0
 40
0.1111111111111111
 40
0.1111111111111111
 40
0.1111111111111111
 40
0.1111111111111111
 40
0.2222222222222222
 40
0.2222222222222222
 40
0.2222222222222222
 40
0.2222222222222222
 40
0.3333333333333333
 40
0.3333333333333333
 40
0.3333333333333333
 40
0.3333333333333333
 40
0.4444444444444444
 40
0.4444444444444444
 40
0.4444444444444444
 40
0.4444444444444444
 40
0.5555555555555556
 40
0.5555555555555556
 40
0.5555555555555556
 40
0.5555555555555556
 40
0.6666666666666666
 40
0.6666666666666666
 40
0.6666666666666666
 40
0.6666666666666666
 40
0.7777777777777778
 40
0.7777777777777778
 40
0.7777777777777778
 40
0.7777777777777778
 40
1.0
 40
1.0
 40
1.0
 40
1.0
 10
-20.6856
 20
16.8731
 30
0.0
 10
-20.354
 20
16.8731
 30
0.0
 10
-20.1334
 20
16.9121
 30
0.0
 10
-20.0234
 20
16.9897
 30
0.0
 10
-20.0234
 20
16.9897
 30
0.0
 10
-19.9138
 20
17.0673
 30
0.0
 10
-19.8587
 20
17.1628
 30
0.0
 10
-19.8587
 20
17.2766
 30
0.0
 10
-19.8587
 20
17.2766
 30
0.0
 10
-19.8587
 20
17.3909
 30
0.0
 10
-19.9142
 20
17.4864
 30
0.0
 10
-20.0243
 20
17.564
 30
0.0
 10
-20.0243
 20
17.564
 30
0.0
 10
-20.1344
 20
17.6416
 30
0.0
 10
-20.355
 20
17.6807
 30
0.0
 10
-20.6856
 20
17.6807
 30
0.0
 10
-20.6856
 20
17.6807
 30
0.0
 10
-21.0182
 20
17.6807
 30
0.0
 10
-21.2393
 20
17.6416
 30
0.0
 10
-21.3484
 20
17.564
 30
0.0
 10
-21.3484
 20
17.564
 30
0.0
 10
-21.458
 20
17.4864
 30
0.0
 10
-21.5125
 20
17.39
 30
0.0
 10
-21.5125
 20
17.2743
 30
0.0
 10
-21.5125
 20
17.2743
 30
0.0
 10
-21.5125
 20
17.16
 30
0.0
 10
-21.4641
 20
17.0692
 30
0.0
 10
-21.3677
 20
17.001
 30
0.0
 10
-21.3677
 20
17.001
 30
0.0
 10
-21.2449
 20
16.9159
 30
0.0
 10
-21.0172
 20
16.8731
 30
0.0
 10
-20.6856
 20
16.8731
 30
0.0
  0
SPLINE
  5
1B9
330
1F
100
AcDbEntity
  8
AXIS
 62
   250
100
AcDbSpline
210
0.0
220
0.0
230
1.0
 70
    11
 71
     3
 72
    92
 73
    88
 74
     0
 42
0.0000000001
 43
0.0000000001
 40
0.0
 40
0.0
 40
0.0
 40
0.0
 40
0.0434782608695652
 40
0.0434782608695652
 40
0.0434782608695652
 40
0.0434782608695652
 40
0.0869565217391304
 40
0.0869565217391304
 40
0.0869565217391304
 40
0.0869565217391304
 40
0.1304347826086956
 40
0.1304347826086956
 40
0.1304347826086956
 40
0.1304347826086956
 40
0.1739130434782609
 40
0.1739130434782609
 40
0.1739130434782609
 40
0.1739130434782609
 40
0.2173913043478261
 40
0.2173913043478261
 40
0.2173913043478261
 40
0.2173913043478261
 40
0.2608695652173913
 40
0.2608695652173913
 40
0.2608695652173913
 40
0.2608695652173913
 40
0.3043478260869565
 40
0.3043478260869565
 40
0.3043478260869565
 40
0.3043478260869565
 40
0.3478260869565217
 40
0.3478260869565217
 40
0.3478260869565217
 40
0.3478260869565217
 40
0.391304347826087
 40
0.391304347826087
 40
0.391304347826087
 40
0.391304347826087
 40
0.4347826086956522
 40
0.4347826086956522
 40
0.4347826086956522
 40
0.4347826086956522
 40
0.4782608695652174
 40
0.4782608695652174
 40
0.4782608695652174
 40
0.4782608695652174
 40
0.5217391304347826
 40
0.5217391304347826
 40
0.5217391304347826
 40
0.5217391304347826
 40
0.5652173913043478
 40
0.5652173913043478
 40
0.5652173913043478
 40
0.5652173913043478
 40
0.6086956521739131
 40
0.6086956521739131
 40
0.6086956521739131
 40
0.6086956521739131
 40
0.6521739130434783
 40
0.6521739130434783
 40
0.6521739130434783
 40
0.6521739130434783
 40
0.6956521739130435
 40
0.6956521739130435
 40
0.6956521739130435
 40
0.6956521739130435
 40
0.7391304347826086
 40
0.7391304347826086
 40
0.7391304347826086
 40
0.7391304347826086
 40
0.782608695652174
 40
0.782608695652174
 40
0.782608695652174
 40
0.782608695652174
 40
0.8260869565217391
 40
0.8260869565217391
 40
0.8260869565217391
 40
0.8260869565217391
 40
0.8695652173913043
 40
0.8695652173913043
 40
0.8695652173913043
 40
0.8695652173913043
 40
0.9130434782608695
 40
0.9130434782608695
 40
0.9130434782608695
 40
0.9130434782608695
 40
1.0
 40
1.0
 40
1.0
 40
1.0
 10
-20.2186
 20
18.1877
 30
0.0
 10
-20.2186
 20
18.1877
 30
0.0
 10
-20.2407
 20
18.4483
 30
0.0
 10
-20.2407
 20
18.4483
 30
0.0
 10
-20.2407
 20
18.4483
 30
0.0
 10
-20.1137
 20
18.4676
 30
0.0
 10
-20.0187
 20
18.5123
 30
0.0
 10
-19.9547
 20
18.5824
 30
0.0
 10
-19.9547
 20
18.5824
 30
0.0
 10
-19.8907
 20
18.6529
 30
0.0
 10
-19.8587
 20
18.7376
 30
0.0
 10
-19.8587
 20
18.8368
 30
0.0
 10
-19.8587
 20
18.8368
 30
0.0
 10
-19.8587
 20
18.9563
 30
0.0
 10
-19.9039
 20
19.0574
 30
0.0
 10
-19.9937
 20
19.1397
 30
0.0
 10
-19.9937
 20
19.1397
 30
0.0
 10
-20.084
 20
19.2225
 30
0.0
 10
-20.2035
 20
19.2639
 30
0.0
 10
-20.3521
 20
19.2639
 30
0.0
 10
-20.3521
 20
19.2639
 30
0.0
 10
-20.4937
 20
19.2639
 30
0.0
 10
-20.6052
 20
19.2244
 30
0.0
 10
-20.687
 20
19.1449
 30
0.0
 10
-20.687
 20
19.1449
 30
0.0
 10
-20.7689
 20
19.0654
 30
0.0
 10
-20.8098
 20
18.9615
 30
0.0
 10
-20.8098
 20
18.8326
 30
0.0
 10
-20.8098
 20
18.8326
 30
0.0
 10
-20.8098
 20
18.7526
 30
0.0
 10
-20.7915
 20
18.6807
 30
0.0
 10
-20.7553
 20
18.6162
 30
0.0
 10
-20.7553
 20
18.6162
 30
0.0
 10
-20.719
 20
18.5518
 30
0.0
 10
-20.672
 20
18.5015
 30
0.0
 10
-20.6141
 20
18.4648
 30
0.0
 10
-20.6141
 20
18.4648
 30
0.0
 10
-20.6141
 20
18.4648
 30
0.0
 10
-20.6442
 20
18.2319
 30
0.0
 10
-20.6442
 20
18.2319
 30
0.0
 10
-20.6442
 20
18.2319
 30
0.0
 10
-20.6442
 20
18.2319
 30
0.0
 10
-21.6819
 20
18.4276
 30
0.0
 10
-21.6819
 20
18.4276
 30
0.0
 10
-21.6819
 20
18.4276
 30
0.0
 10
-21.6819
 20
18.4276
 30
0.0
 10
-21.6819
 20
19.4323
 30
0.0
 10
-21.6819
 20
19.4323
 30
0.0
 10
-21.6819
 20
19.4323
 30
0.0
 10
-21.6819
 20
19.4323
 30
0.0
 10
-21.4448
 20
19.4323
 30
0.0
 10
-21.4448
 20
19.4323
 30
0.0
 10
-21.4448
 20
19.4323
 30
0.0
 10
-21.4448
 20
19.4323
 30
0.0
 10
-21.4448
 20
18.6261
 30
0.0
 10
-21.4448
 20
18.6261
 30
0.0
 10
-21.4448
 20
18.6261
 30
0.0
 10
-21.4448
 20
18.6261
 30
0.0
 10
-20.902
 20
18.517
 30
0.0
 10
-20.902
 20
18.517
 30
0.0
 10
-20.902
 20
18.517
 30
0.0
 10
-20.9867
 20
18.6383
 30
0.0
 10
-21.029
 20
18.7658
 30
0.0
 10
-21.029
 20
18.8989
 30
0.0
 10
-21.029
 20
18.8989
 30
0.0
 10
-21.029
 20
19.0753
 30
0.0
 10
-20.9679
 20
19.2239
 30
0.0
 10
-20.8456
 20
19.3453
 30
0.0
 10
-20.8456
 20
19.3453
 30
0.0
 10
-20.7233
 20
19.4666
 30
0.0
 10
-20.5662
 20
19.5273
 30
0.0
 10
-20.3743
 20
19.5273
 30
0.0
 10
-20.3743
 20
19.5273
 30
0.0
 10
-20.1913
 20
19.5273
 30
0.0
 10
-20.0332
 20
19.4737
 30
0.0
 10
-19.9001
 20
19.3674
 30
0.0
 10
-19.9001
 20
19.3674
 30
0.0
 10
-19.7369
 20
19.2376
 30
0.0
 10
-19.6551
 20
19.0607
 30
0.0
 10
-19.6551
 20
18.8368
 30
0.0
 10
-19.6551
 20
18.8368
 30
0.0
 10
-19.6551
 20
18.6529
 30
0.0
 10
-19.7063
 20
18.5029
 30
0.0
 10
-19.8093
 20
18.3867
 30
0.0
 10
-19.8093
 20
18.3867
 30
0.0
 10
-19.9124
 20
18.2705
 30
0.0
 10
-20.0488
 20
18.2042
 30
0.0
 10
-20.2186
 20
18.1877
 30
0.0
  0
SPLINE
  5
1BA
330
1F
100
AcDbEntity
  8
AXIS
 62
   250
100
AcDbSpline
210
0.0
220
0.0
230
1.0
 70
    11
 71
     3
 72
    20
 73
    16
 74
     0
 42
0.0000000001
 43
0.0000000001
 40
0.0
 40
0.0
 40
0.0
 40
0.0
 40
0.2
 40
0.2
 40
0.2
 40
0.2
 40
0.4
 40
0.4
 40
0.4
 40
0.4
 40
0.6
 40
0.6
 40
0.6
 40
0.6
 40
1.0
 40
1.0
 40
1.0
 40
1.0
 10
-19.7302
 20
26.1431
 30
0.0
 10
-19.7302
 20
26.1431
 30
0.0
 10
-19.3989
 20
28.4905
 30
0.0
 10
-19.3989
 20
28.4905
 30
0.0
 10
-19.3989
 20
28.4905
 30
0.0
 10
-19.3989
 20
28.4905
 30
0.0
 10
-19.3253
 20
28.4905
 30
0.0
 10
-19.3253
 20
28.4905
 30
0.0
 10
-19.3253
 20
28.4905
 30
0.0
 10
-19.3253
 20
28.4905
 30
0.0
 10
-18.972
 20
26.1431
 30
0.0
 10
-18.972
 20
26.1431
 30
0.0
 10
-18.972
 20
26.1431
 30
0.0
 10
-18.972
 20
26.1431
 30
0.0
 10
-19.7302
 20
26.1431
 30
0.0
 10
-19.7302
 20
26.1431
 30
0.0
  0
SPLINE
  5
1BB
330
1F
100
AcDbEntity
  8
AXIS
 62
   250
100
AcDbSpline
210
0.0
220
0.0
230
1.0
 70
    11
 71
     3
 72
    20
 73
    16
 74
     0
 42
0.0000000001
 43
0.0000000001
 40
0.0
 40
0.0
 40
0.0
 40
0.0
 40
0.2
 40
0.2
 40
0.2
 40
0.2
 40
0.4
 40
0.4
 40
0.4
 40
0.4
 40
0.6
 40
0.6
 40
0.6
 40
0.6
 40
1.0
 40
1.0
 40
1.0
 40
1.0
 10
-18.9807
 20
8.6549
 30
0.0
 10
-18.9807
 20
8.6549
 30
0.0
 10
-19.312
 20
6.3075
 30
0.0
 10
-19.312
 20
6.3075
 30
0.0
 10
-19.312
 20
6.3075
 30
0.0
 10
-19.312
 20
6.3075
 30
0.0
 10
-19.3856
 20
6.3075
 30
0.0
 10
-19.3856
 20
6.3075
 30
0.0
 10
-19.3856
 20
6.3075
 30
0.0
 10
-19.3856
 20
6.3075
 30
0.0
 10
-19.7389
 20
8.6549
 30
0.0
 10
-19.7389
 20
8.6549
 30
0.0
 10
-19.7389
 20
8.6549
 30
0.0
 10
-19.7389
 20
8.6549
 30
0.0
 10
-18.9807
 20
8.6549
 30
0.0
 10
-18.9807
 20
8.6549
 30
0.0
  0
SPLINE
  5
1BC
330
1F
100
AcDbEntity
  8
AXIS
 62
   250
100
AcDbSpline
210
0.0
220
0.0
230
1.0
 70
    24
 71
     3
 72
     8
 73
     4
 74
     0
 42
0.0000000001
 43
0.0000000001
 40
0.0
 40
0.0
 40
0.0
 40
0.0
 40
1.0
 40
1.0
 40
1.0
 40
1.0
 10
21.2421
 20
16.4428
 30
0.0
 10
21.2421
 20
16.4428
 30
0.0
 10
21.2421
 20
6.5681
 30
0.0
 10
21.2421
 20
6.5681
 30
0.0
  0
SPLINE
  5
1BD
330
1F
100
AcDbEntity
  8
AXIS
 62
   250
100
AcDbSpline
210
0.0
220
0.0
230
1.0
 70
    11
 71
     3
 72
    84
 73
    80
 74
     0
 42
0.0000000001
 43
0.0000000001
 40
0.0
 40
0.0
 40
0.0
 40
0.0
 40
0.0476190476190476
 40
0.0476190476190476
 40
0.0476190476190476
 40
0.0476190476190476
 40
0.0952380952380952
 40
0.0952380952380952
 40
0.0952380952380952
 40
0.0952380952380952
 40
0.1428571428571428
 40
0.1428571428571428
 40
0.1428571428571428
 40
0.1428571428571428
 40
0.1904761904761905
 40
0.1904761904761905
 40
0.1904761904761905
 40
0.1904761904761905
 40
0.2380952380952381
 40
0.2380952380952381
 40
0.2380952380952381
 40
0.2380952380952381
 40
0.2857142857142857
 40
0.2857142857142857
 40
0.2857142857142857
 40
0.2857142857142857
 40
0.3333333333333333
 40
0.3333333333333333
 40
0.3333333333333333
 40
0.3333333333333333
 40
0.3809523809523809
 40
0.3809523809523809
 40
0.3809523809523809
 40
0.3809523809523809
 40
0.4285714285714285
 40
0.4285714285714285
 40
0.4285714285714285
 40
0.4285714285714285
 40
0.4761904761904762
 40
0.4761904761904762
 40
0.4761904761904762
 40
0.4761904761904762
 40
0.5238095238095238
 40
0.5238095238095238
 40
0.5238095238095238
 40
0.5238095238095238
 40
0.5714285714285714
 40
0.5714285714285714
 40
0.5714285714285714
 40
0.5714285714285714
 40
0.6190476190476191
 40
0.6190476190476191
 40
0.6190476190476191
 40
0.6190476190476191
 40
0.6666666666666666
 40
0.6666666666666666
 40
0.6666666666666666
 40
0.6666666666666666
 40
0.7142857142857143
 40
0.7142857142857143
 40
0.7142857142857143
 40
0.7142857142857143
 40
0.7619047619047619
 40
0.7619047619047619
 40
0.7619047619047619
 40
0.7619047619047619
 40
0.8095238095238095
 40
0.8095238095238095
 40
0.8095238095238095
 40
0.8095238095238095
 40
0.8571428571428571
 40
0.8571428571428571
 40
0.8571428571428571
 40
0.8571428571428571
 40
0.9047619047619048
 40
0.9047619047619048
 40
0.9047619047619048
 40
0.9047619047619048
 40
1.0
 40
1.0
 40
1.0
 40
1.0
 10
19.0756
 20
10.9554
 30
0.0
 10
19.0756
 20
10.9554
 30
0.0
 10
18.8165
 20
11.1868
 30
0.0
 10
18.8165
 20
11.1868
 30
0.0
 10
18.8165
 20
11.1868
 30
0.0
 10
18.8165
 20
11.1868
 30
0.0
 10
18.9322
 20
11.3232
 30
0.0
 10
18.9322
 20
11.3232
 30
0.0
 10
18.9322
 20
11.3232
 30
0.0
 10
18.9322
 20
11.3232
 30
0.0
 10
19.205
 20
11.081
 30
0.0
 10
19.205
 20
11.081
 30
0.0
 10
19.205
 20
11.081
 30
0.0
 10
19.3226
 20
11.16
 30
0.0
 10
19.4256
 20
11.2131
 30
0.0
 10
19.5135
 20
11.2409
 30
0.0
 10
19.5135
 20
11.2409
 30
0.0
 10
19.6293
 20
11.2776
 30
0.0
 10
19.7591
 20
11.2959
 30
0.0
 10
19.9021
 20
11.2959
 30
0.0
 10
19.9021
 20
11.2959
 30
0.0
 10
20.109
 20
11.2959
 30
0.0
 10
20.2934
 20
11.2541
 30
0.0
 10
20.4547
 20
11.1703
 30
0.0
 10
20.4547
 20
11.1703
 30
0.0
 10
20.6166
 20
11.0866
 30
0.0
 10
20.7388
 20
10.9695
 30
0.0
 10
20.8216
 20
10.8185
 30
0.0
 10
20.8216
 20
10.8185
 30
0.0
 10
20.9039
 20
10.667
 30
0.0
 10
20.9453
 20
10.5067
 30
0.0
 10
20.9453
 20
10.3369
 30
0.0
 10
20.9453
 20
10.3369
 30
0.0
 10
20.9453
 20
10.2099
 30
0.0
 10
20.9275
 20
10.0951
 30
0.0
 10
20.8917
 20
9.9921
 30
0.0
 10
20.8917
 20
9.9921
 30
0.0
 10
20.864
 20
9.9131
 30
0.0
 10
20.8113
 20
9.8209
 30
0.0
 10
20.7332
 20
9.715
 30
0.0
 10
20.7332
 20
9.715
 30
0.0
 10
20.7332
 20
9.715
 30
0.0
 10
20.9924
 20
9.4836
 30
0.0
 10
20.9924
 20
9.4836
 30
0.0
 10
20.9924
 20
9.4836
 30
0.0
 10
20.9924
 20
9.4836
 30
0.0
 10
20.8767
 20
9.3472
 30
0.0
 10
20.8767
 20
9.3472
 30
0.0
 10
20.8767
 20
9.3472
 30
0.0
 10
20.8767
 20
9.3472
 30
0.0
 10
20.6053
 20
9.5899
 30
0.0
 10
20.6053
 20
9.5899
 30
0.0
 10
20.6053
 20
9.5899
 30
0.0
 10
20.4684
 20
9.4996
 30
0.0
 10
20.3513
 20
9.4394
 30
0.0
 10
20.2544
 20
9.4093
 30
0.0
 10
20.2544
 20
9.4093
 30
0.0
 10
20.1575
 20
9.3792
 30
0.0
 10
20.0408
 20
9.3637
 30
0.0
 10
19.9049
 20
9.3637
 30
0.0
 10
19.9049
 20
9.3637
 30
0.0
 10
19.6975
 20
9.3637
 30
0.0
 10
19.5126
 20
9.4051
 30
0.0
 10
19.3503
 20
9.4878
 30
0.0
 10
19.3503
 20
9.4878
 30
0.0
 10
19.188
 20
9.5706
 30
0.0
 10
19.0653
 20
9.6863
 30
0.0
 10
18.9816
 20
9.8359
 30
0.0
 10
18.9816
 20
9.8359
 30
0.0
 10
18.8983
 20
9.985
 30
0.0
 10
18.8564
 20
10.1511
 30
0.0
 10
18.8564
 20
10.334
 30
0.0
 10
18.8564
 20
10.334
 30
0.0
 10
18.8564
 20
10.4573
 30
0.0
 10
18.8724
 20
10.565
 30
0.0
 10
18.9054
 20
10.6572
 30
0.0
 10
18.9054
 20
10.6572
 30
0.0
 10
18.9378
 20
10.7494
 30
0.0
 10
18.9947
 20
10.8491
 30
0.0
 10
19.0756
 20
10.9554
 30
0.0
  0
SPLINE
  5
1BE
330
1F
100
AcDbEntity
  8
AXIS
 62
   250
100
AcDbSpline
210
0.0
220
0.0
230
1.0
 70
    11
 71
     3
 72
    32
 73
    28
 74
     0
 42
0.0000000001
 43
0.0000000001
 40
0.0
 40
0.0
 40
0.0
 40
0.0
 40
0.125
 40
0.125
 40
0.125
 40
0.125
 40
0.25
 40
0.25
 40
0.25
 40
0.25
 40
0.375
 40
0.375
 40
0.375
 40
0.375
 40
0.5
 40
0.5
 40
0.5
 40
0.5
 40
0.625
 40
0.625
 40
0.625
 40
0.625
 40
0.75
 40
0.75
 40
0.75
 40
0.75
 40
1.0
 40
1.0
 40
1.0
 40
1.0
 10
19.2614
 20
10.7903
 30
0.0
 10
19.1937
 20
10.7037
 30
0.0
 10
19.1471
 20
10.628
 30
0.0
 10
19.1222
 20
10.5636
 30
0.0
 10
19.1222
 20
10.5636
 30
0.0
 10
19.0977
 20
10.4987
 30
0.0
 10
19.085
 20
10.4225
 30
0.0
 10
19.085
 20
10.3354
 30
0.0
 10
19.085
 20
10.3354
 30
0.0
 10
19.085
 20
10.1341
 30
0.0
 10
19.1532
 20
9.9681
 30
0.0
 10
19.2896
 20
9.8364
 30
0.0
 10
19.2896
 20
9.8364
 30
0.0
 10
19.4261
 20
9.7051
 30
0.0
 10
19.6297
 20
9.6393
 30
0.0
 10
19.9011
 20
9.6393
 30
0.0
 10
19.9011
 20
9.6393
 30
0.0
 10
20.0074
 20
9.6393
 30
0.0
 10
20.102
 20
9.6496
 30
0.0
 10
20.1848
 20
9.6699
 30
0.0
 10
20.1848
 20
9.6699
 30
0.0
 10
20.2464
 20
9.6845
 30
0.0
 10
20.3221
 20
9.715
 30
0.0
 10
20.4119
 20
9.7621
 30
0.0
 10
20.4119
 20
9.7621
 30
0.0
 10
20.4119
 20
9.7621
 30
0.0
 10
19.2614
 20
10.7903
 30
0.0
 10
19.2614
 20
10.7903
 30
0.0
  0
SPLINE
  5
1BF
330
1F
100
AcDbEntity
  8
AXIS
 62
   250
100
AcDbSpline
210
0.0
220
0.0
230
1.0
 70
    11
 71
     3
 72
    28
 73
    24
 74
     0
 42
0.0000000001
 43
0.0000000001
 40
0.0
 40
0.0
 40
0.0
 40
0.0
 40
0.1428571428571428
 40
0.1428571428571428
 40
0.1428571428571428
 40
0.1428571428571428
 40
0.2857142857142857
 40
0.2857142857142857
 40
0.2857142857142857
 40
0.2857142857142857
 40
0.4285714285714285
 40
0.4285714285714285
 40
0.4285714285714285
 40
0.4285714285714285
 40
0.5714285714285714
 40
0.5714285714285714
 40
0.5714285714285714
 40
0.5714285714285714
 40
0.7142857142857143
 40
0.7142857142857143
 40
0.7142857142857143
 40
0.7142857142857143
 40
1.0
 40
1.0
 40
1.0
 40
1.0
 10
19.4035
 20
10.9032
 30
0.0
 10
19.4035
 20
10.9032
 30
0.0
 10
20.5498
 20
9.8792
 30
0.0
 10
20.5498
 20
9.8792
 30
0.0
 10
20.5498
 20
9.8792
 30
0.0
 10
20.6076
 20
9.9497
 30
0.0
 10
20.6481
 20
10.0151
 30
0.0
 10
20.6711
 20
10.0749
 30
0.0
 10
20.6711
 20
10.0749
 30
0.0
 10
20.7017
 20
10.1529
 30
0.0
 10
20.7167
 20
10.2376
 30
0.0
 10
20.7167
 20
10.3284
 30
0.0
 10
20.7167
 20
10.3284
 30
0.0
 10
20.7167
 20
10.5288
 30
0.0
 10
20.6462
 20
10.6939
 30
0.0
 10
20.5046
 20
10.8246
 30
0.0
 10
20.5046
 20
10.8246
 30
0.0
 10
20.363
 20
10.9549
 30
0.0
 10
20.1645
 20
11.0203
 30
0.0
 10
19.9091
 20
11.0203
 30
0.0
 10
19.9091
 20
11.0203
 30
0.0
 10
19.7182
 20
11.0203
 30
0.0
 10
19.5493
 20
10.9813
 30
0.0
 10
19.4035
 20
10.9032
 30
0.0
  0
SPLINE
  5
1C0
330
1F
100
AcDbEntity
  8
AXIS
 62
   250
100
AcDbSpline
210
0.0
220
0.0
230
1.0
 70
    11
 71
     3
 72
    92
 73
    88
 74
     0
 42
0.0000000001
 43
0.0000000001
 40
0.0
 40
0.0
 40
0.0
 40
0.0
 40
0.0434782608695652
 40
0.0434782608695652
 40
0.0434782608695652
 40
0.0434782608695652
 40
0.0869565217391304
 40
0.0869565217391304
 40
0.0869565217391304
 40
0.0869565217391304
 40
0.1304347826086956
 40
0.1304347826086956
 40
0.1304347826086956
 40
0.1304347826086956
 40
0.1739130434782609
 40
0.1739130434782609
 40
0.1739130434782609
 40
0.1739130434782609
 40
0.2173913043478261
 40
0.2173913043478261
 40
0.2173913043478261
 40
0.2173913043478261
 40
0.2608695652173913
 40
0.2608695652173913
 40
0.2608695652173913
 40
0.2608695652173913
 40
0.3043478260869565
 40
0.3043478260869565
 40
0.3043478260869565
 40
0.3043478260869565
 40
0.3478260869565217
 40
0.3478260869565217
 40
0.3478260869565217
 40
0.3478260869565217
 40
0.391304347826087
 40
0.391304347826087
 40
0.391304347826087
 40
0.391304347826087
 40
0.4347826086956522
 40
0.4347826086956522
 40
0.4347826086956522
 40
0.4347826086956522
 40
0.4782608695652174
 40
0.4782608695652174
 40
0.4782608695652174
 40
0.4782608695652174
 40
0.5217391304347826
 40
0.5217391304347826
 40
0.5217391304347826
 40
0.5217391304347826
 40
0.5652173913043478
 40
0.5652173913043478
 40
0.5652173913043478
 40
0.5652173913043478
 40
0.6086956521739131
 40
0.6086956521739131
 40
0.6086956521739131
 40
0.6086956521739131
 40
0.6521739130434783
 40
0.6521739130434783
 40
0.6521739130434783
 40
0.6521739130434783
 40
0.6956521739130435
 40
0.6956521739130435
 40
0.6956521739130435
 40
0.6956521739130435
 40
0.7391304347826086
 40
0.7391304347826086
 40
0.7391304347826086
 40
0.7391304347826086
 40
0.782608695652174
 40
0.782608695652174
 40
0.782608695652174
 40
0.782608695652174
 40
0.8260869565217391
 40
0.8260869565217391
 40
0.8260869565217391
 40
0.8260869565217391
 40
0.8695652173913043
 40
0.8695652173913043
 40
0.8695652173913043
 40
0.8695652173913043
 40
0.9130434782608695
 40
0.9130434782608695
 40
0.9130434782608695
 40
0.9130434782608695
 40
1.0
 40
1.0
 40
1.0
 40
1.0
 10
20.3818
 20
11.5452
 30
0.0
 10
20.3818
 20
11.5452
 30
0.0
 10
20.3597
 20
11.8058
 30
0.0
 10
20.3597
 20
11.8058
 30
0.0
 10
20.3597
 20
11.8058
 30
0.0
 10
20.4867
 20
11.8251
 30
0.0
 10
20.5817
 20
11.8698
 30
0.0
 10
20.6457
 20
11.9399
 30
0.0
 10
20.6457
 20
11.9399
 30
0.0
 10
20.7097
 20
12.0104
 30
0.0
 10
20.7417
 20
12.0951
 30
0.0
 10
20.7417
 20
12.1943
 30
0.0
 10
20.7417
 20
12.1943
 30
0.0
 10
20.7417
 20
12.3138
 30
0.0
 10
20.6965
 20
12.4149
 30
0.0
 10
20.6067
 20
12.4972
 30
0.0
 10
20.6067
 20
12.4972
 30
0.0
 10
20.5164
 20
12.58
 30
0.0
 10
20.3969
 20
12.6214
 30
0.0
 10
20.2483
 20
12.6214
 30
0.0
 10
20.2483
 20
12.6214
 30
0.0
 10
20.1067
 20
12.6214
 30
0.0
 10
19.9952
 20
12.5819
 30
0.0
 10
19.9134
 20
12.5024
 30
0.0
 10
19.9134
 20
12.5024
 30
0.0
 10
19.8315
 20
12.4229
 30
0.0
 10
19.7906
 20
12.319
 30
0.0
 10
19.7906
 20
12.1901
 30
0.0
 10
19.7906
 20
12.1901
 30
0.0
 10
19.7906
 20
12.1101
 30
0.0
 10
19.8089
 20
12.0382
 30
0.0
 10
19.8451
 20
11.9737
 30
0.0
 10
19.8451
 20
11.9737
 30
0.0
 10
19.8814
 20
11.9093
 30
0.0
 10
19.9284
 20
11.859
 30
0.0
 10
19.9863
 20
11.8223
 30
0.0
 10
19.9863
 20
11.8223
 30
0.0
 10
19.9863
 20
11.8223
 30
0.0
 10
19.9562
 20
11.5894
 30
0.0
 10
19.9562
 20
11.5894
 30
0.0
 10
19.9562
 20
11.5894
 30
0.0
 10
19.9562
 20
11.5894
 30
0.0
 10
18.9185
 20
11.7851
 30
0.0
 10
18.9185
 20
11.7851
 30
0.0
 10
18.9185
 20
11.7851
 30
0.0
 10
18.9185
 20
11.7851
 30
0.0
 10
18.9185
 20
12.7898
 30
0.0
 10
18.9185
 20
12.7898
 30
0.0
 10
18.9185
 20
12.7898
 30
0.0
 10
18.9185
 20
12.7898
 30
0.0
 10
19.1556
 20
12.7898
 30
0.0
 10
19.1556
 20
12.7898
 30
0.0
 10
19.1556
 20
12.7898
 30
0.0
 10
19.1556
 20
12.7898
 30
0.0
 10
19.1556
 20
11.9836
 30
0.0
 10
19.1556
 20
11.9836
 30
0.0
 10
19.1556
 20
11.9836
 30
0.0
 10
19.1556
 20
11.9836
 30
0.0
 10
19.6984
 20
11.8745
 30
0.0
 10
19.6984
 20
11.8745
 30
0.0
 10
19.6984
 20
11.8745
 30
0.0
 10
19.6137
 20
11.9958
 30
0.0
 10
19.5714
 20
12.1233
 30
0.0
 10
19.5714
 20
12.2564
 30
0.0
 10
19.5714
 20
12.2564
 30
0.0
 10
19.5714
 20
12.4328
 30
0.0
 10
19.6325
 20
12.5814
 30
0.0
 10
19.7548
 20
12.7028
 30
0.0
 10
19.7548
 20
12.7028
 30
0.0
 10
19.8771
 20
12.8241
 30
0.0
 10
20.0342
 20
12.8848
 30
0.0
 10
20.2261
 20
12.8848
 30
0.0
 10
20.2261
 20
12.8848
 30
0.0
 10
20.4091
 20
12.8848
 30
0.0
 10
20.5672
 20
12.8312
 30
0.0
 10
20.7003
 20
12.7249
 30
0.0
 10
20.7003
 20
12.7249
 30
0.0
 10
20.8635
 20
12.5951
 30
0.0
 10
20.9453
 20
12.4182
 30
0.0
 10
20.9453
 20
12.1943
 30
0.0
 10
20.9453
 20
12.1943
 30
0.0
 10
20.9453
 20
12.0104
 30
0.0
 10
20.8941
 20
11.8604
 30
0.0
 10
20.7911
 20
11.7442
 30
0.0
 10
20.7911
 20
11.7442
 30
0.0
 10
20.688
 20
11.628
 30
0.0
 10
20.5516
 20
11.5617
 30
0.0
 10
20.3818
 20
11.5452
 30
0.0
  0
SPLINE
  5
1C1
330
1F
100
AcDbEntity
  8
AXIS
 62
   250
100
AcDbSpline
210
0.0
220
0.0
230
1.0
 70
    11
 71
     3
 72
    52
 73
    48
 74
     0
 42
0.0000000001
 43
0.0000000001
 40
0.0
 40
0.0
 40
0.0
 40
0.0
 40
0.0769230769230769
 40
0.0769230769230769
 40
0.0769230769230769
 40
0.0769230769230769
 40
0.1538461538461539
 40
0.1538461538461539
 40
0.1538461538461539
 40
0.1538461538461539
 40
0.2307692307692308
 40
0.2307692307692308
 40
0.2307692307692308
 40
0.2307692307692308
 40
0.3076923076923077
 40
0.3076923076923077
 40
0.3076923076923077
 40
0.3076923076923077
 40
0.3846153846153846
 40
0.3846153846153846
 40
0.3846153846153846
 40
0.3846153846153846
 40
0.4615384615384616
 40
0.4615384615384616
 40
0.4615384615384616
 40
0.4615384615384616
 40
0.5384615384615384
 40
0.5384615384615384
 40
0.5384615384615384
 40
0.5384615384615384
 40
0.6153846153846154
 40
0.6153846153846154
 40
0.6153846153846154
 40
0.6153846153846154
 40
0.6923076923076923
 40
0.6923076923076923
 40
0.6923076923076923
 40
0.6923076923076923
 40
0.7692307692307693
 40
0.7692307692307693
 40
0.7692307692307693
 40
0.7692307692307693
 40
0.8461538461538461
 40
0.8461538461538461
 40
0.8461538461538461
 40
0.8461538461538461
 40
1.0
 40
1.0
 40
1.0
 40
1.0
 10
19.9148
 20
13.1148
 30
0.0
 10
19.6758
 20
13.1148
 30
0.0
 10
19.4834
 20
13.1393
 30
0.0
 10
19.3381
 20
13.1887
 30
0.0
 10
19.3381
 20
13.1887
 30
0.0
 10
19.1923
 20
13.2376
 30
0.0
 10
19.0799
 20
13.311
 30
0.0
 10
19.0008
 20
13.4079
 30
0.0
 10
19.0008
 20
13.4079
 30
0.0
 10
18.9218
 20
13.5048
 30
0.0
 10
18.8823
 20
13.6266
 30
0.0
 10
18.8823
 20
13.7733
 30
0.0
 10
18.8823
 20
13.7733
 30
0.0
 10
18.8823
 20
13.882
 30
0.0
 10
18.9044
 20
13.977
 30
0.0
 10
18.9482
 20
14.0588
 30
0.0
 10
18.9482
 20
14.0588
 30
0.0
 10
18.9914
 20
14.1407
 30
0.0
 10
19.0545
 20
14.208
 30
0.0
 10
19.1368
 20
14.2616
 30
0.0
 10
19.1368
 20
14.2616
 30
0.0
 10
19.2191
 20
14.3147
 30
0.0
 10
19.3193
 20
14.3566
 30
0.0
 10
19.4373
 20
14.3867
 30
0.0
 10
19.4373
 20
14.3867
 30
0.0
 10
19.5554
 20
14.4173
 30
0.0
 10
19.7144
 20
14.4323
 30
0.0
 10
19.9148
 20
14.4323
 30
0.0
 10
19.9148
 20
14.4323
 30
0.0
 10
20.1518
 20
14.4323
 30
0.0
 10
20.3428
 20
14.4079
 30
0.0
 10
20.4886
 20
14.3594
 30
0.0
 10
20.4886
 20
14.3594
 30
0.0
 10
20.6344
 20
14.3105
 30
0.0
 10
20.7468
 20
14.2376
 30
0.0
 10
20.8263
 20
14.1407
 30
0.0
 10
20.8263
 20
14.1407
 30
0.0
 10
20.9058
 20
14.0438
 30
0.0
 10
20.9453
 20
13.9215
 30
0.0
 10
20.9453
 20
13.7733
 30
0.0
 10
20.9453
 20
13.7733
 30
0.0
 10
20.9453
 20
13.5786
 30
0.0
 10
20.8757
 20
13.4257
 30
0.0
 10
20.736
 20
13.3147
 30
0.0
 10
20.736
 20
13.3147
 30
0.0
 10
20.5681
 20
13.1816
 30
0.0
 10
20.2939
 20
13.1148
 30
0.0
 10
19.9148
 20
13.1148
 30
0.0
  0
SPLINE
  5
1C2
330
1F
100
AcDbEntity
  8
AXIS
 62
   250
100
AcDbSpline
210
0.0
220
0.0
230
1.0
 70
    11
 71
     3
 72
    36
 73
    32
 74
     0
 42
0.0000000001
 43
0.0000000001
 40
0.0
 40
0.0
 40
0.0
 40
0.0
 40
0.1111111111111111
 40
0.1111111111111111
 40
0.1111111111111111
 40
0.1111111111111111
 40
0.2222222222222222
 40
0.2222222222222222
 40
0.2222222222222222
 40
0.2222222222222222
 40
0.3333333333333333
 40
0.3333333333333333
 40
0.3333333333333333
 40
0.3333333333333333
 40
0.4444444444444444
 40
0.4444444444444444
 40
0.4444444444444444
 40
0.4444444444444444
 40
0.5555555555555556
 40
0.5555555555555556
 40
0.5555555555555556
 40
0.5555555555555556
 40
0.6666666666666666
 40
0.6666666666666666
 40
0.6666666666666666
 40
0.6666666666666666
 40
0.7777777777777778
 40
0.7777777777777778
 40
0.7777777777777778
 40
0.7777777777777778
 40
1.0
 40
1.0
 40
1.0
 40
1.0
 10
19.9148
 20
13.3698
 30
0.0
 10
20.2464
 20
13.3698
 30
0.0
 10
20.467
 20
13.4088
 30
0.0
 10
20.577
 20
13.4864
 30
0.0
 10
20.577
 20
13.4864
 30
0.0
 10
20.6866
 20
13.564
 30
0.0
 10
20.7417
 20
13.6595
 30
0.0
 10
20.7417
 20
13.7733
 30
0.0
 10
20.7417
 20
13.7733
 30
0.0
 10
20.7417
 20
13.8876
 30
0.0
 10
20.6862
 20
13.9831
 30
0.0
 10
20.5761
 20
14.0607
 30
0.0
 10
20.5761
 20
14.0607
 30
0.0
 10
20.466
 20
14.1383
 30
0.0
 10
20.2454
 20
14.1774
 30
0.0
 10
19.9148
 20
14.1774
 30
0.0
 10
19.9148
 20
14.1774
 30
0.0
 10
19.5822
 20
14.1774
 30
0.0
 10
19.3611
 20
14.1383
 30
0.0
 10
19.252
 20
14.0607
 30
0.0
 10
19.252
 20
14.0607
 30
0.0
 10
19.1424
 20
13.9831
 30
0.0
 10
19.0879
 20
13.8867
 30
0.0
 10
19.0879
 20
13.771
 30
0.0
 10
19.0879
 20
13.771
 30
0.0
 10
19.0879
 20
13.6567
 30
0.0
 10
19.1363
 20
13.5659
 30
0.0
 10
19.2327
 20
13.4977
 30
0.0
 10
19.2327
 20
13.4977
 30
0.0
 10
19.3555
 20
13.4126
 30
0.0
 10
19.5832
 20
13.3698
 30
0.0
 10
19.9148
 20
13.3698
 30
0.0
  0
SPLINE
  5
1C3
330
1F
100
AcDbEntity
  8
AXIS
 62
   250
100
AcDbSpline
210
0.0
220
0.0
230
1.0
 70
    11
 71
     3
 72
    20
 73
    16
 74
     0
 42
0.0000000001
 43
0.0000000001
 40
0.0
 40
0.0
 40
0.0
 40
0.0
 40
0.2
 40
0.2
 40
0.2
 40
0.2
 40
0.4
 40
0.4
 40
0.4
 40
0.4
 40
0.6
 40
0.6
 40
0.6
 40
0.6
 40
1.0
 40
1.0
 40
1.0
 40
1.0
 10
20.8702
 20
14.448
 30
0.0
 10
20.8702
 20
14.448
 30
0.0
 10
21.2015
 20
16.7954
 30
0.0
 10
21.2015
 20
16.7954
 30
0.0
 10
21.2015
 20
16.7954
 30
0.0
 10
21.2015
 20
16.7954
 30
0.0
 10
21.2751
 20
16.7954
 30
0.0
 10
21.2751
 20
16.7954
 30
0.0
 10
21.2751
 20
16.7954
 30
0.0
 10
21.2751
 20
16.7954
 30
0.0
 10
21.6284
 20
14.448
 30
0.0
 10
21.6284
 20
14.448
 30
0.0
 10
21.6284
 20
14.448
 30
0.0
 10
21.6284
 20
14.448
 30
0.0
 10
20.8702
 20
14.448
 30
0.0
 10
20.8702
 20
14.448
 30
0.0
  0
SPLINE
  5
1C4
330
1F
100
AcDbEntity
  8
AXIS
 62
   250
100
AcDbSpline
210
0.0
220
0.0
230
1.0
 70
    11
 71
     3
 72
    20
 73
    16
 74
     0
 42
0.0000000001
 43
0.0000000001
 40
0.0
 40
0.0
 40
0.0
 40
0.0
 40
0.2
 40
0.2
 40
0.2
 40
0.2
 40
0.4
 40
0.4
 40
0.4
 40
0.4
 40
0.6
 40
0.6
 40
0.6
 40
0.6
 40
1.0
 40
1.0
 40
1.0
 40
1.0
 10
21.6317
 20
8.6503
 30
0.0
 10
21.6317
 20
8.6503
 30
0.0
 10
21.3004
 20
6.3029
 30
0.0
 10
21.3004
 20
6.3029
 30
0.0
 10
21.3004
 20
6.3029
 30
0.0
 10
21.3004
 20
6.3029
 30
0.0
 10
21.2268
 20
6.3029
 30
0.0
 10
21.2268
 20
6.3029
 30
0.0
 10
21.2268
 20
6.3029
 30
0.0
 10
21.2268
 20
6.3029
 30
0.0
 10
20.8735
 20
8.6503
 30
0.0
 10
20.8735
 20
8.6503
 30
0.0
 10
20.8735
 20
8.6503
 30
0.0
 10
20.8735
 20
8.6503
 30
0.0
 10
21.6317
 20
8.6503
 30
0.0
 10
21.6317
 20
8.6503
 30
0.0
  0
SPLINE
  5
1C5
330
1F
100
AcDbEntity
  8
AXIS
 62
   250
100
AcDbSpline
210
0.0
220
0.0
230
1.0
 70
    24
 71
     3
 72
     8
 73
     4
 74
     0
 42
0.0000000001
 43
0.0000000001
 40
0.0
 40
0.0
 40
0.0
 40
0.0
 40
1.0
 40
1.0
 40
1.0
 40
1.0
 10
14.6462
 20
35.7046
 30
0.0
 10
14.6462
 20
35.7046
 30
0.0
 10
14.6462
 20
29.6931
 30
0.0
 10
14.6462
 20
29.6931
 30
0.0
  0
SPLINE
  5
1C6
330
1F
100
AcDbEntity
  8
AXIS
 62
   250
100
AcDbSpline
210
0.0
220
0.0
230
1.0
 70
    11
 71
     3
 72
    20
 73
    16
 74
     0
 42
0.0000000001
 43
0.0000000001
 40
0.0
 40
0.0
 40
0.0
 40
0.0
 40
0.2
 40
0.2
 40
0.2
 40
0.2
 40
0.4
 40
0.4
 40
0.4
 40
0.4
 40
0.6
 40
0.6
 40
0.6
 40
0.6
 40
1.0
 40
1.0
 40
1.0
 40
1.0
 10
15.0358
 20
31.7753
 30
0.0
 10
15.0358
 20
31.7753
 30
0.0
 10
14.7045
 20
29.4279
 30
0.0
 10
14.7045
 20
29.4279
 30
0.0
 10
14.7045
 20
29.4279
 30
0.0
 10
14.7045
 20
29.4279
 30
0.0
 10
14.6309
 20
29.4279
 30
0.0
 10
14.6309
 20
29.4279
 30
0.0
 10
14.6309
 20
29.4279
 30
0.0
 10
14.6309
 20
29.4279
 30
0.0
 10
14.2776
 20
31.7753
 30
0.0
 10
14.2776
 20
31.7753
 30
0.0
 10
14.2776
 20
31.7753
 30
0.0
 10
14.2776
 20
31.7753
 30
0.0
 10
15.0358
 20
31.7753
 30
0.0
 10
15.0358
 20
31.7753
 30
0.0
  0
SPLINE
  5
1C7
330
1F
100
AcDbEntity
  8
AXIS
 62
   250
100
AcDbSpline
210
0.0
220
0.0
230
1.0
 70
    24
 71
     3
 72
     8
 73
     4
 74
     0
 42
0.0000000001
 43
0.0000000001
 40
0.0
 40
0.0
 40
0.0
 40
0.0
 40
1.0
 40
1.0
 40
1.0
 40
1.0
 10
17.7269
 20
-4.3074
 30
0.0
 10
17.7269
 20
-4.3074
 30
0.0
 10
17.7269
 20
-0.3265
 30
0.0
 10
17.7269
 20
-0.3265
 30
0.0
  0
SPLINE
  5
1C8
330
1F
100
AcDbEntity
  8
AXIS
 62
   250
100
AcDbSpline
210
0.0
220
0.0
230
1.0
 70
    24
 71
     3
 72
     8
 73
     4
 74
     0
 42
0.0000000001
 43
0.0000000001
 40
0.0
 40
0.0
 40
0.0
 40
0.0
 40
1.0
 40
1.0
 40
1.0
 40
1.0
 10
-14.4551
 20
-3.5136
 30
0.0
 10
-14.4551
 20
-3.5136
 30
0.0
 10
-14.4551
 20
-0.2996
 30
0.0
 10
-14.4551
 20
-0.2996
 30
0.0
  0
SPLINE
  5
1C9
330
1F
100
AcDbEntity
  8
AXIS
 62
   250
100
AcDbSpline
210
0.0
220
0.0
230
1.0
 70
    11
 71
     3
 72
    40
 73
    36
 74
     0
 42
0.0000000001
 43
0.0000000001
 40
0.0
 40
0.0
 40
0.0
 40
0.0
 40
0.1
 40
0.1
 40
0.1
 40
0.1
 40
0.2
 40
0.2
 40
0.2
 40
0.2
 40
0.3
 40
0.3
 40
0.3
 40
0.3
 40
0.4
 40
0.4
 40
0.4
 40
0.4
 40
0.5
 40
0.5
 40
0.5
 40
0.5
 40
0.6
 40
0.6
 40
0.6
 40
0.6
 40
0.7
 40
0.7
 40
0.7
 40
0.7
 40
0.8
 40
0.8
 40
0.8
 40
0.8
 40
1.0
 40
1.0
 40
1.0
 40
1.0
 10
0.5006
 20
-0.2197
 30
0.0
 10
0.5006
 20
-0.2197
 30
0.0
 10
0.2527
 20
-0.2197
 30
0.0
 10
0.2527
 20
-0.2197
 30
0.0
 10
0.2527
 20
-0.2197
 30
0.0
 10
0.2527
 20
-0.2197
 30
0.0
 10
0.2527
 20
1.3607
 30
0.0
 10
0.2527
 20
1.3607
 30
0.0
 10
0.2527
 20
1.3607
 30
0.0
 10
0.1929
 20
1.3038
 30
0.0
 10
0.1149
 20
1.2469
 30
0.0
 10
0.018
 20
1.19
 30
0.0
 10
0.018
 20
1.19
 30
0.0
 10
-0.0794
 20
1.1331
 30
0.0
 10
-0.1664
 20
1.0903
 30
0.0
 10
-0.2436
 20
1.062
 30
0.0
 10
-0.2436
 20
1.062
 30
0.0
 10
-0.2436
 20
1.062
 30
0.0
 10
-0.2436
 20
1.3015
 30
0.0
 10
-0.2436
 20
1.3015
 30
0.0
 10
-0.2436
 20
1.3015
 30
0.0
 10
-0.1048
 20
1.3668
 30
0.0
 10
0.0166
 20
1.4459
 30
0.0
 10
0.1205
 20
1.5385
 30
0.0
 10
0.1205
 20
1.5385
 30
0.0
 10
0.224
 20
1.6317
 30
0.0
 10
0.2978
 20
1.7215
 30
0.0
 10
0.3411
 20
1.809
 30
0.0
 10
0.3411
 20
1.809
 30
0.0
 10
0.3411
 20
1.809
 30
0.0
 10
0.5006
 20
1.809
 30
0.0
 10
0.5006
 20
1.809
 30
0.0
 10
0.5006
 20
1.809
 30
0.0
 10
0.5006
 20
1.809
 30
0.0
 10
0.5006
 20
-0.2197
 30
0.0
 10
0.5006
 20
-0.2197
 30
0.0
  0
SPLINE
  5
1CA
330
1F
100
AcDbEntity
  8
AXIS
 62
   250
100
AcDbSpline
210
0.0
220
0.0
230
1.0
 70
    11
 71
     3
 72
    92
 73
    88
 74
     0
 42
0.0000000001
 43
0.0000000001
 40
0.0
 40
0.0
 40
0.0
 40
0.0
 40
0.0434782608695652
 40
0.0434782608695652
 40
0.0434782608695652
 40
0.0434782608695652
 40
0.0869565217391304
 40
0.0869565217391304
 40
0.0869565217391304
 40
0.0869565217391304
 40
0.1304347826086956
 40
0.1304347826086956
 40
0.1304347826086956
 40
0.1304347826086956
 40
0.1739130434782609
 40
0.1739130434782609
 40
0.1739130434782609
 40
0.1739130434782609
 40
0.2173913043478261
 40
0.2173913043478261
 40
0.2173913043478261
 40
0.2173913043478261
 40
0.2608695652173913
 40
0.2608695652173913
 40
0.2608695652173913
 40
0.2608695652173913
 40
0.3043478260869565
 40
0.3043478260869565
 40
0.3043478260869565
 40
0.3043478260869565
 40
0.3478260869565217
 40
0.3478260869565217
 40
0.3478260869565217
 40
0.3478260869565217
 40
0.391304347826087
 40
0.391304347826087
 40
0.391304347826087
 40
0.391304347826087
 40
0.4347826086956522
 40
0.4347826086956522
 40
0.4347826086956522
 40
0.4347826086956522
 40
0.4782608695652174
 40
0.4782608695652174
 40
0.4782608695652174
 40
0.4782608695652174
 40
0.5217391304347826
 40
0.5217391304347826
 40
0.5217391304347826
 40
0.5217391304347826
 40
0.5652173913043478
 40
0.5652173913043478
 40
0.5652173913043478
 40
0.5652173913043478
 40
0.6086956521739131
 40
0.6086956521739131
 40
0.6086956521739131
 40
0.6086956521739131
 40
0.6521739130434783
 40
0.6521739130434783
 40
0.6521739130434783
 40
0.6521739130434783
 40
0.6956521739130435
 40
0.6956521739130435
 40
0.6956521739130435
 40
0.6956521739130435
 40
0.7391304347826086
 40
0.7391304347826086
 40
0.7391304347826086
 40
0.7391304347826086
 40
0.782608695652174
 40
0.782608695652174
 40
0.782608695652174
 40
0.782608695652174
 40
0.8260869565217391
 40
0.8260869565217391
 40
0.8260869565217391
 40
0.8260869565217391
 40
0.8695652173913043
 40
0.8695652173913043
 40
0.8695652173913043
 40
0.8695652173913043
 40
0.9130434782608695
 40
0.9130434782608695
 40
0.9130434782608695
 40
0.9130434782608695
 40
1.0
 40
1.0
 40
1.0
 40
1.0
 10
1.136
 20
0.3095
 30
0.0
 10
1.136
 20
0.3095
 30
0.0
 10
1.3966
 20
0.3316
 30
0.0
 10
1.3966
 20
0.3316
 30
0.0
 10
1.3966
 20
0.3316
 30
0.0
 10
1.4159
 20
0.2046
 30
0.0
 10
1.4606
 20
0.1096
 30
0.0
 10
1.5307
 20
0.0456
 30
0.0
 10
1.5307
 20
0.0456
 30
0.0
 10
1.6012
 20
-0.0184
 30
0.0
 10
1.6859
 20
-0.0504
 30
0.0
 10
1.7851
 20
-0.0504
 30
0.0
 10
1.7851
 20
-0.0504
 30
0.0
 10
1.9046
 20
-0.0504
 30
0.0
 10
2.0057
 20
-0.0052
 30
0.0
 10
2.088
 20
0.0846
 30
0.0
 10
2.088
 20
0.0846
 30
0.0
 10
2.1708
 20
0.1749
 30
0.0
 10
2.2122
 20
0.2944
 30
0.0
 10
2.2122
 20
0.443
 30
0.0
 10
2.2122
 20
0.443
 30
0.0
 10
2.2122
 20
0.5846
 30
0.0
 10
2.1727
 20
0.6961
 30
0.0
 10
2.0932
 20
0.7779
 30
0.0
 10
2.0932
 20
0.7779
 30
0.0
 10
2.0137
 20
0.8598
 30
0.0
 10
1.9098
 20
0.9007
 30
0.0
 10
1.7809
 20
0.9007
 30
0.0
 10
1.7809
 20
0.9007
 30
0.0
 10
1.7009
 20
0.9007
 30
0.0
 10
1.629
 20
0.8824
 30
0.0
 10
1.5645
 20
0.8462
 30
0.0
 10
1.5645
 20
0.8462
 30
0.0
 10
1.5001
 20
0.8099
 30
0.0
 10
1.4498
 20
0.7629
 30
0.0
 10
1.4131
 20
0.705
 30
0.0
 10
1.4131
 20
0.705
 30
0.0
 10
1.4131
 20
0.705
 30
0.0
 10
1.1802
 20
0.7351
 30
0.0
 10
1.1802
 20
0.7351
 30
0.0
 10
1.1802
 20
0.7351
 30
0.0
 10
1.1802
 20
0.7351
 30
0.0
 10
1.3759
 20
1.7728
 30
0.0
 10
1.3759
 20
1.7728
 30
0.0
 10
1.3759
 20
1.7728
 30
0.0
 10
1.3759
 20
1.7728
 30
0.0
 10
2.3806
 20
1.7728
 30
0.0
 10
2.3806
 20
1.7728
 30
0.0
 10
2.3806
 20
1.7728
 30
0.0
 10
2.3806
 20
1.7728
 30
0.0
 10
2.3806
 20
1.5357
 30
0.0
 10
2.3806
 20
1.5357
 30
0.0
 10
2.3806
 20
1.5357
 30
0.0
 10
2.3806
 20
1.5357
 30
0.0
 10
1.5744
 20
1.5357
 30
0.0
 10
1.5744
 20
1.5357
 30
0.0
 10
1.5744
 20
1.5357
 30
0.0
 10
1.5744
 20
1.5357
 30
0.0
 10
1.4653
 20
0.9929
 30
0.0
 10
1.4653
 20
0.9929
 30
0.0
 10
1.4653
 20
0.9929
 30
0.0
 10
1.5866
 20
1.0776
 30
0.0
 10
1.7141
 20
1.1199
 30
0.0
 10
1.8472
 20
1.1199
 30
0.0
 10
1.8472
 20
1.1199
 30
0.0
 10
2.0236
 20
1.1199
 30
0.0
 10
2.1722
 20
1.0588
 30
0.0
 10
2.2936
 20
0.9365
 30
0.0
 10
2.2936
 20
0.9365
 30
0.0
 10
2.4149
 20
0.8142
 30
0.0
 10
2.4756
 20
0.6571
 30
0.0
 10
2.4756
 20
0.4652
 30
0.0
 10
2.4756
 20
0.4652
 30
0.0
 10
2.4756
 20
0.2822
 30
0.0
 10
2.422
 20
0.1241
 30
0.0
 10
2.3157
 20
-0.009
 30
0.0
 10
2.3157
 20
-0.009
 30
0.0
 10
2.1859
 20
-0.1722
 30
0.0
 10
2.009
 20
-0.254
 30
0.0
 10
1.7851
 20
-0.254
 30
0.0
 10
1.7851
 20
-0.254
 30
0.0
 10
1.6012
 20
-0.254
 30
0.0
 10
1.4512
 20
-0.2028
 30
0.0
 10
1.335
 20
-0.0998
 30
0.0
 10
1.335
 20
-0.0998
 30
0.0
 10
1.2188
 20
0.0033
 30
0.0
 10
1.1525
 20
0.1397
 30
0.0
 10
1.136
 20
0.3095
 30
0.0
  0
SPLINE
  5
1CB
330
1F
100
AcDbEntity
  8
AXIS
 62
   250
100
AcDbSpline
210
0.0
220
0.0
230
1.0
 70
    11
 71
     3
 72
    52
 73
    48
 74
     0
 42
0.0000000001
 43
0.0000000001
 40
0.0
 40
0.0
 40
0.0
 40
0.0
 40
0.0769230769230769
 40
0.0769230769230769
 40
0.0769230769230769
 40
0.0769230769230769
 40
0.1538461538461539
 40
0.1538461538461539
 40
0.1538461538461539
 40
0.1538461538461539
 40
0.2307692307692308
 40
0.2307692307692308
 40
0.2307692307692308
 40
0.2307692307692308
 40
0.3076923076923077
 40
0.3076923076923077
 40
0.3076923076923077
 40
0.3076923076923077
 40
0.3846153846153846
 40
0.3846153846153846
 40
0.3846153846153846
 40
0.3846153846153846
 40
0.4615384615384616
 40
0.4615384615384616
 40
0.4615384615384616
 40
0.4615384615384616
 40
0.5384615384615384
 40
0.5384615384615384
 40
0.5384615384615384
 40
0.5384615384615384
 40
0.6153846153846154
 40
0.6153846153846154
 40
0.6153846153846154
 40
0.6153846153846154
 40
0.6923076923076923
 40
0.6923076923076923
 40
0.6923076923076923
 40
0.6923076923076923
 40
0.7692307692307693
 40
0.7692307692307693
 40
0.7692307692307693
 40
0.7692307692307693
 40
0.8461538461538461
 40
0.8461538461538461
 40
0.8461538461538461
 40
0.8461538461538461
 40
1.0
 40
1.0
 40
1.0
 40
1.0
 10
2.7056
 20
0.7765
 30
0.0
 10
2.7056
 20
1.0155
 30
0.0
 10
2.7301
 20
1.2079
 30
0.0
 10
2.7795
 20
1.3532
 30
0.0
 10
2.7795
 20
1.3532
 30
0.0
 10
2.8284
 20
1.499
 30
0.0
 10
2.9018
 20
1.6114
 30
0.0
 10
2.9987
 20
1.6905
 30
0.0
 10
2.9987
 20
1.6905
 30
0.0
 10
3.0956
 20
1.7695
 30
0.0
 10
3.2174
 20
1.809
 30
0.0
 10
3.3641
 20
1.809
 30
0.0
 10
3.3641
 20
1.809
 30
0.0
 10
3.4728
 20
1.809
 30
0.0
 10
3.5678
 20
1.7869
 30
0.0
 10
3.6496
 20
1.7431
 30
0.0
 10
3.6496
 20
1.7431
 30
0.0
 10
3.7315
 20
1.6999
 30
0.0
 10
3.7988
 20
1.6368
 30
0.0
 10
3.8524
 20
1.5545
 30
0.0
 10
3.8524
 20
1.5545
 30
0.0
 10
3.9055
 20
1.4722
 30
0.0
 10
3.9474
 20
1.372
 30
0.0
 10
3.9775
 20
1.254
 30
0.0
 10
3.9775
 20
1.254
 30
0.0
 10
4.0081
 20
1.1359
 30
0.0
 10
4.0231
 20
0.9769
 30
0.0
 10
4.0231
 20
0.7765
 30
0.0
 10
4.0231
 20
0.7765
 30
0.0
 10
4.0231
 20
0.5395
 30
0.0
 10
3.9987
 20
0.3485
 30
0.0
 10
3.9502
 20
0.2027
 30
0.0
 10
3.9502
 20
0.2027
 30
0.0
 10
3.9013
 20
0.0569
 30
0.0
 10
3.8284
 20
-0.0555
 30
0.0
 10
3.7315
 20
-0.135
 30
0.0
 10
3.7315
 20
-0.135
 30
0.0
 10
3.6346
 20
-0.2145
 30
0.0
 10
3.5123
 20
-0.254
 30
0.0
 10
3.3641
 20
-0.254
 30
0.0
 10
3.3641
 20
-0.254
 30
0.0
 10
3.1694
 20
-0.254
 30
0.0
 10
3.0165
 20
-0.1844
 30
0.0
 10
2.9055
 20
-0.0447
 30
0.0
 10
2.9055
 20
-0.0447
 30
0.0
 10
2.7724
 20
0.1232
 30
0.0
 10
2.7056
 20
0.3974
 30
0.0
 10
2.7056
 20
0.7765
 30
0.0
  0
SPLINE
  5
1CC
330
1F
100
AcDbEntity
  8
AXIS
 62
   250
100
AcDbSpline
210
0.0
220
0.0
230
1.0
 70
    11
 71
     3
 72
    36
 73
    32
 74
     0
 42
0.0000000001
 43
0.0000000001
 40
0.0
 40
0.0
 40
0.0
 40
0.0
 40
0.1111111111111111
 40
0.1111111111111111
 40
0.1111111111111111
 40
0.1111111111111111
 40
0.2222222222222222
 40
0.2222222222222222
 40
0.2222222222222222
 40
0.2222222222222222
 40
0.3333333333333333
 40
0.3333333333333333
 40
0.3333333333333333
 40
0.3333333333333333
 40
0.4444444444444444
 40
0.4444444444444444
 40
0.4444444444444444
 40
0.4444444444444444
 40
0.5555555555555556
 40
0.5555555555555556
 40
0.5555555555555556
 40
0.5555555555555556
 40
0.6666666666666666
 40
0.6666666666666666
 40
0.6666666666666666
 40
0.6666666666666666
 40
0.7777777777777778
 40
0.7777777777777778
 40
0.7777777777777778
 40
0.7777777777777778
 40
1.0
 40
1.0
 40
1.0
 40
1.0
 10
2.9606
 20
0.7765
 30
0.0
 10
2.9606
 20
0.4449
 30
0.0
 10
2.9996
 20
0.2243
 30
0.0
 10
3.0772
 20
0.1143
 30
0.0
 10
3.0772
 20
0.1143
 30
0.0
 10
3.1548
 20
0.0047
 30
0.0
 10
3.2503
 20
-0.0504
 30
0.0
 10
3.3641
 20
-0.0504
 30
0.0
 10
3.3641
 20
-0.0504
 30
0.0
 10
3.4784
 20
-0.0504
 30
0.0
 10
3.5739
 20
0.0051
 30
0.0
 10
3.6515
 20
0.1152
 30
0.0
 10
3.6515
 20
0.1152
 30
0.0
 10
3.7291
 20
0.2253
 30
0.0
 10
3.7682
 20
0.4459
 30
0.0
 10
3.7682
 20
0.7765
 30
0.0
 10
3.7682
 20
0.7765
 30
0.0
 10
3.7682
 20
1.1091
 30
0.0
 10
3.7291
 20
1.3302
 30
0.0
 10
3.6515
 20
1.4393
 30
0.0
 10
3.6515
 20
1.4393
 30
0.0
 10
3.5739
 20
1.5489
 30
0.0
 10
3.4775
 20
1.6034
 30
0.0
 10
3.3618
 20
1.6034
 30
0.0
 10
3.3618
 20
1.6034
 30
0.0
 10
3.2475
 20
1.6034
 30
0.0
 10
3.1567
 20
1.555
 30
0.0
 10
3.0885
 20
1.4586
 30
0.0
 10
3.0885
 20
1.4586
 30
0.0
 10
3.0034
 20
1.3358
 30
0.0
 10
2.9606
 20
1.1081
 30
0.0
 10
2.9606
 20
0.7765
 30
0.0
  0
SPLINE
  5
1CD
330
1F
100
AcDbEntity
  8
AXIS
 62
   250
100
AcDbSpline
210
0.0
220
0.0
230
1.0
 70
    24
 71
     3
 72
     8
 73
     4
 74
     0
 42
0.0000000001
 43
0.0000000001
 40
0.0
 40
0.0
 40
0.0
 40
0.0
 40
1.0
 40
1.0
 40
1.0
 40
1.0
 10
16.8818
 20
-0.6088
 30
0.0
 10
16.8818
 20
-0.6088
 30
0.0
 10
-13.7753
 20
-0.6088
 30
0.0
 10
-13.7753
 20
-0.6088
 30
0.0
  0
SPLINE
  5
1CE
330
1F
100
AcDbEntity
  8
AXIS
 62
   250
100
AcDbSpline
210
0.0
220
0.0
230
1.0
 70
    11
 71
     3
 72
    20
 73
    16
 74
     0
 42
0.0000000001
 43
0.0000000001
 40
0.0
 40
0.0
 40
0.0
 40
0.0
 40
0.2
 40
0.2
 40
0.2
 40
0.2
 40
0.4
 40
0.4
 40
0.4
 40
0.4
 40
0.6
 40
0.6
 40
0.6
 40
0.6
 40
1.0
 40
1.0
 40
1.0
 40
1.0
 10
15.3134
 20
-0.2885
 30
0.0
 10
15.3134
 20
-0.2885
 30
0.0
 10
17.6608
 20
-0.6198
 30
0.0
 10
17.6608
 20
-0.6198
 30
0.0
 10
17.6608
 20
-0.6198
 30
0.0
 10
17.6608
 20
-0.6198
 30
0.0
 10
17.6608
 20
-0.6934
 30
0.0
 10
17.6608
 20
-0.6934
 30
0.0
 10
17.6608
 20
-0.6934
 30
0.0
 10
17.6608
 20
-0.6934
 30
0.0
 10
15.3134
 20
-1.0467
 30
0.0
 10
15.3134
 20
-1.0467
 30
0.0
 10
15.3134
 20
-1.0467
 30
0.0
 10
15.3134
 20
-1.0467
 30
0.0
 10
15.3134
 20
-0.2885
 30
0.0
 10
15.3134
 20
-0.2885
 30
0.0
  0
SPLINE
  5
1CF
330
1F
100
AcDbEntity
  8
AXIS
 62
   250
100
AcDbSpline
210
0.0
220
0.0
230
1.0
 70
    11
 71
     3
 72
    20
 73
    16
 74
     0
 42
0.0000000001
 43
0.0000000001
 40
0.0
 40
0.0
 40
0.0
 40
0.0
 40
0.2
 40
0.2
 40
0.2
 40
0.2
 40
0.4
 40
0.4
 40
0.4
 40
0.4
 40
0.6
 40
0.6
 40
0.6
 40
0.6
 40
1.0
 40
1.0
 40
1.0
 40
1.0
 10
-11.9062
 20
-0.9928
 30
0.0
 10
-11.9062
 20
-0.9928
 30
0.0
 10
-14.2536
 20
-0.6616
 30
0.0
 10
-14.2536
 20
-0.6616
 30
0.0
 10
-14.2536
 20
-0.6616
 30
0.0
 10
-14.2536
 20
-0.6616
 30
0.0
 10
-14.2536
 20
-0.588
 30
0.0
 10
-14.2536
 20
-0.588
 30
0.0
 10
-14.2536
 20
-0.588
 30
0.0
 10
-14.2536
 20
-0.588
 30
0.0
 10
-11.9062
 20
-0.2347
 30
0.0
 10
-11.9062
 20
-0.2347
 30
0.0
 10
-11.9062
 20
-0.2347
 30
0.0
 10
-11.9062
 20
-0.2347
 30
0.0
 10
-11.9062
 20
-0.9928
 30
0.0
 10
-11.9062
 20
-0.9928
 30
0.0
  0
SPLINE
  5
1D0
330
1F
100
AcDbEntity
  8
AXIS
 62
   250
100
AcDbSpline
210
0.0
220
0.0
230
1.0
 70
    24
 71
     3
 72
     8
 73
     4
 74
     0
 42
0.0000000001
 43
0.0000000001
 40
0.0
 40
0.0
 40
0.0
 40
0.0
 40
1.0
 40
1.0
 40
1.0
 40
1.0
 10
-14.2795
 20
-4.2534
 30
0.0
 10
-14.2795
 20
-4.2534
 30
0.0
 10
-18.2604
 20
-4.2534
 30
0.0
 10
-18.2604
 20
-4.2534
 30
0.0
  0
SPLINE
  5
1D1
330
1F
100
AcDbEntity
  8
AXIS
 62
   250
100
AcDbSpline
210
0.0
220
0.0
230
1.0
 70
    24
 71
     3
 72
     8
 73
     4
 74
     0
 42
0.0000000001
 43
0.0000000001
 40
0.0
 40
0.0
 40
0.0
 40
0.0
 40
1.0
 40
1.0
 40
1.0
 40
1.0
 10
-15.0733
 20
-36.4354
 30
0.0
 10
-15.0733
 20
-36.4354
 30
0.0
 10
-18.2873
 20
-36.4354
 30
0.0
 10
-18.2873
 20
-36.4354
 30
0.0
  0
SPLINE
  5
1D2
330
1F
100
AcDbEntity
  8
AXIS
 62
   250
100
AcDbSpline
210
0.0
220
0.0
230
1.0
 70
    11
 71
     3
 72
    40
 73
    36
 74
     0
 42
0.0000000001
 43
0.0000000001
 40
0.0
 40
0.0
 40
0.0
 40
0.0
 40
0.1
 40
0.1
 40
0.1
 40
0.1
 40
0.2
 40
0.2
 40
0.2
 40
0.2
 40
0.3
 40
0.3
 40
0.3
 40
0.3
 40
0.4
 40
0.4
 40
0.4
 40
0.4
 40
0.5
 40
0.5
 40
0.5
 40
0.5
 40
0.6
 40
0.6
 40
0.6
 40
0.6
 40
0.7
 40
0.7
 40
0.7
 40
0.7
 40
0.8
 40
0.8
 40
0.8
 40
0.8
 40
1.0
 40
1.0
 40
1.0
 40
1.0
 10
-18.3672
 20
-21.4797
 30
0.0
 10
-18.3672
 20
-21.4797
 30
0.0
 10
-18.3672
 20
-21.7276
 30
0.0
 10
-18.3672
 20
-21.7276
 30
0.0
 10
-18.3672
 20
-21.7276
 30
0.0
 10
-18.3672
 20
-21.7276
 30
0.0
 10
-19.9476
 20
-21.7276
 30
0.0
 10
-19.9476
 20
-21.7276
 30
0.0
 10
-19.9476
 20
-21.7276
 30
0.0
 10
-19.8907
 20
-21.7874
 30
0.0
 10
-19.8338
 20
-21.8654
 30
0.0
 10
-19.7769
 20
-21.9623
 30
0.0
 10
-19.7769
 20
-21.9623
 30
0.0
 10
-19.72
 20
-22.0597
 30
0.0
 10
-19.6772
 20
-22.1467
 30
0.0
 10
-19.6489
 20
-22.2239
 30
0.0
 10
-19.6489
 20
-22.2239
 30
0.0
 10
-19.6489
 20
-22.2239
 30
0.0
 10
-19.8884
 20
-22.2239
 30
0.0
 10
-19.8884
 20
-22.2239
 30
0.0
 10
-19.8884
 20
-22.2239
 30
0.0
 10
-19.9537
 20
-22.0851
 30
0.0
 10
-20.0328
 20
-21.9637
 30
0.0
 10
-20.1254
 20
-21.8598
 30
0.0
 10
-20.1254
 20
-21.8598
 30
0.0
 10
-20.2186
 20
-21.7563
 30
0.0
 10
-20.3084
 20
-21.6825
 30
0.0
 10
-20.3959
 20
-21.6392
 30
0.0
 10
-20.3959
 20
-21.6392
 30
0.0
 10
-20.3959
 20
-21.6392
 30
0.0
 10
-20.3959
 20
-21.4797
 30
0.0
 10
-20.3959
 20
-21.4797
 30
0.0
 10
-20.3959
 20
-21.4797
 30
0.0
 10
-20.3959
 20
-21.4797
 30
0.0
 10
-18.3672
 20
-21.4797
 30
0.0
 10
-18.3672
 20
-21.4797
 30
0.0
  0
SPLINE
  5
1D3
330
1F
100
AcDbEntity
  8
AXIS
 62
   250
100
AcDbSpline
210
0.0
220
0.0
230
1.0
 70
    11
 71
     3
 72
    92
 73
    88
 74
     0
 42
0.0000000001
 43
0.0000000001
 40
0.0
 40
0.0
 40
0.0
 40
0.0
 40
0.0434782608695652
 40
0.0434782608695652
 40
0.0434782608695652
 40
0.0434782608695652
 40
0.0869565217391304
 40
0.0869565217391304
 40
0.0869565217391304
 40
0.0869565217391304
 40
0.1304347826086956
 40
0.1304347826086956
 40
0.1304347826086956
 40
0.1304347826086956
 40
0.1739130434782609
 40
0.1739130434782609
 40
0.1739130434782609
 40
0.1739130434782609
 40
0.2173913043478261
 40
0.2173913043478261
 40
0.2173913043478261
 40
0.2173913043478261
 40
0.2608695652173913
 40
0.2608695652173913
 40
0.2608695652173913
 40
0.2608695652173913
 40
0.3043478260869565
 40
0.3043478260869565
 40
0.3043478260869565
 40
0.3043478260869565
 40
0.3478260869565217
 40
0.3478260869565217
 40
0.3478260869565217
 40
0.3478260869565217
 40
0.391304347826087
 40
0.391304347826087
 40
0.391304347826087
 40
0.391304347826087
 40
0.4347826086956522
 40
0.4347826086956522
 40
0.4347826086956522
 40
0.4347826086956522
 40
0.4782608695652174
 40
0.4782608695652174
 40
0.4782608695652174
 40
0.4782608695652174
 40
0.5217391304347826
 40
0.5217391304347826
 40
0.5217391304347826
 40
0.5217391304347826
 40
0.5652173913043478
 40
0.5652173913043478
 40
0.5652173913043478
 40
0.5652173913043478
 40
0.6086956521739131
 40
0.6086956521739131
 40
0.6086956521739131
 40
0.6086956521739131
 40
0.6521739130434783
 40
0.6521739130434783
 40
0.6521739130434783
 40
0.6521739130434783
 40
0.6956521739130435
 40
0.6956521739130435
 40
0.6956521739130435
 40
0.6956521739130435
 40
0.7391304347826086
 40
0.7391304347826086
 40
0.7391304347826086
 40
0.7391304347826086
 40
0.782608695652174
 40
0.782608695652174
 40
0.782608695652174
 40
0.782608695652174
 40
0.8260869565217391
 40
0.8260869565217391
 40
0.8260869565217391
 40
0.8260869565217391
 40
0.8695652173913043
 40
0.8695652173913043
 40
0.8695652173913043
 40
0.8695652173913043
 40
0.9130434782608695
 40
0.9130434782608695
 40
0.9130434782608695
 40
0.9130434782608695
 40
1.0
 40
1.0
 40
1.0
 40
1.0
 10
-18.8964
 20
-20.8443
 30
0.0
 10
-18.8964
 20
-20.8443
 30
0.0
 10
-18.9185
 20
-20.5837
 30
0.0
 10
-18.9185
 20
-20.5837
 30
0.0
 10
-18.9185
 20
-20.5837
 30
0.0
 10
-18.7915
 20
-20.5644
 30
0.0
 10
-18.6965
 20
-20.5197
 30
0.0
 10
-18.6325
 20
-20.4496
 30
0.0
 10
-18.6325
 20
-20.4496
 30
0.0
 10
-18.5685
 20
-20.3791
 30
0.0
 10
-18.5365
 20
-20.2944
 30
0.0
 10
-18.5365
 20
-20.1952
 30
0.0
 10
-18.5365
 20
-20.1952
 30
0.0
 10
-18.5365
 20
-20.0757
 30
0.0
 10
-18.5817
 20
-19.9746
 30
0.0
 10
-18.6715
 20
-19.8923
 30
0.0
 10
-18.6715
 20
-19.8923
 30
0.0
 10
-18.7618
 20
-19.8095
 30
0.0
 10
-18.8813
 20
-19.7681
 30
0.0
 10
-19.0299
 20
-19.7681
 30
0.0
 10
-19.0299
 20
-19.7681
 30
0.0
 10
-19.1715
 20
-19.7681
 30
0.0
 10
-19.283
 20
-19.8076
 30
0.0
 10
-19.3648
 20
-19.8871
 30
0.0
 10
-19.3648
 20
-19.8871
 30
0.0
 10
-19.4467
 20
-19.9666
 30
0.0
 10
-19.4876
 20
-20.0705
 30
0.0
 10
-19.4876
 20
-20.1994
 30
0.0
 10
-19.4876
 20
-20.1994
 30
0.0
 10
-19.4876
 20
-20.2794
 30
0.0
 10
-19.4693
 20
-20.3513
 30
0.0
 10
-19.4331
 20
-20.4158
 30
0.0
 10
-19.4331
 20
-20.4158
 30
0.0
 10
-19.3968
 20
-20.4802
 30
0.0
 10
-19.3498
 20
-20.5305
 30
0.0
 10
-19.2919
 20
-20.5672
 30
0.0
 10
-19.2919
 20
-20.5672
 30
0.0
 10
-19.2919
 20
-20.5672
 30
0.0
 10
-19.322
 20
-20.8001
 30
0.0
 10
-19.322
 20
-20.8001
 30
0.0
 10
-19.322
 20
-20.8001
 30
0.0
 10
-19.322
 20
-20.8001
 30
0.0
 10
-20.3597
 20
-20.6044
 30
0.0
 10
-20.3597
 20
-20.6044
 30
0.0
 10
-20.3597
 20
-20.6044
 30
0.0
 10
-20.3597
 20
-20.6044
 30
0.0
 10
-20.3597
 20
-19.5997
 30
0.0
 10
-20.3597
 20
-19.5997
 30
0.0
 10
-20.3597
 20
-19.5997
 30
0.0
 10
-20.3597
 20
-19.5997
 30
0.0
 10
-20.1226
 20
-19.5997
 30
0.0
 10
-20.1226
 20
-19.5997
 30
0.0
 10
-20.1226
 20
-19.5997
 30
0.0
 10
-20.1226
 20
-19.5997
 30
0.0
 10
-20.1226
 20
-20.4059
 30
0.0
 10
-20.1226
 20
-20.4059
 30
0.0
 10
-20.1226
 20
-20.4059
 30
0.0
 10
-20.1226
 20
-20.4059
 30
0.0
 10
-19.5798
 20
-20.515
 30
0.0
 10
-19.5798
 20
-20.515
 30
0.0
 10
-19.5798
 20
-20.515
 30
0.0
 10
-19.6645
 20
-20.3937
 30
0.0
 10
-19.7068
 20
-20.2662
 30
0.0
 10
-19.7068
 20
-20.1331
 30
0.0
 10
-19.7068
 20
-20.1331
 30
0.0
 10
-19.7068
 20
-19.9567
 30
0.0
 10
-19.6457
 20
-19.8081
 30
0.0
 10
-19.5234
 20
-19.6867
 30
0.0
 10
-19.5234
 20
-19.6867
 30
0.0
 10
-19.4011
 20
-19.5654
 30
0.0
 10
-19.244
 20
-19.5047
 30
0.0
 10
-19.0521
 20
-19.5047
 30
0.0
 10
-19.0521
 20
-19.5047
 30
0.0
 10
-18.8691
 20
-19.5047
 30
0.0
 10
-18.711
 20
-19.5583
 30
0.0
 10
-18.5779
 20
-19.6646
 30
0.0
 10
-18.5779
 20
-19.6646
 30
0.0
 10
-18.4147
 20
-19.7944
 30
0.0
 10
-18.3329
 20
-19.9713
 30
0.0
 10
-18.3329
 20
-20.1952
 30
0.0
 10
-18.3329
 20
-20.1952
 30
0.0
 10
-18.3329
 20
-20.3791
 30
0.0
 10
-18.3841
 20
-20.5291
 30
0.0
 10
-18.4871
 20
-20.6453
 30
0.0
 10
-18.4871
 20
-20.6453
 30
0.0
 10
-18.5902
 20
-20.7615
 30
0.0
 10
-18.7266
 20
-20.8278
 30
0.0
 10
-18.8964
 20
-20.8443
 30
0.0
  0
SPLINE
  5
1D4
330
1F
100
AcDbEntity
  8
AXIS
 62
   250
100
AcDbSpline
210
0.0
220
0.0
230
1.0
 70
    11
 71
     3
 72
    52
 73
    48
 74
     0
 42
0.0000000001
 43
0.0000000001
 40
0.0
 40
0.0
 40
0.0
 40
0.0
 40
0.0769230769230769
 40
0.0769230769230769
 40
0.0769230769230769
 40
0.0769230769230769
 40
0.1538461538461539
 40
0.1538461538461539
 40
0.1538461538461539
 40
0.1538461538461539
 40
0.2307692307692308
 40
0.2307692307692308
 40
0.2307692307692308
 40
0.2307692307692308
 40
0.3076923076923077
 40
0.3076923076923077
 40
0.3076923076923077
 40
0.3076923076923077
 40
0.3846153846153846
 40
0.3846153846153846
 40
0.3846153846153846
 40
0.3846153846153846
 40
0.4615384615384616
 40
0.4615384615384616
 40
0.4615384615384616
 40
0.4615384615384616
 40
0.5384615384615384
 40
0.5384615384615384
 40
0.5384615384615384
 40
0.5384615384615384
 40
0.6153846153846154
 40
0.6153846153846154
 40
0.6153846153846154
 40
0.6153846153846154
 40
0.6923076923076923
 40
0.6923076923076923
 40
0.6923076923076923
 40
0.6923076923076923
 40
0.7692307692307693
 40
0.7692307692307693
 40
0.7692307692307693
 40
0.7692307692307693
 40
0.8461538461538461
 40
0.8461538461538461
 40
0.8461538461538461
 40
0.8461538461538461
 40
1.0
 40
1.0
 40
1.0
 40
1.0
 10
-19.3634
 20
-19.2747
 30
0.0
 10
-19.6024
 20
-19.2747
 30
0.0
 10
-19.7948
 20
-19.2502
 30
0.0
 10
-19.9401
 20
-19.2008
 30
0.0
 10
-19.9401
 20
-19.2008
 30
0.0
 10
-20.0859
 20
-19.1519
 30
0.0
 10
-20.1983
 20
-19.0785
 30
0.0
 10
-20.2774
 20
-18.9816
 30
0.0
 10
-20.2774
 20
-18.9816
 30
0.0
 10
-20.3564
 20
-18.8847
 30
0.0
 10
-20.3959
 20
-18.7629
 30
0.0
 10
-20.3959
 20
-18.6162
 30
0.0
 10
-20.3959
 20
-18.6162
 30
0.0
 10
-20.3959
 20
-18.5075
 30
0.0
 10
-20.3738
 20
-18.4125
 30
0.0
 10
-20.33
 20
-18.3307
 30
0.0
 10
-20.33
 20
-18.3307
 30
0.0
 10
-20.2868
 20
-18.2488
 30
0.0
 10
-20.2237
 20
-18.1815
 30
0.0
 10
-20.1414
 20
-18.1279
 30
0.0
 10
-20.1414
 20
-18.1279
 30
0.0
 10
-20.0591
 20
-18.0748
 30
0.0
 10
-19.9589
 20
-18.0329
 30
0.0
 10
-19.8409
 20
-18.0028
 30
0.0
 10
-19.8409
 20
-18.0028
 30
0.0
 10
-19.7228
 20
-17.9722
 30
0.0
 10
-19.5638
 20
-17.9572
 30
0.0
 10
-19.3634
 20
-17.9572
 30
0.0
 10
-19.3634
 20
-17.9572
 30
0.0
 10
-19.1264
 20
-17.9572
 30
0.0
 10
-18.9354
 20
-17.9816
 30
0.0
 10
-18.7896
 20
-18.0301
 30
0.0
 10
-18.7896
 20
-18.0301
 30
0.0
 10
-18.6438
 20
-18.079
 30
0.0
 10
-18.5314
 20
-18.1519
 30
0.0
 10
-18.4519
 20
-18.2488
 30
0.0
 10
-18.4519
 20
-18.2488
 30
0.0
 10
-18.3724
 20
-18.3457
 30
0.0
 10
-18.3329
 20
-18.468
 30
0.0
 10
-18.3329
 20
-18.6162
 30
0.0
 10
-18.3329
 20
-18.6162
 30
0.0
 10
-18.3329
 20
-18.8109
 30
0.0
 10
-18.4025
 20
-18.9638
 30
0.0
 10
-18.5422
 20
-19.0748
 30
0.0
 10
-18.5422
 20
-19.0748
 30
0.0
 10
-18.7101
 20
-19.2079
 30
0.0
 10
-18.9843
 20
-19.2747
 30
0.0
 10
-19.3634
 20
-19.2747
 30
0.0
  0
SPLINE
  5
1D5
330
1F
100
AcDbEntity
  8
AXIS
 62
   250
100
AcDbSpline
210
0.0
220
0.0
230
1.0
 70
    11
 71
     3
 72
    36
 73
    32
 74
     0
 42
0.0000000001
 43
0.0000000001
 40
0.0
 40
0.0
 40
0.0
 40
0.0
 40
0.1111111111111111
 40
0.1111111111111111
 40
0.1111111111111111
 40
0.1111111111111111
 40
0.2222222222222222
 40
0.2222222222222222
 40
0.2222222222222222
 40
0.2222222222222222
 40
0.3333333333333333
 40
0.3333333333333333
 40
0.3333333333333333
 40
0.3333333333333333
 40
0.4444444444444444
 40
0.4444444444444444
 40
0.4444444444444444
 40
0.4444444444444444
 40
0.5555555555555556
 40
0.5555555555555556
 40
0.5555555555555556
 40
0.5555555555555556
 40
0.6666666666666666
 40
0.6666666666666666
 40
0.6666666666666666
 40
0.6666666666666666
 40
0.7777777777777778
 40
0.7777777777777778
 40
0.7777777777777778
 40
0.7777777777777778
 40
1.0
 40
1.0
 40
1.0
 40
1.0
 10
-19.3634
 20
-19.0197
 30
0.0
 10
-19.0318
 20
-19.0197
 30
0.0
 10
-18.8112
 20
-18.9807
 30
0.0
 10
-18.7012
 20
-18.9031
 30
0.0
 10
-18.7012
 20
-18.9031
 30
0.0
 10
-18.5916
 20
-18.8255
 30
0.0
 10
-18.5365
 20
-18.73
 30
0.0
 10
-18.5365
 20
-18.6162
 30
0.0
 10
-18.5365
 20
-18.6162
 30
0.0
 10
-18.5365
 20
-18.5019
 30
0.0
 10
-18.592
 20
-18.4064
 30
0.0
 10
-18.7021
 20
-18.3288
 30
0.0
 10
-18.7021
 20
-18.3288
 30
0.0
 10
-18.8122
 20
-18.2512
 30
0.0
 10
-19.0328
 20
-18.2121
 30
0.0
 10
-19.3634
 20
-18.2121
 30
0.0
 10
-19.3634
 20
-18.2121
 30
0.0
 10
-19.696
 20
-18.2121
 30
0.0
 10
-19.9171
 20
-18.2512
 30
0.0
 10
-20.0262
 20
-18.3288
 30
0.0
 10
-20.0262
 20
-18.3288
 30
0.0
 10
-20.1358
 20
-18.4064
 30
0.0
 10
-20.1903
 20
-18.5028
 30
0.0
 10
-20.1903
 20
-18.6185
 30
0.0
 10
-20.1903
 20
-18.6185
 30
0.0
 10
-20.1903
 20
-18.7328
 30
0.0
 10
-20.1419
 20
-18.8236
 30
0.0
 10
-20.0455
 20
-18.8918
 30
0.0
 10
-20.0455
 20
-18.8918
 30
0.0
 10
-19.9227
 20
-18.9769
 30
0.0
 10
-19.695
 20
-19.0197
 30
0.0
 10
-19.3634
 20
-19.0197
 30
0.0
  0
SPLINE
  5
1D6
330
1F
100
AcDbEntity
  8
AXIS
 62
   250
100
AcDbSpline
210
0.0
220
0.0
230
1.0
 70
    24
 71
     3
 72
     8
 73
     4
 74
     0
 42
0.0000000001
 43
0.0000000001
 40
0.0
 40
0.0
 40
0.0
 40
0.0
 40
1.0
 40
1.0
 40
1.0
 40
1.0
 10
-17.9781
 20
-5.0985
 30
0.0
 10
-17.9781
 20
-5.0985
 30
0.0
 10
-17.9781
 20
-35.7556
 30
0.0
 10
-17.9781
 20
-35.7556
 30
0.0
  0
SPLINE
  5
1D7
330
1F
100
AcDbEntity
  8
AXIS
 62
   250
100
AcDbSpline
210
0.0
220
0.0
230
1.0
 70
    11
 71
     3
 72
    20
 73
    16
 74
     0
 42
0.0000000001
 43
0.0000000001
 40
0.0
 40
0.0
 40
0.0
 40
0.0
 40
0.2
 40
0.2
 40
0.2
 40
0.2
 40
0.4
 40
0.4
 40
0.4
 40
0.4
 40
0.6
 40
0.6
 40
0.6
 40
0.6
 40
1.0
 40
1.0
 40
1.0
 40
1.0
 10
-18.2984
 20
-6.6669
 30
0.0
 10
-18.2984
 20
-6.6669
 30
0.0
 10
-17.9671
 20
-4.3195
 30
0.0
 10
-17.9671
 20
-4.3195
 30
0.0
 10
-17.9671
 20
-4.3195
 30
0.0
 10
-17.9671
 20
-4.3195
 30
0.0
 10
-17.8935
 20
-4.3195
 30
0.0
 10
-17.8935
 20
-4.3195
 30
0.0
 10
-17.8935
 20
-4.3195
 30
0.0
 10
-17.8935
 20
-4.3195
 30
0.0
 10
-17.5402
 20
-6.6669
 30
0.0
 10
-17.5402
 20
-6.6669
 30
0.0
 10
-17.5402
 20
-6.6669
 30
0.0
 10
-17.5402
 20
-6.6669
 30
0.0
 10
-18.2984
 20
-6.6669
 30
0.0
 10
-18.2984
 20
-6.6669
 30
0.0
  0
SPLINE
  5
1D8
330
1F
100
AcDbEntity
  8
AXIS
 62
   250
100
AcDbSpline
210
0.0
220
0.0
230
1.0
 70
    11
 71
     3
 72
    20
 73
    16
 74
     0
 42
0.0000000001
 43
0.0000000001
 40
0.0
 40
0.0
 40
0.0
 40
0.0
 40
0.2
 40
0.2
 40
0.2
 40
0.2
 40
0.4
 40
0.4
 40
0.4
 40
0.4
 40
0.6
 40
0.6
 40
0.6
 40
0.6
 40
1.0
 40
1.0
 40
1.0
 40
1.0
 10
-17.5941
 20
-33.8865
 30
0.0
 10
-17.5941
 20
-33.8865
 30
0.0
 10
-17.9253
 20
-36.2339
 30
0.0
 10
-17.9253
 20
-36.2339
 30
0.0
 10
-17.9253
 20
-36.2339
 30
0.0
 10
-17.9253
 20
-36.2339
 30
0.0
 10
-17.9989
 20
-36.2339
 30
0.0
 10
-17.9989
 20
-36.2339
 30
0.0
 10
-17.9989
 20
-36.2339
 30
0.0
 10
-17.9989
 20
-36.2339
 30
0.0
 10
-18.3522
 20
-33.8865
 30
0.0
 10
-18.3522
 20
-33.8865
 30
0.0
 10
-18.3522
 20
-33.8865
 30
0.0
 10
-18.3522
 20
-33.8865
 30
0.0
 10
-17.5941
 20
-33.8865
 30
0.0
 10
-17.5941
 20
-33.8865
 30
0.0
  0
ENDSEC
  0
SECTION
  2
OBJECTS
  0
DICTIONARY
  5
C
330
0
100
AcDbDictionary
  3
ACAD_GROUP
350
D
  3
ACAD_LAYOUT
350
1A
  3
ACAD_MATERIAL
350
3B
  3
ACAD_MLEADERSTYLE
350
1FB
  3
ACAD_MLINESTYLE
350
17
  3
ACAD_PLOTSETTINGS
350
19
  3
ACAD_VISUALSTYLE
350
2A
  3
ACDBHEADERROUNDTRIPXREC
350
1D9
  3
ACDBVARIABLEDICTIONARY
350
1F9
  0
DICTIONARY
  5
D
102
{ACAD_REACTORS
330
C
102
}
330
C
100
AcDbDictionary
  0
DICTIONARY
  5
1A
102
{ACAD_REACTORS
330
C
102
}
330
C
100
AcDbDictionary
  0
DICTIONARY
  5
3B
102
{ACAD_REACTORS
330
C
102
}
330
C
100
AcDbDictionary
  3
BYBLOCK
350
3D
  3
BYLAYER
350
3C
  3
GLOBAL
350
3E
  0
DICTIONARY
  5
1FB
102
{ACAD_REACTORS
330
C
102
}
330
C
100
AcDbDictionary
  0
DICTIONARY
  5
17
102
{ACAD_REACTORS
330
C
102
}
330
C
100
AcDbDictionary
  3
STANDARD
350
18
  0
DICTIONARY
  5
19
102
{ACAD_REACTORS
330
C
102
}
330
C
100
AcDbDictionary
  0
DICTIONARY
  5
2A
102
{ACAD_REACTORS
330
C
102
}
330
C
100
AcDbDictionary
  3
2DWIREFRAME
350
2F
  3
3D_HIDDEN
350
31
  3
3DWIREFRAME
350
30
  3
BASIC
350
32
  3
BRIGHTEN
350
36
  3
COLORCHANGE
350
3A
  3
CONCEPTUAL
350
34
  3
DIM
350
35
  3
FACEPATTERN
350
39
  3
FLAT
350
2B
  3
FLATWITHEDGES
350
2C
  3
GOURAUD
350
2D
  3
GOURAUDWITHEDGES
350
2E
  3
LINEPATTERN
350
38
  3
REALISTIC
350
33
  3
THICKEN
350
37
  0
DICTIONARY
  5
1D9
102
{ACAD_REACTORS
330
C
102
}
330
C
100
AcDbDictionary
  3
CEPSNTYPE
350
1E2
  3
DIMSTYLEDATA
350
1F8
  3
FINGERPRINTGUID
350
1E3
  3
HYPERLINKBASE
350
1DC
  3
INSUNITS
350
1E1
  3
LAYOUTDICT
350
1DE
  3
LWETCUNION
350
1E0
  3
PLOTSETDICT
350
1DF
  3
PSVPSCALE
350
1E5
  3
PUCSBASE
350
1E8
  3
PUCSORGBACK
350
1EE
  3
PUCSORGBOTTOM
350
1EA
  3
PUCSORGFRONT
350
1ED
  3
PUCSORGLEFT
350
1EB
  3
PUCSORGRIGHT
350
1EC
  3
PUCSORGTOP
350
1E9
  3
PUCSORTHOREF
350
1E6
  3
PUCSORTHOVIEW
350
1E7
  3
STYLESHEET
350
1DD
  3
TSTACKALIGN
350
1DA
  3
TSTACKSIZE
350
1DB
  3
UCSBASE
350
1F1
  3
UCSORGBACK
350
1F7
  3
UCSORGBOTTOM
350
1F3
  3
UCSORGFRONT
350
1F6
  3
UCSORGLEFT
350
1F4
  3
UCSORGRIGHT
350
1F5
  3
UCSORGTOP
350
1F2
  3
UCSORTHOREF
350
1EF
  3
UCSORTHOVIEW
350
1F0
  3
VERSIONGUID
350
1E4
  0
DICTIONARY
  5
1F9
102
{ACAD_REACTORS
330
C
102
}
330
C
100
AcDbDictionary
  3
DIMASSOC
350
1FC
  3
HIDETEXT
350
1FD
  0
MATERIAL
  5
3D
102
{ACAD_REACTORS
330
3B
102
}
102
{ACAD_XDICTIONARY
360
200
102
}
330
3B
100
AcDbMaterial
  1
ByBlock
  0
MATERIAL
  5
3C
102
{ACAD_REACTORS
330
3B
102
}
102
{ACAD_XDICTIONARY
360
1FE
102
}
330
3B
100
AcDbMaterial
  1
ByLayer
  0
MATERIAL
  5
3E
102
{ACAD_REACTORS
330
3B
102
}
102
{ACAD_XDICTIONARY
360
202
102
}
330
3B
100
AcDbMaterial
  1
Global
  0
MLINESTYLE
  5
18
102
{ACAD_REACTORS
330
17
102
}
330
17
100
AcDbMlineStyle
  2
Standard
 70
     0
  3

 62
   256
 51
90.0
 52
90.0
 71
     2
 49
0.5
 62
   256
  6
BYLAYER
 49
-0.5
 62
   256
  6
BYLAYER
  0
ACAD_PROXY_OBJECT
  5
2F
102
{ACAD_REACTORS
330
2A
102
}
330
2A
100
AcDbProxyObject
 90
      499
 91
      501
 93
      436
310
42CC9915DA5C99599C985B595049028333333333333E3BF0000000000000FB0107901411070040501600405405064090741402480A0340
1001
ACAD
1000
AcDbSavedByObjectVersion
1070
     0
  0
ACAD_PROXY_OBJECT
  5
31
102
{ACAD_REACTORS
330
2A
102
}
330
2A
100
AcDbProxyObject
 90
      499
 91
      501
 93
      500
310
424CD108121A5919195B90640502408333333333333E3BF0000000000000FB01079024090700405020000000000001110200405405064090740C02480A0340
1001
ACAD
1000
AcDbSavedByObjectVersion
1070
     0
  0
ACAD_PROXY_OBJECT
  5
30
102
{ACAD_REACTORS
330
2A
102
}
330
2A
100
AcDbProxyObject
 90
      499
 91
      501
 93
      436
310
42CCD915DA5C99599C985B595059028333333333333E3BF0000000000000FB0107901411070040501600405405064090741402480A0340
1001
ACAD
1000
AcDbSavedByObjectVersion
1070
     0
  0
ACAD_PROXY_OBJECT
  5
32
102
{ACAD_REACTORS
330
2A
102
}
330
2A
100
AcDbProxyObject
 90
      499
 91
      501
 93
      388
310
4150985CDA58D07406404333333333333E3BF0000000000000FB0107A41107004050150841D405064090741402480A0350
1001
ACAD
1000
AcDbSavedByObjectVersion
1070
     0
  0
ACAD_PROXY_OBJECT
  5
36
102
{ACAD_REACTORS
330
2A
102
}
330
2A
100
AcDbProxyObject
 90
      499
 91
      501
 93
      428
310
42109C9A59DA1D195B90C409028333333333333E3BF0000000000000FB010790141107004050150841D405064090741402480A029950
1001
ACAD
1000
AcDbSavedByObjectVersion
1070
     0
  0
ACAD_PROXY_OBJECT
  5
3A
102
{ACAD_REACTORS
330
2A
102
}
330
2A
100
AcDbProxyObject
 90
      499
 91
      501
 93
      452
310
42D0DBDB1BDC90DA185B99D95104090240C333333333333E3BF0000000000000FB0108901411070040501508421405064090741402480A0350
1001
ACAD
1000
AcDbSavedByObjectVersion
1070
     0
  0
ACAD_PROXY_OBJECT
  5
34
102
{ACAD_REACTORS
330
2A
102
}
330
2A
100
AcDbProxyObject
 90
      499
 91
      501
 93
      500
310
4290DBDB98D95C1D1D585B10940D028333333333333E3BF0000000000000FB0107902409070040501000000000000111010841D405064090740C02480A0340
1001
ACAD
1000
AcDbSavedByObjectVersion
1070
     0
  0
ACAD_PROXY_OBJECT
  5
35
102
{ACAD_REACTORS
330
2A
102
}
330
2A
100
AcDbProxyObject
 90
      499
 91
      501
 93
      412
310
40D11A5B50B409028333333333333E3BF0000000000000FB010790141107004050150841D405064090741402480A02677FFFFFD0
1001
ACAD
1000
AcDbSavedByObjectVersion
1070
     0
  0
ACAD_PROXY_OBJECT
  5
39
102
{ACAD_REACTORS
330
2A
102
}
330
2A
100
AcDbProxyObject
 90
      499
 91
      501
 93
      444
310
42D19858D95C185D1D195C9B90F409028333333333333E3BF0000000000000FB010790141107004050150841D405064090741402480A0350
1001
ACAD
1000
AcDbSavedByObjectVersion
1070
     0
  0
ACAD_PROXY_OBJECT
  5
2B
102
{ACAD_REACTORS
330
2A
102
}
330
2A
100
AcDbProxyObject
 90
      499
 91
      501
 93
      388
310
41119B185D240901404333333333333E3BF0000000000000F9010740A41107004050150841D405064090741402480A1B50
1001
ACAD
1000
AcDbSavedByObjectVersion
1070
     0
  0
ACAD_PROXY_OBJECT
  5
2C
102
{ACAD_REACTORS
330
2A
102
}
330
2A
100
AcDbProxyObject
 90
      499
 91
      501
 93
      476
310
43519B185D15DA5D1A115919D95CD0140901404333333333333E3BF0000000000000F9010740901411070040501600405405064090741402480A1B50
1001
ACAD
1000
AcDbSavedByObjectVersion
1070
     0
  0
ACAD_PROXY_OBJECT
  5
2D
102
{ACAD_REACTORS
330
2A
102
}
330
2A
100
AcDbProxyObject
 90
      499
 91
      501
 93
      412
310
41D1DBDD5C985D5910240902404333333333333E3BF0000000000000F9010740A411070040501641D405064090741402480A1B50
1001
ACAD
1000
AcDbSavedByObjectVersion
1070
     0
  0
ACAD_PROXY_OBJECT
  5
2E
102
{ACAD_REACTORS
330
2A
102
}
330
2A
100
AcDbProxyObject
 90
      499
 91
      501
 93
      500
310
4411DBDD5C985D5915DA5D1A115919D95CD0340902404333333333333E3BF0000000000000F9010740901411070040501600405405064090741402480A1B50
1001
ACAD
1000
AcDbSavedByObjectVersion
1070
     0
  0
ACAD_PROXY_OBJECT
  5
38
102
{ACAD_REACTORS
330
2A
102
}
330
2A
100
AcDbProxyObject
 90
      499
 91
      501
 93
      444
310
42D31A5B995C185D1D195C9B90E409028333333333333E3BF0000000000000FB010790141107004050750841D405064090741402483A0350
1001
ACAD
1000
AcDbSavedByObjectVersion
1070
     0
  0
ACAD_PROXY_OBJECT
  5
33
102
{ACAD_REACTORS
330
2A
102
}
330
2A
100
AcDbProxyObject
 90
      499
 91
      501
 93
      420
310
425499585B1A5CDD1A58D08409028333333333333E3BF0000000000000FB01079019070040501508421405064090741402480A1B40
1001
ACAD
1000
AcDbSavedByObjectVersion
1070
     0
  0
ACAD_PROXY_OBJECT
  5
37
102
{ACAD_REACTORS
330
2A
102
}
330
2A
100
AcDbProxyObject
 90
      499
 91
      501
 93
      412
310
41D51A1A58DAD95B90D409028333333333333E3BF0000000000000FB010790141107004050150C41D405064090741402480A0350
1001
ACAD
1000
AcDbSavedByObjectVersion
1070
     0
  0
XRECORD
  5
1E2
102
{ACAD_REACTORS
330
1D9
102
}
330
1D9
100
AcDbXrecord
 90
        0
  0
XRECORD
  5
1F8
102
{ACAD_REACTORS
330
1D9
102
}
330
1D9
100
AcDbXrecord
1000
DSTYLE
1002
{
1070
   340
340
11
1002
}
  0
XRECORD
  5
1E3
102
{ACAD_REACTORS
330
1D9
102
}
330
1D9
100
AcDbXrecord
  1
{8426D367-0792-437C-B36F-62B96253F76E}
  0
XRECORD
  5
1DC
102
{ACAD_REACTORS
330
1D9
102
}
330
1D9
100
AcDbXrecord
  1

  0
XRECORD
  5
1E1
102
{ACAD_REACTORS
330
1D9
102
}
330
1D9
100
AcDbXrecord
 90
        4
  0
XRECORD
  5
1DE
102
{ACAD_REACTORS
330
1D9
102
}
330
1D9
100
AcDbXrecord
340
1A
  0
XRECORD
  5
1E0
102
{ACAD_REACTORS
330
1D9
102
}
330
1D9
100
AcDbXrecord
 90
    10781
  0
XRECORD
  5
1DF
102
{ACAD_REACTORS
330
1D9
102
}
330
1D9
100
AcDbXrecord
340
19
  0
XRECORD
  5
1E5
102
{ACAD_REACTORS
330
1D9
102
}
330
1D9
100
AcDbXrecord
 40
0.0
  0
XRECORD
  5
1E8
102
{ACAD_REACTORS
330
1D9
102
}
330
1D9
100
AcDbXrecord
340
0
  0
XRECORD
  5
1EE
102
{ACAD_REACTORS
330
1D9
102
}
330
1D9
100
AcDbXrecord
 10
0.0
 20
0.0
 30
0.0
  0
XRECORD
  5
1EA
102
{ACAD_REACTORS
330
1D9
102
}
330
1D9
100
AcDbXrecord
 10
0.0
 20
0.0
 30
0.0
  0
XRECORD
  5
1ED
102
{ACAD_REACTORS
330
1D9
102
}
330
1D9
100
AcDbXrecord
 10
0.0
 20
0.0
 30
0.0
  0
XRECORD
  5
1EB
102
{ACAD_REACTORS
330
1D9
102
}
330
1D9
100
AcDbXrecord
 10
0.0
 20
0.0
 30
0.0
  0
XRECORD
  5
1EC
102
{ACAD_REACTORS
330
1D9
102
}
330
1D9
100
AcDbXrecord
 10
0.0
 20
0.0
 30
0.0
  0
XRECORD
  5
1E9
102
{ACAD_REACTORS
330
1D9
102
}
330
1D9
100
AcDbXrecord
 10
0.0
 20
0.0
 30
0.0
  0
XRECORD
  5
1E6
102
{ACAD_REACTORS
330
1D9
102
}
330
1D9
100
AcDbXrecord
340
0
  0
XRECORD
  5
1E7
102
{ACAD_REACTORS
330
1D9
102
}
330
1D9
100
AcDbXrecord
 70
     0
  0
XRECORD
  5
1DD
102
{ACAD_REACTORS
330
1D9
102
}
330
1D9
100
AcDbXrecord
  1

  0
XRECORD
  5
1DA
102
{ACAD_REACTORS
330
1D9
102
}
330
1D9
100
AcDbXrecord
 90
        1
  0
XRECORD
  5
1DB
102
{ACAD_REACTORS
330
1D9
102
}
330
1D9
100
AcDbXrecord
 90
       70
  0
XRECORD
  5
1F1
102
{ACAD_REACTORS
330
1D9
102
}
330
1D9
100
AcDbXrecord
340
0
  0
XRECORD
  5
1F7
102
{ACAD_REACTORS
330
1D9
102
}
330
1D9
100
AcDbXrecord
 10
0.0
 20
0.0
 30
0.0
  0
XRECORD
  5
1F3
102
{ACAD_REACTORS
330
1D9
102
}
330
1D9
100
AcDbXrecord
 10
0.0
 20
0.0
 30
0.0
  0
XRECORD
  5
1F6
102
{ACAD_REACTORS
330
1D9
102
}
330
1D9
100
AcDbXrecord
 10
0.0
 20
0.0
 30
0.0
  0
XRECORD
  5
1F4
102
{ACAD_REACTORS
330
1D9
102
}
330
1D9
100
AcDbXrecord
 10
0.0
 20
0.0
 30
0.0
  0
XRECORD
  5
1F5
102
{ACAD_REACTORS
330
1D9
102
}
330
1D9
100
AcDbXrecord
 10
0.0
 20
0.0
 30
0.0
  0
XRECORD
  5
1F2
102
{ACAD_REACTORS
330
1D9
102
}
330
1D9
100
AcDbXrecord
 10
0.0
 20
0.0
 30
0.0
  0
XRECORD
  5
1EF
102
{ACAD_REACTORS
330
1D9
102
}
330
1D9
100
AcDbXrecord
340
0
  0
XRECORD
  5
1F0
102
{ACAD_REACTORS
330
1D9
102
}
330
1D9
100
AcDbXrecord
 70
     0
  0
XRECORD
  5
1E4
102
{ACAD_REACTORS
330
1D9
102
}
330
1D9
100
AcDbXrecord
  1
{FAEB1C32-E019-11D5-929B-00C0DF256EC4}
  0
DICTIONARYVAR
  5
1FC
102
{ACAD_REACTORS
330
1F9
102
}
330
1F9
100
DictionaryVariables
280
     0
  1
2
  0
DICTIONARYVAR
  5
1FD
102
{ACAD_REACTORS
330
1F9
102
}
330
1F9
100
DictionaryVariables
280
     0
  1
1
  0
DICTIONARY
  5
200
330
3D
100
AcDbDictionary
280
     1
  3
ACAD_XREC_ROUNDTRIP
360
201
  0
DICTIONARY
  5
1FE
330
3C
100
AcDbDictionary
280
     1
  3
ACAD_XREC_ROUNDTRIP
360
1FF
  0
DICTIONARY
  5
202
330
3E
100
AcDbDictionary
280
     1
  3
ACAD_XREC_ROUNDTRIP
360
203
  0
XRECORD
  5
201
102
{ACAD_REACTORS
330
200
102
}
330
200
100
AcDbXrecord
102
MATERIAL
148
0.0
149
0.0
149
0.0
 93
        0
 94
      127
282
     0
 72
     1
 77
     1
171
     1
175
     1
179
     1
273
     0
  0
XRECORD
  5
1FF
102
{ACAD_REACTORS
330
1FE
102
}
330
1FE
100
AcDbXrecord
102
MATERIAL
148
0.0
149
0.0
149
0.0
 93
        0
 94
      127
282
     0
 72
     1
 77
     1
171
     1
175
     1
179
     1
273
     0
  0
XRECORD
  5
203
102
{ACAD_REACTORS
330
202
102
}
330
202
100
AcDbXrecord
102
MATERIAL
148
0.0
149
0.0
149
0.0
 93
        0
 94
      127
282
     0
 72
     1
 77
     1
171
     1
175
     1
179
     1
273
     0
  0
ENDSEC
  0
EOF
