  0
SECTION
  2
HEADER
  9
$ACADVER
  1
AC1014
  9
$ACADMAINTVER
 70
     9
  9
$DWGCODEPAGE
  3
ANSI_1250
  9
$INSBASE
 10
0.0
 20
0.0
 30
0.0
  9
$EXTMIN
 10
-34.3417
 20
-29.3096
 30
0.0
  9
$EXTMAX
 10
34.3418
 20
29.1687
 30
0.0
  9
$LIMMIN
 10
0.0
 20
0.0
  9
$LIMMAX
 10
12.0
 20
9.0
  9
$ORTHOMODE
 70
     0
  9
$REGENMODE
 70
     1
  9
$FILLMODE
 70
     1
  9
$QTEXTMODE
 70
     0
  9
$MIRRTEXT
 70
     1
  9
$DRAGMODE
 70
     2
  9
$LTSCALE
 40
1.0
  9
$OSMODE
 70
    37
  9
$ATTMODE
 70
     1
  9
$TEXTSIZE
 40
0.2
  9
$TRACEWID
 40
0.05
  9
$TEXTSTYLE
  7
STANDARD
  9
$CLAYER
  8
0
  9
$CELTYPE
  6
BYLAYER
  9
$CECOLOR
 62
   256
  9
$CELTSCALE
 40
1.0
  9
$DELOBJ
 70
     1
  9
$DISPSILH
 70
     0
  9
$DIMSCALE
 40
1.0
  9
$DIMASZ
 40
0.18
  9
$DIMEXO
 40
0.0625
  9
$DIMDLI
 40
0.38
  9
$DIMRND
 40
0.0
  9
$DIMDLE
 40
0.0
  9
$DIMEXE
 40
0.18
  9
$DIMTP
 40
0.0
  9
$DIMTM
 40
0.0
  9
$DIMTXT
 40
0.18
  9
$DIMCEN
 40
0.09
  9
$DIMTSZ
 40
0.0
  9
$DIMTOL
 70
     0
  9
$DIMLIM
 70
     0
  9
$DIMTIH
 70
     1
  9
$DIMTOH
 70
     1
  9
$DIMSE1
 70
     0
  9
$DIMSE2
 70
     0
  9
$DIMTAD
 70
     0
  9
$DIMZIN
 70
     0
  9
$DIMBLK
  1

  9
$DIMASO
 70
     1
  9
$DIMSHO
 70
     1
  9
$DIMPOST
  1

  9
$DIMAPOST
  1

  9
$DIMALT
 70
     0
  9
$DIMALTD
 70
     2
  9
$DIMALTF
 40
25.4
  9
$DIMLFAC
 40
1.0
  9
$DIMTOFL
 70
     0
  9
$DIMTVP
 40
0.0
  9
$DIMTIX
 70
     0
  9
$DIMSOXD
 70
     0
  9
$DIMSAH
 70
     0
  9
$DIMBLK1
  1

  9
$DIMBLK2
  1

  9
$DIMSTYLE
  2
STANDARD
  9
$DIMCLRD
 70
     0
  9
$DIMCLRE
 70
     0
  9
$DIMCLRT
 70
     0
  9
$DIMTFAC
 40
1.0
  9
$DIMGAP
 40
0.09
  9
$DIMJUST
 70
     0
  9
$DIMSD1
 70
     0
  9
$DIMSD2
 70
     0
  9
$DIMTOLJ
 70
     1
  9
$DIMTZIN
 70
     0
  9
$DIMALTZ
 70
     0
  9
$DIMALTTZ
 70
     0
  9
$DIMFIT
 70
     3
  9
$DIMUPT
 70
     0
  9
$DIMUNIT
 70
     2
  9
$DIMDEC
 70
     4
  9
$DIMTDEC
 70
     4
  9
$DIMALTU
 70
     2
  9
$DIMALTTD
 70
     2
  9
$DIMTXSTY
  7
STANDARD
  9
$DIMAUNIT
 70
     0
  9
$LUNITS
 70
     2
  9
$LUPREC
 70
     4
  9
$SKETCHINC
 40
0.1
  9
$FILLETRAD
 40
0.5
  9
$AUNITS
 70
     0
  9
$AUPREC
 70
     0
  9
$MENU
  1
.
  9
$ELEVATION
 40
0.0
  9
$PELEVATION
 40
0.0
  9
$THICKNESS
 40
0.0
  9
$LIMCHECK
 70
     0
  9
$CHAMFERA
 40
0.5
  9
$CHAMFERB
 40
0.5
  9
$CHAMFERC
 40
1.0
  9
$CHAMFERD
 40
0.0
  9
$SKPOLY
 70
     0
  9
$TDCREATE
 40
2456268.599980185
  9
$TDUPDATE
 40
2456268.599980197
  9
$TDINDWG
 40
0.0000000116
  9
$TDUSRTIMER
 40
0.0000000116
  9
$USRTIMER
 70
     1
  9
$ANGBASE
 50
0.0
  9
$ANGDIR
 70
     0
  9
$PDMODE
 70
     0
  9
$PDSIZE
 40
0.0
  9
$PLINEWID
 40
0.0
  9
$COORDS
 70
     1
  9
$SPLFRAME
 70
     0
  9
$SPLINETYPE
 70
     6
  9
$SPLINESEGS
 70
     8
  9
$ATTDIA
 70
     0
  9
$ATTREQ
 70
     1
  9
$HANDLING
 70
     1
  9
$HANDSEED
  5
140
  9
$SURFTAB1
 70
     6
  9
$SURFTAB2
 70
     6
  9
$SURFTYPE
 70
     6
  9
$SURFU
 70
     6
  9
$SURFV
 70
     6
  9
$UCSNAME
  2

  9
$UCSORG
 10
0.0
 20
0.0
 30
0.0
  9
$UCSXDIR
 10
1.0
 20
0.0
 30
0.0
  9
$UCSYDIR
 10
0.0
 20
1.0
 30
0.0
  9
$PUCSNAME
  2

  9
$PUCSORG
 10
0.0
 20
0.0
 30
0.0
  9
$PUCSXDIR
 10
1.0
 20
0.0
 30
0.0
  9
$PUCSYDIR
 10
0.0
 20
1.0
 30
0.0
  9
$USERI1
 70
     0
  9
$USERI2
 70
     0
  9
$USERI3
 70
     0
  9
$USERI4
 70
     0
  9
$USERI5
 70
     0
  9
$USERR1
 40
0.0
  9
$USERR2
 40
0.0
  9
$USERR3
 40
0.0
  9
$USERR4
 40
0.0
  9
$USERR5
 40
0.0
  9
$WORLDVIEW
 70
     1
  9
$SHADEDGE
 70
     3
  9
$SHADEDIF
 70
    70
  9
$TILEMODE
 70
     1
  9
$MAXACTVP
 70
    64
  9
$PINSBASE
 10
0.0
 20
0.0
 30
0.0
  9
$PLIMCHECK
 70
     0
  9
$PEXTMIN
 10
1.000000000000000E+20
 20
1.000000000000000E+20
 30
1.000000000000000E+20
  9
$PEXTMAX
 10
-1.000000000000000E+20
 20
-1.000000000000000E+20
 30
-1.000000000000000E+20
  9
$PLIMMIN
 10
0.0
 20
0.0
  9
$PLIMMAX
 10
12.0
 20
9.0
  9
$UNITMODE
 70
     0
  9
$VISRETAIN
 70
     1
  9
$PLINEGEN
 70
     0
  9
$PSLTSCALE
 70
     1
  9
$TREEDEPTH
 70
  3020
  9
$PICKSTYLE
 70
     1
  9
$CMLSTYLE
  2
STANDARD
  9
$CMLJUST
 70
     0
  9
$CMLSCALE
 40
1.0
  9
$PROXYGRAPHICS
 70
     1
  9
$MEASUREMENT
 70
     0
  0
ENDSEC
  0
SECTION
  2
CLASSES
  0
CLASS
  1
ACDBDICTIONARYWDFLT
  2
AcDbDictionaryWithDefault
  3
ObjectDBX Classes
 90
        0
280
     0
281
     0
  0
CLASS
  1
VISUALSTYLE
  2
AcDbVisualStyle
  3
ObjectDBX Classes
 90
     4095
280
     0
281
     0
  0
CLASS
  1
MATERIAL
  2
AcDbMaterial
  3
ObjectDBX Classes
 90
     1153
280
     0
281
     0
  0
CLASS
  1
DICTIONARYVAR
  2
AcDbDictionaryVar
  3
ObjectDBX Classes
 90
        0
280
     0
281
     0
  0
CLASS
  1
XRECORD
  2
AcDbXrecord
  3
AutoCAD 2000
 90
        0
280
     0
281
     0
  0
CLASS
  1
LWPOLYLINE
  2
AcDbPolyline
  3
AutoCAD 2000
 90
        0
280
     0
281
     1
  0
CLASS
  1
HATCH
  2
AcDbHatch
  3
AutoCAD 2000
 90
        0
280
     0
281
     1
  0
CLASS
  1
ACDBPLACEHOLDER
  2
AcDbPlaceHolder
  3
ObjectDBX Classes
 90
        0
280
     0
281
     0
  0
CLASS
  1
LAYOUT
  2
AcDbLayout
  3
ObjectDBX Classes
 90
        0
280
     0
281
     0
  0
ENDSEC
  0
SECTION
  2
TABLES
  0
TABLE
  2
VPORT
  5
8
330
0
100
AcDbSymbolTable
 70
     1
  0
VPORT
  5
29
330
8
100
AcDbSymbolTableRecord
100
AcDbViewportTableRecord
  2
*ACTIVE
 70
     0
 10
0.0
 20
0.0
 11
1.0
 21
1.0
 12
10.42990654205607
 22
4.5
 13
0.0
 23
0.0
 14
0.5
 24
0.5
 15
0.5
 25
0.5
 16
0.0
 26
0.0
 36
1.0
 17
0.0
 27
0.0
 37
0.0
 40
9.0
 41
1.972972972850329
 42
50.0
 43
0.0
 44
0.0
 50
0.0
 51
0.0
 71
     0
 72
   100
 73
     1
 74
     3
 75
     0
 76
     0
 77
     0
 78
     0
  0
ENDTAB
  0
TABLE
  2
LTYPE
  5
5
330
0
100
AcDbSymbolTable
 70
     1
  0
LTYPE
  5
14
330
5
100
AcDbSymbolTableRecord
100
AcDbLinetypeTableRecord
  2
BYBLOCK
 70
     0
  3

 72
    65
 73
     0
 40
0.0
  0
LTYPE
  5
15
330
5
100
AcDbSymbolTableRecord
100
AcDbLinetypeTableRecord
  2
BYLAYER
 70
     0
  3

 72
    65
 73
     0
 40
0.0
  0
LTYPE
  5
16
330
5
100
AcDbSymbolTableRecord
100
AcDbLinetypeTableRecord
  2
CONTINUOUS
 70
     0
  3
Solid line
 72
    65
 73
     0
 40
0.0
  0
ENDTAB
  0
TABLE
  2
LAYER
  5
2
330
0
100
AcDbSymbolTable
 70
     2
  0
LAYER
  5
10
330
2
100
AcDbSymbolTableRecord
100
AcDbLayerTableRecord
  2
0
 70
     0
 62
     7
  6
CONTINUOUS
  0
LAYER
  5
40
330
2
100
AcDbSymbolTableRecord
100
AcDbLayerTableRecord
  2
DEFAULT_3
 70
     0
 62
     7
  6
CONTINUOUS
  0
ENDTAB
  0
TABLE
  2
STYLE
  5
3
330
0
100
AcDbSymbolTable
 70
     1
  0
STYLE
  5
11
330
3
100
AcDbSymbolTableRecord
100
AcDbTextStyleTableRecord
  2
STANDARD
 70
     0
 40
0.0
 41
1.0
 50
0.0
 71
     0
 42
0.2
  3
txt
  4

  0
ENDTAB
  0
TABLE
  2
VIEW
  5
6
330
0
100
AcDbSymbolTable
 70
     0
  0
ENDTAB
  0
TABLE
  2
UCS
  5
7
330
0
100
AcDbSymbolTable
 70
     0
  0
ENDTAB
  0
TABLE
  2
APPID
  5
9
330
0
100
AcDbSymbolTable
 70
     2
  0
APPID
  5
12
330
9
100
AcDbSymbolTableRecord
100
AcDbRegAppTableRecord
  2
ACAD
 70
     0
  0
APPID
  5
3F
330
9
100
AcDbSymbolTableRecord
100
AcDbRegAppTableRecord
  2
ODA
 70
     0
  0
ENDTAB
  0
TABLE
  2
DIMSTYLE
  5
A
330
0
100
AcDbSymbolTable
 70
     1
  0
DIMSTYLE
105
27
330
A
100
AcDbSymbolTableRecord
100
AcDbDimStyleTableRecord
  2
STANDARD
 70
     0
  3

  4

  5

  6

  7

 40
1.0
 41
0.18
 42
0.0625
 43
0.38
 44
0.18
 45
0.0
 46
0.0
 47
0.0
 48
0.0
140
0.18
141
0.09
142
0.0
143
25.4
144
1.0
145
0.0
146
1.0
147
0.09
 71
     0
 72
     0
 73
     1
 74
     1
 75
     0
 76
     0
 77
     0
 78
     0
170
     0
171
     2
172
     0
173
     0
174
     0
175
     0
176
     0
177
     0
178
     0
270
     2
271
     4
272
     4
273
     2
274
     2
340
11
275
     0
280
     0
281
     0
282
     0
283
     1
284
     0
285
     0
286
     0
287
     3
288
     0
  0
ENDTAB
  0
TABLE
  2
BLOCK_RECORD
  5
1
330
0
100
AcDbSymbolTable
 70
     1
  0
BLOCK_RECORD
  5
1F
330
1
100
AcDbSymbolTableRecord
100
AcDbBlockTableRecord
  2
*MODEL_SPACE
  0
BLOCK_RECORD
  5
1B
330
1
100
AcDbSymbolTableRecord
100
AcDbBlockTableRecord
  2
*PAPER_SPACE
  0
ENDTAB
  0
ENDSEC
  0
SECTION
  2
BLOCKS
  0
BLOCK
  5
20
330
1F
100
AcDbEntity
  8
0
100
AcDbBlockBegin
  2
*MODEL_SPACE
 70
     0
 10
0.0
 20
0.0
 30
0.0
  3
*MODEL_SPACE
  1

  0
ENDBLK
  5
21
330
1F
100
AcDbEntity
  8
0
100
AcDbBlockEnd
  0
BLOCK
  5
1C
330
1B
100
AcDbEntity
 67
     1
  8
0
100
AcDbBlockBegin
  2
*PAPER_SPACE
 70
     0
 10
0.0
 20
0.0
 30
0.0
  3
*PAPER_SPACE
  1

  0
ENDBLK
  5
1D
330
1B
100
AcDbEntity
 67
     1
  8
0
100
AcDbBlockEnd
  0
ENDSEC
  0
SECTION
  2
ENTITIES
  0
SPLINE
  5
41
330
1F
100
AcDbEntity
  8
DEFAULT_3
 62
   250
100
AcDbSpline
210
0.0
220
0.0
230
1.0
 70
    24
 71
     3
 72
     8
 73
     4
 74
     0
 42
0.0000000001
 43
0.0000000001
 40
0.0
 40
0.0
 40
0.0
 40
0.0
 40
1.0
 40
1.0
 40
1.0
 40
1.0
 10
-27.8724
 20
17.9629
 30
0.0
 10
-27.8724
 20
17.9629
 30
0.0
 10
-27.8724
 20
21.2372
 30
0.0
 10
-27.8724
 20
21.2372
 30
0.0
  0
SPLINE
  5
42
330
1F
100
AcDbEntity
  8
DEFAULT_3
 62
   250
100
AcDbSpline
210
0.0
220
0.0
230
1.0
 70
    24
 71
     3
 72
     8
 73
     4
 74
     0
 42
0.0000000001
 43
0.0000000001
 40
0.0
 40
0.0
 40
0.0
 40
0.0
 40
1.0
 40
1.0
 40
1.0
 40
1.0
 10
18.5637
 20
17.7479
 30
0.0
 10
18.5637
 20
17.7479
 30
0.0
 10
18.5637
 20
21.1956
 30
0.0
 10
18.5637
 20
21.1956
 30
0.0
  0
SPLINE
  5
43
330
1F
100
AcDbEntity
  8
DEFAULT_3
 62
   250
100
AcDbSpline
210
0.0
220
0.0
230
1.0
 70
    24
 71
     3
 72
     8
 73
     4
 74
     0
 42
0.0000000001
 43
0.0000000001
 40
0.0
 40
0.0
 40
0.0
 40
0.0
 40
1.0
 40
1.0
 40
1.0
 40
1.0
 10
17.5009
 20
20.8603
 30
0.0
 10
17.5009
 20
20.8603
 30
0.0
 10
-26.9576
 20
20.8603
 30
0.0
 10
-26.9576
 20
20.8603
 30
0.0
  0
SPLINE
  5
44
330
1F
100
AcDbEntity
  8
DEFAULT_3
 62
   250
100
AcDbSpline
210
0.0
220
0.0
230
1.0
 70
    11
 71
     3
 72
    40
 73
    36
 74
     0
 42
0.0000000001
 43
0.0000000001
 40
0.0
 40
0.0
 40
0.0
 40
0.0
 40
0.1
 40
0.1
 40
0.1
 40
0.1
 40
0.2
 40
0.2
 40
0.2
 40
0.2
 40
0.3
 40
0.3
 40
0.3
 40
0.3
 40
0.4
 40
0.4
 40
0.4
 40
0.4
 40
0.5
 40
0.5
 40
0.5
 40
0.5
 40
0.6
 40
0.6
 40
0.6
 40
0.6
 40
0.7
 40
0.7
 40
0.7
 40
0.7
 40
0.8
 40
0.8
 40
0.8
 40
0.8
 40
1.0
 40
1.0
 40
1.0
 40
1.0
 10
-5.6507
 20
21.6199
 30
0.0
 10
-5.6507
 20
21.6199
 30
0.0
 10
-5.8986
 20
21.6199
 30
0.0
 10
-5.8986
 20
21.6199
 30
0.0
 10
-5.8986
 20
21.6199
 30
0.0
 10
-5.8986
 20
21.6199
 30
0.0
 10
-5.8986
 20
23.2003
 30
0.0
 10
-5.8986
 20
23.2003
 30
0.0
 10
-5.8986
 20
23.2003
 30
0.0
 10
-5.9584
 20
23.1434
 30
0.0
 10
-6.0364
 20
23.0865
 30
0.0
 10
-6.1333
 20
23.0296
 30
0.0
 10
-6.1333
 20
23.0296
 30
0.0
 10
-6.2307
 20
22.9727
 30
0.0
 10
-6.3177
 20
22.9299
 30
0.0
 10
-6.3949
 20
22.9016
 30
0.0
 10
-6.3949
 20
22.9016
 30
0.0
 10
-6.3949
 20
22.9016
 30
0.0
 10
-6.3949
 20
23.1411
 30
0.0
 10
-6.3949
 20
23.1411
 30
0.0
 10
-6.3949
 20
23.1411
 30
0.0
 10
-6.2561
 20
23.2064
 30
0.0
 10
-6.1347
 20
23.2855
 30
0.0
 10
-6.0308
 20
23.3781
 30
0.0
 10
-6.0308
 20
23.3781
 30
0.0
 10
-5.9273
 20
23.4713
 30
0.0
 10
-5.8535
 20
23.5611
 30
0.0
 10
-5.8102
 20
23.6486
 30
0.0
 10
-5.8102
 20
23.6486
 30
0.0
 10
-5.8102
 20
23.6486
 30
0.0
 10
-5.6507
 20
23.6486
 30
0.0
 10
-5.6507
 20
23.6486
 30
0.0
 10
-5.6507
 20
23.6486
 30
0.0
 10
-5.6507
 20
23.6486
 30
0.0
 10
-5.6507
 20
21.6199
 30
0.0
 10
-5.6507
 20
21.6199
 30
0.0
  0
SPLINE
  5
45
330
1F
100
AcDbEntity
  8
DEFAULT_3
 62
   250
100
AcDbSpline
210
0.0
220
0.0
230
1.0
 70
    11
 71
     3
 72
    48
 73
    44
 74
     0
 42
0.0000000001
 43
0.0000000001
 40
0.0
 40
0.0
 40
0.0
 40
0.0
 40
0.0833333333333333
 40
0.0833333333333333
 40
0.0833333333333333
 40
0.0833333333333333
 40
0.1666666666666667
 40
0.1666666666666667
 40
0.1666666666666667
 40
0.1666666666666667
 40
0.25
 40
0.25
 40
0.25
 40
0.25
 40
0.3333333333333333
 40
0.3333333333333333
 40
0.3333333333333333
 40
0.3333333333333333
 40
0.4166666666666667
 40
0.4166666666666667
 40
0.4166666666666667
 40
0.4166666666666667
 40
0.5
 40
0.5
 40
0.5
 40
0.5
 40
0.5833333333333334
 40
0.5833333333333334
 40
0.5833333333333334
 40
0.5833333333333334
 40
0.6666666666666666
 40
0.6666666666666666
 40
0.6666666666666666
 40
0.6666666666666666
 40
0.75
 40
0.75
 40
0.75
 40
0.75
 40
0.8333333333333334
 40
0.8333333333333334
 40
0.8333333333333334
 40
0.8333333333333334
 40
1.0
 40
1.0
 40
1.0
 40
1.0
 10
-4.2204
 20
21.6199
 30
0.0
 10
-4.2204
 20
21.6199
 30
0.0
 10
-4.2204
 20
22.1034
 30
0.0
 10
-4.2204
 20
22.1034
 30
0.0
 10
-4.2204
 20
22.1034
 30
0.0
 10
-4.2204
 20
22.1034
 30
0.0
 10
-5.0967
 20
22.1034
 30
0.0
 10
-5.0967
 20
22.1034
 30
0.0
 10
-5.0967
 20
22.1034
 30
0.0
 10
-5.0967
 20
22.1034
 30
0.0
 10
-5.0967
 20
22.3311
 30
0.0
 10
-5.0967
 20
22.3311
 30
0.0
 10
-5.0967
 20
22.3311
 30
0.0
 10
-5.0967
 20
22.3311
 30
0.0
 10
-4.1747
 20
23.6401
 30
0.0
 10
-4.1747
 20
23.6401
 30
0.0
 10
-4.1747
 20
23.6401
 30
0.0
 10
-4.1747
 20
23.6401
 30
0.0
 10
-3.972
 20
23.6401
 30
0.0
 10
-3.972
 20
23.6401
 30
0.0
 10
-3.972
 20
23.6401
 30
0.0
 10
-3.972
 20
23.6401
 30
0.0
 10
-3.972
 20
22.3311
 30
0.0
 10
-3.972
 20
22.3311
 30
0.0
 10
-3.972
 20
22.3311
 30
0.0
 10
-3.972
 20
22.3311
 30
0.0
 10
-3.6992
 20
22.3311
 30
0.0
 10
-3.6992
 20
22.3311
 30
0.0
 10
-3.6992
 20
22.3311
 30
0.0
 10
-3.6992
 20
22.3311
 30
0.0
 10
-3.6992
 20
22.1034
 30
0.0
 10
-3.6992
 20
22.1034
 30
0.0
 10
-3.6992
 20
22.1034
 30
0.0
 10
-3.6992
 20
22.1034
 30
0.0
 10
-3.972
 20
22.1034
 30
0.0
 10
-3.972
 20
22.1034
 30
0.0
 10
-3.972
 20
22.1034
 30
0.0
 10
-3.972
 20
22.1034
 30
0.0
 10
-3.972
 20
21.6199
 30
0.0
 10
-3.972
 20
21.6199
 30
0.0
 10
-3.972
 20
21.6199
 30
0.0
 10
-3.972
 20
21.6199
 30
0.0
 10
-4.2204
 20
21.6199
 30
0.0
 10
-4.2204
 20
21.6199
 30
0.0
  0
SPLINE
  5
46
330
1F
100
AcDbEntity
  8
DEFAULT_3
 62
   250
100
AcDbSpline
210
0.0
220
0.0
230
1.0
 70
    11
 71
     3
 72
    16
 73
    12
 74
     0
 42
0.0000000001
 43
0.0000000001
 40
0.0
 40
0.0
 40
0.0
 40
0.0
 40
0.25
 40
0.25
 40
0.25
 40
0.25
 40
0.5
 40
0.5
 40
0.5
 40
0.5
 40
1.0
 40
1.0
 40
1.0
 40
1.0
 10
-4.2204
 20
22.3311
 30
0.0
 10
-4.2204
 20
22.3311
 30
0.0
 10
-4.2204
 20
23.2417
 30
0.0
 10
-4.2204
 20
23.2417
 30
0.0
 10
-4.2204
 20
23.2417
 30
0.0
 10
-4.2204
 20
23.2417
 30
0.0
 10
-4.8525
 20
22.3311
 30
0.0
 10
-4.8525
 20
22.3311
 30
0.0
 10
-4.8525
 20
22.3311
 30
0.0
 10
-4.8525
 20
22.3311
 30
0.0
 10
-4.2204
 20
22.3311
 30
0.0
 10
-4.2204
 20
22.3311
 30
0.0
  0
SPLINE
  5
47
330
1F
100
AcDbEntity
  8
DEFAULT_3
 62
   250
100
AcDbSpline
210
0.0
220
0.0
230
1.0
 70
    11
 71
     3
 72
   124
 73
   120
 74
     0
 42
0.0000000001
 43
0.0000000001
 40
0.0
 40
0.0
 40
0.0
 40
0.0
 40
0.032258064516129
 40
0.032258064516129
 40
0.032258064516129
 40
0.032258064516129
 40
0.0645161290322581
 40
0.0645161290322581
 40
0.0645161290322581
 40
0.0645161290322581
 40
0.0967741935483871
 40
0.0967741935483871
 40
0.0967741935483871
 40
0.0967741935483871
 40
0.1290322580645161
 40
0.1290322580645161
 40
0.1290322580645161
 40
0.1290322580645161
 40
0.1612903225806452
 40
0.1612903225806452
 40
0.1612903225806452
 40
0.1612903225806452
 40
0.1935483870967742
 40
0.1935483870967742
 40
0.1935483870967742
 40
0.1935483870967742
 40
0.2258064516129032
 40
0.2258064516129032
 40
0.2258064516129032
 40
0.2258064516129032
 40
0.2580645161290323
 40
0.2580645161290323
 40
0.2580645161290323
 40
0.2580645161290323
 40
0.2903225806451613
 40
0.2903225806451613
 40
0.2903225806451613
 40
0.2903225806451613
 40
0.3225806451612903
 40
0.3225806451612903
 40
0.3225806451612903
 40
0.3225806451612903
 40
0.3548387096774194
 40
0.3548387096774194
 40
0.3548387096774194
 40
0.3548387096774194
 40
0.3870967741935484
 40
0.3870967741935484
 40
0.3870967741935484
 40
0.3870967741935484
 40
0.4193548387096774
 40
0.4193548387096774
 40
0.4193548387096774
 40
0.4193548387096774
 40
0.4516129032258064
 40
0.4516129032258064
 40
0.4516129032258064
 40
0.4516129032258064
 40
0.4838709677419355
 40
0.4838709677419355
 40
0.4838709677419355
 40
0.4838709677419355
 40
0.5161290322580645
 40
0.5161290322580645
 40
0.5161290322580645
 40
0.5161290322580645
 40
0.5483870967741935
 40
0.5483870967741935
 40
0.5483870967741935
 40
0.5483870967741935
 40
0.5806451612903226
 40
0.5806451612903226
 40
0.5806451612903226
 40
0.5806451612903226
 40
0.6129032258064516
 40
0.6129032258064516
 40
0.6129032258064516
 40
0.6129032258064516
 40
0.6451612903225806
 40
0.6451612903225806
 40
0.6451612903225806
 40
0.6451612903225806
 40
0.6774193548387096
 40
0.6774193548387096
 40
0.6774193548387096
 40
0.6774193548387096
 40
0.7096774193548387
 40
0.7096774193548387
 40
0.7096774193548387
 40
0.7096774193548387
 40
0.7419354838709677
 40
0.7419354838709677
 40
0.7419354838709677
 40
0.7419354838709677
 40
0.7741935483870968
 40
0.7741935483870968
 40
0.7741935483870968
 40
0.7741935483870968
 40
0.8064516129032258
 40
0.8064516129032258
 40
0.8064516129032258
 40
0.8064516129032258
 40
0.8387096774193549
 40
0.8387096774193549
 40
0.8387096774193549
 40
0.8387096774193549
 40
0.8709677419354839
 40
0.8709677419354839
 40
0.8709677419354839
 40
0.8709677419354839
 40
0.9032258064516129
 40
0.9032258064516129
 40
0.9032258064516129
 40
0.9032258064516129
 40
0.9354838709677419
 40
0.9354838709677419
 40
0.9354838709677419
 40
0.9354838709677419
 40
1.0
 40
1.0
 40
1.0
 40
1.0
 10
-3.4443
 20
22.1533
 30
0.0
 10
-3.4443
 20
22.1533
 30
0.0
 10
-3.1964
 20
22.1862
 30
0.0
 10
-3.1964
 20
22.1862
 30
0.0
 10
-3.1964
 20
22.1862
 30
0.0
 10
-3.1677
 20
22.0456
 30
0.0
 10
-3.1192
 20
21.9445
 30
0.0
 10
-3.051
 20
21.8824
 30
0.0
 10
-3.051
 20
21.8824
 30
0.0
 10
-2.9824
 20
21.8203
 30
0.0
 10
-2.8991
 20
21.7892
 30
0.0
 10
-2.8008
 20
21.7892
 30
0.0
 10
-2.8008
 20
21.7892
 30
0.0
 10
-2.6842
 20
21.7892
 30
0.0
 10
-2.5854
 20
21.8297
 30
0.0
 10
-2.5049
 20
21.9106
 30
0.0
 10
-2.5049
 20
21.9106
 30
0.0
 10
-2.425
 20
21.9915
 30
0.0
 10
-2.3845
 20
22.0917
 30
0.0
 10
-2.3845
 20
22.2112
 30
0.0
 10
-2.3845
 20
22.2112
 30
0.0
 10
-2.3845
 20
22.325
 30
0.0
 10
-2.4217
 20
22.4191
 30
0.0
 10
-2.496
 20
22.4929
 30
0.0
 10
-2.496
 20
22.4929
 30
0.0
 10
-2.5708
 20
22.5667
 30
0.0
 10
-2.6653
 20
22.6039
 30
0.0
 10
-2.7801
 20
22.6039
 30
0.0
 10
-2.7801
 20
22.6039
 30
0.0
 10
-2.8271
 20
22.6039
 30
0.0
 10
-2.8855
 20
22.5945
 30
0.0
 10
-2.9551
 20
22.5762
 30
0.0
 10
-2.9551
 20
22.5762
 30
0.0
 10
-2.9551
 20
22.5762
 30
0.0
 10
-2.9273
 20
22.7939
 30
0.0
 10
-2.9273
 20
22.7939
 30
0.0
 10
-2.9273
 20
22.7939
 30
0.0
 10
-2.9109
 20
22.7921
 30
0.0
 10
-2.8977
 20
22.7911
 30
0.0
 10
-2.8874
 20
22.7911
 30
0.0
 10
-2.8874
 20
22.7911
 30
0.0
 10
-2.782
 20
22.7911
 30
0.0
 10
-2.687
 20
22.8189
 30
0.0
 10
-2.6023
 20
22.8739
 30
0.0
 10
-2.6023
 20
22.8739
 30
0.0
 10
-2.5176
 20
22.9289
 30
0.0
 10
-2.4753
 20
23.0141
 30
0.0
 10
-2.4753
 20
23.1288
 30
0.0
 10
-2.4753
 20
23.1288
 30
0.0
 10
-2.4753
 20
23.2196
 30
0.0
 10
-2.5064
 20
23.2953
 30
0.0
 10
-2.568
 20
23.3546
 30
0.0
 10
-2.568
 20
23.3546
 30
0.0
 10
-2.6296
 20
23.4143
 30
0.0
 10
-2.7091
 20
23.4445
 30
0.0
 10
-2.8065
 20
23.4445
 30
0.0
 10
-2.8065
 20
23.4445
 30
0.0
 10
-2.9029
 20
23.4445
 30
0.0
 10
-2.9833
 20
23.4139
 30
0.0
 10
-3.0473
 20
23.3537
 30
0.0
 10
-3.0473
 20
23.3537
 30
0.0
 10
-3.1117
 20
23.293
 30
0.0
 10
-3.1531
 20
23.2017
 30
0.0
 10
-3.1715
 20
23.0804
 30
0.0
 10
-3.1715
 20
23.0804
 30
0.0
 10
-3.1715
 20
23.0804
 30
0.0
 10
-3.4193
 20
23.1246
 30
0.0
 10
-3.4193
 20
23.1246
 30
0.0
 10
-3.4193
 20
23.1246
 30
0.0
 10
-3.3892
 20
23.2911
 30
0.0
 10
-3.3201
 20
23.42
 30
0.0
 10
-3.2128
 20
23.5112
 30
0.0
 10
-3.2128
 20
23.5112
 30
0.0
 10
-3.1051
 20
23.6025
 30
0.0
 10
-2.9715
 20
23.6486
 30
0.0
 10
-2.8116
 20
23.6486
 30
0.0
 10
-2.8116
 20
23.6486
 30
0.0
 10
-2.7016
 20
23.6486
 30
0.0
 10
-2.6
 20
23.6246
 30
0.0
 10
-2.5073
 20
23.5776
 30
0.0
 10
-2.5073
 20
23.5776
 30
0.0
 10
-2.4146
 20
23.5301
 30
0.0
 10
-2.3436
 20
23.4656
 30
0.0
 10
-2.2942
 20
23.3838
 30
0.0
 10
-2.2942
 20
23.3838
 30
0.0
 10
-2.2453
 20
23.3019
 30
0.0
 10
-2.2204
 20
23.2154
 30
0.0
 10
-2.2204
 20
23.1232
 30
0.0
 10
-2.2204
 20
23.1232
 30
0.0
 10
-2.2204
 20
23.0362
 30
0.0
 10
-2.2439
 20
22.9567
 30
0.0
 10
-2.2909
 20
22.8847
 30
0.0
 10
-2.2909
 20
22.8847
 30
0.0
 10
-2.338
 20
22.8132
 30
0.0
 10
-2.4071
 20
22.7563
 30
0.0
 10
-2.4988
 20
22.714
 30
0.0
 10
-2.4988
 20
22.714
 30
0.0
 10
-2.3794
 20
22.6867
 30
0.0
 10
-2.2867
 20
22.6293
 30
0.0
 10
-2.2204
 20
22.5423
 30
0.0
 10
-2.2204
 20
22.5423
 30
0.0
 10
-2.1545
 20
22.4557
 30
0.0
 10
-2.1216
 20
22.3471
 30
0.0
 10
-2.1216
 20
22.2168
 30
0.0
 10
-2.1216
 20
22.2168
 30
0.0
 10
-2.1216
 20
22.0404
 30
0.0
 10
-2.1856
 20
21.8908
 30
0.0
 10
-2.3144
 20
21.7681
 30
0.0
 10
-2.3144
 20
21.7681
 30
0.0
 10
-2.4429
 20
21.6453
 30
0.0
 10
-2.6056
 20
21.5842
 30
0.0
 10
-2.8022
 20
21.5842
 30
0.0
 10
-2.8022
 20
21.5842
 30
0.0
 10
-2.9795
 20
21.5842
 30
0.0
 10
-3.1268
 20
21.6368
 30
0.0
 10
-3.2439
 20
21.7427
 30
0.0
 10
-3.2439
 20
21.7427
 30
0.0
 10
-3.361
 20
21.848
 30
0.0
 10
-3.4278
 20
21.9849
 30
0.0
 10
-3.4443
 20
22.1533
 30
0.0
  0
SPLINE
  5
48
330
1F
100
AcDbEntity
  8
DEFAULT_3
 62
   250
100
AcDbSpline
210
0.0
220
0.0
230
1.0
 70
    11
 71
     3
 72
    20
 73
    16
 74
     0
 42
0.0000000001
 43
0.0000000001
 40
0.0
 40
0.0
 40
0.0
 40
0.0
 40
0.2
 40
0.2
 40
0.2
 40
0.2
 40
0.4
 40
0.4
 40
0.4
 40
0.4
 40
0.6
 40
0.6
 40
0.6
 40
0.6
 40
1.0
 40
1.0
 40
1.0
 40
1.0
 10
15.991
 20
21.1907
 30
0.0
 10
15.991
 20
21.1907
 30
0.0
 10
18.491
 20
20.8378
 30
0.0
 10
18.491
 20
20.8378
 30
0.0
 10
18.491
 20
20.8378
 30
0.0
 10
18.491
 20
20.8378
 30
0.0
 10
18.491
 20
20.7595
 30
0.0
 10
18.491
 20
20.7595
 30
0.0
 10
18.491
 20
20.7595
 30
0.0
 10
18.491
 20
20.7595
 30
0.0
 10
15.991
 20
20.3832
 30
0.0
 10
15.991
 20
20.3832
 30
0.0
 10
15.991
 20
20.3832
 30
0.0
 10
15.991
 20
20.3832
 30
0.0
 10
15.991
 20
21.1907
 30
0.0
 10
15.991
 20
21.1907
 30
0.0
  0
SPLINE
  5
49
330
1F
100
AcDbEntity
  8
DEFAULT_3
 62
   250
100
AcDbSpline
210
0.0
220
0.0
230
1.0
 70
    11
 71
     3
 72
    20
 73
    16
 74
     0
 42
0.0000000001
 43
0.0000000001
 40
0.0
 40
0.0
 40
0.0
 40
0.0
 40
0.2
 40
0.2
 40
0.2
 40
0.2
 40
0.4
 40
0.4
 40
0.4
 40
0.4
 40
0.6
 40
0.6
 40
0.6
 40
0.6
 40
1.0
 40
1.0
 40
1.0
 40
1.0
 10
-25.2848
 20
20.4328
 30
0.0
 10
-25.2848
 20
20.4328
 30
0.0
 10
-27.7848
 20
20.7888
 30
0.0
 10
-27.7848
 20
20.7888
 30
0.0
 10
-27.7848
 20
20.7888
 30
0.0
 10
-27.7848
 20
20.7888
 30
0.0
 10
-27.7848
 20
20.8679
 30
0.0
 10
-27.7848
 20
20.8679
 30
0.0
 10
-27.7848
 20
20.8679
 30
0.0
 10
-27.7848
 20
20.8679
 30
0.0
 10
-25.2848
 20
21.2476
 30
0.0
 10
-25.2848
 20
21.2476
 30
0.0
 10
-25.2848
 20
21.2476
 30
0.0
 10
-25.2848
 20
21.2476
 30
0.0
 10
-25.2848
 20
20.4328
 30
0.0
 10
-25.2848
 20
20.4328
 30
0.0
  0
SPLINE
  5
4A
330
1F
100
AcDbEntity
  8
DEFAULT_3
 62
   250
100
AcDbSpline
210
0.0
220
0.0
230
1.0
 70
    24
 71
     3
 72
     8
 73
     4
 74
     0
 42
0.0000000001
 43
0.0000000001
 40
0.0
 40
0.0
 40
0.0
 40
0.0
 40
1.0
 40
1.0
 40
1.0
 40
1.0
 10
-28.4459
 20
-29.015
 30
0.0
 10
-28.4459
 20
-29.015
 30
0.0
 10
-32.1336
 20
-29.015
 30
0.0
 10
-32.1336
 20
-29.015
 30
0.0
  0
SPLINE
  5
4B
330
1F
100
AcDbEntity
  8
DEFAULT_3
 62
   250
100
AcDbSpline
210
0.0
220
0.0
230
1.0
 70
    24
 71
     3
 72
     8
 73
     4
 74
     0
 42
0.0000000001
 43
0.0000000001
 40
0.0
 40
0.0
 40
0.0
 40
0.0
 40
1.0
 40
1.0
 40
1.0
 40
1.0
 10
-28.0986
 20
17.4954
 30
0.0
 10
-28.0986
 20
17.4954
 30
0.0
 10
-32.2658
 20
17.4954
 30
0.0
 10
-32.2658
 20
17.4954
 30
0.0
  0
SPLINE
  5
4C
330
1F
100
AcDbEntity
  8
DEFAULT_3
 62
   250
100
AcDbSpline
210
0.0
220
0.0
230
1.0
 70
    24
 71
     3
 72
     8
 73
     4
 74
     0
 42
0.0000000001
 43
0.0000000001
 40
0.0
 40
0.0
 40
0.0
 40
0.0
 40
1.0
 40
1.0
 40
1.0
 40
1.0
 10
-31.6857
 20
17.0039
 30
0.0
 10
-31.6857
 20
17.0039
 30
0.0
 10
-31.6857
 20
-28.9343
 30
0.0
 10
-31.6857
 20
-28.9343
 30
0.0
  0
SPLINE
  5
4D
330
1F
100
AcDbEntity
  8
DEFAULT_3
 62
   250
100
AcDbSpline
210
0.0
220
0.0
230
1.0
 70
    11
 71
     3
 72
    40
 73
    36
 74
     0
 42
0.0000000001
 43
0.0000000001
 40
0.0
 40
0.0
 40
0.0
 40
0.0
 40
0.1
 40
0.1
 40
0.1
 40
0.1
 40
0.2
 40
0.2
 40
0.2
 40
0.2
 40
0.3
 40
0.3
 40
0.3
 40
0.3
 40
0.4
 40
0.4
 40
0.4
 40
0.4
 40
0.5
 40
0.5
 40
0.5
 40
0.5
 40
0.6
 40
0.6
 40
0.6
 40
0.6
 40
0.7
 40
0.7
 40
0.7
 40
0.7
 40
0.8
 40
0.8
 40
0.8
 40
0.8
 40
1.0
 40
1.0
 40
1.0
 40
1.0
 10
-32.313
 20
-5.9334
 30
0.0
 10
-32.313
 20
-5.9334
 30
0.0
 10
-32.313
 20
-6.1813
 30
0.0
 10
-32.313
 20
-6.1813
 30
0.0
 10
-32.313
 20
-6.1813
 30
0.0
 10
-32.313
 20
-6.1813
 30
0.0
 10
-33.8934
 20
-6.1813
 30
0.0
 10
-33.8934
 20
-6.1813
 30
0.0
 10
-33.8934
 20
-6.1813
 30
0.0
 10
-33.8365
 20
-6.2411
 30
0.0
 10
-33.7796
 20
-6.3191
 30
0.0
 10
-33.7227
 20
-6.416
 30
0.0
 10
-33.7227
 20
-6.416
 30
0.0
 10
-33.6658
 20
-6.5134
 30
0.0
 10
-33.623
 20
-6.6004
 30
0.0
 10
-33.5947
 20
-6.6776
 30
0.0
 10
-33.5947
 20
-6.6776
 30
0.0
 10
-33.5947
 20
-6.6776
 30
0.0
 10
-33.8342
 20
-6.6776
 30
0.0
 10
-33.8342
 20
-6.6776
 30
0.0
 10
-33.8342
 20
-6.6776
 30
0.0
 10
-33.8995
 20
-6.5388
 30
0.0
 10
-33.9786
 20
-6.4174
 30
0.0
 10
-34.0712
 20
-6.3135
 30
0.0
 10
-34.0712
 20
-6.3135
 30
0.0
 10
-34.1644
 20
-6.21
 30
0.0
 10
-34.2542
 20
-6.1362
 30
0.0
 10
-34.3417
 20
-6.0929
 30
0.0
 10
-34.3417
 20
-6.0929
 30
0.0
 10
-34.3417
 20
-6.0929
 30
0.0
 10
-34.3417
 20
-5.9334
 30
0.0
 10
-34.3417
 20
-5.9334
 30
0.0
 10
-34.3417
 20
-5.9334
 30
0.0
 10
-34.3417
 20
-5.9334
 30
0.0
 10
-32.313
 20
-5.9334
 30
0.0
 10
-32.313
 20
-5.9334
 30
0.0
  0
SPLINE
  5
4E
330
1F
100
AcDbEntity
  8
DEFAULT_3
 62
   250
100
AcDbSpline
210
0.0
220
0.0
230
1.0
 70
    11
 71
     3
 72
    48
 73
    44
 74
     0
 42
0.0000000001
 43
0.0000000001
 40
0.0
 40
0.0
 40
0.0
 40
0.0
 40
0.0833333333333333
 40
0.0833333333333333
 40
0.0833333333333333
 40
0.0833333333333333
 40
0.1666666666666667
 40
0.1666666666666667
 40
0.1666666666666667
 40
0.1666666666666667
 40
0.25
 40
0.25
 40
0.25
 40
0.25
 40
0.3333333333333333
 40
0.3333333333333333
 40
0.3333333333333333
 40
0.3333333333333333
 40
0.4166666666666667
 40
0.4166666666666667
 40
0.4166666666666667
 40
0.4166666666666667
 40
0.5
 40
0.5
 40
0.5
 40
0.5
 40
0.5833333333333334
 40
0.5833333333333334
 40
0.5833333333333334
 40
0.5833333333333334
 40
0.6666666666666666
 40
0.6666666666666666
 40
0.6666666666666666
 40
0.6666666666666666
 40
0.75
 40
0.75
 40
0.75
 40
0.75
 40
0.8333333333333334
 40
0.8333333333333334
 40
0.8333333333333334
 40
0.8333333333333334
 40
1.0
 40
1.0
 40
1.0
 40
1.0
 10
-32.313
 20
-4.5031
 30
0.0
 10
-32.313
 20
-4.5031
 30
0.0
 10
-32.7965
 20
-4.5031
 30
0.0
 10
-32.7965
 20
-4.5031
 30
0.0
 10
-32.7965
 20
-4.5031
 30
0.0
 10
-32.7965
 20
-4.5031
 30
0.0
 10
-32.7965
 20
-5.3794
 30
0.0
 10
-32.7965
 20
-5.3794
 30
0.0
 10
-32.7965
 20
-5.3794
 30
0.0
 10
-32.7965
 20
-5.3794
 30
0.0
 10
-33.0242
 20
-5.3794
 30
0.0
 10
-33.0242
 20
-5.3794
 30
0.0
 10
-33.0242
 20
-5.3794
 30
0.0
 10
-33.0242
 20
-5.3794
 30
0.0
 10
-34.3332
 20
-4.4574
 30
0.0
 10
-34.3332
 20
-4.4574
 30
0.0
 10
-34.3332
 20
-4.4574
 30
0.0
 10
-34.3332
 20
-4.4574
 30
0.0
 10
-34.3332
 20
-4.2547
 30
0.0
 10
-34.3332
 20
-4.2547
 30
0.0
 10
-34.3332
 20
-4.2547
 30
0.0
 10
-34.3332
 20
-4.2547
 30
0.0
 10
-33.0242
 20
-4.2547
 30
0.0
 10
-33.0242
 20
-4.2547
 30
0.0
 10
-33.0242
 20
-4.2547
 30
0.0
 10
-33.0242
 20
-4.2547
 30
0.0
 10
-33.0242
 20
-3.9819
 30
0.0
 10
-33.0242
 20
-3.9819
 30
0.0
 10
-33.0242
 20
-3.9819
 30
0.0
 10
-33.0242
 20
-3.9819
 30
0.0
 10
-32.7965
 20
-3.9819
 30
0.0
 10
-32.7965
 20
-3.9819
 30
0.0
 10
-32.7965
 20
-3.9819
 30
0.0
 10
-32.7965
 20
-3.9819
 30
0.0
 10
-32.7965
 20
-4.2547
 30
0.0
 10
-32.7965
 20
-4.2547
 30
0.0
 10
-32.7965
 20
-4.2547
 30
0.0
 10
-32.7965
 20
-4.2547
 30
0.0
 10
-32.313
 20
-4.2547
 30
0.0
 10
-32.313
 20
-4.2547
 30
0.0
 10
-32.313
 20
-4.2547
 30
0.0
 10
-32.313
 20
-4.2547
 30
0.0
 10
-32.313
 20
-4.5031
 30
0.0
 10
-32.313
 20
-4.5031
 30
0.0
  0
SPLINE
  5
4F
330
1F
100
AcDbEntity
  8
DEFAULT_3
 62
   250
100
AcDbSpline
210
0.0
220
0.0
230
1.0
 70
    11
 71
     3
 72
    16
 73
    12
 74
     0
 42
0.0000000001
 43
0.0000000001
 40
0.0
 40
0.0
 40
0.0
 40
0.0
 40
0.25
 40
0.25
 40
0.25
 40
0.25
 40
0.5
 40
0.5
 40
0.5
 40
0.5
 40
1.0
 40
1.0
 40
1.0
 40
1.0
 10
-33.0242
 20
-4.5031
 30
0.0
 10
-33.0242
 20
-4.5031
 30
0.0
 10
-33.9348
 20
-4.5031
 30
0.0
 10
-33.9348
 20
-4.5031
 30
0.0
 10
-33.9348
 20
-4.5031
 30
0.0
 10
-33.9348
 20
-4.5031
 30
0.0
 10
-33.0242
 20
-5.1352
 30
0.0
 10
-33.0242
 20
-5.1352
 30
0.0
 10
-33.0242
 20
-5.1352
 30
0.0
 10
-33.0242
 20
-5.1352
 30
0.0
 10
-33.0242
 20
-4.5031
 30
0.0
 10
-33.0242
 20
-4.5031
 30
0.0
  0
SPLINE
  5
50
330
1F
100
AcDbEntity
  8
DEFAULT_3
 62
   250
100
AcDbSpline
210
0.0
220
0.0
230
1.0
 70
    11
 71
     3
 72
   124
 73
   120
 74
     0
 42
0.0000000001
 43
0.0000000001
 40
0.0
 40
0.0
 40
0.0
 40
0.0
 40
0.032258064516129
 40
0.032258064516129
 40
0.032258064516129
 40
0.032258064516129
 40
0.0645161290322581
 40
0.0645161290322581
 40
0.0645161290322581
 40
0.0645161290322581
 40
0.0967741935483871
 40
0.0967741935483871
 40
0.0967741935483871
 40
0.0967741935483871
 40
0.1290322580645161
 40
0.1290322580645161
 40
0.1290322580645161
 40
0.1290322580645161
 40
0.1612903225806452
 40
0.1612903225806452
 40
0.1612903225806452
 40
0.1612903225806452
 40
0.1935483870967742
 40
0.1935483870967742
 40
0.1935483870967742
 40
0.1935483870967742
 40
0.2258064516129032
 40
0.2258064516129032
 40
0.2258064516129032
 40
0.2258064516129032
 40
0.2580645161290323
 40
0.2580645161290323
 40
0.2580645161290323
 40
0.2580645161290323
 40
0.2903225806451613
 40
0.2903225806451613
 40
0.2903225806451613
 40
0.2903225806451613
 40
0.3225806451612903
 40
0.3225806451612903
 40
0.3225806451612903
 40
0.3225806451612903
 40
0.3548387096774194
 40
0.3548387096774194
 40
0.3548387096774194
 40
0.3548387096774194
 40
0.3870967741935484
 40
0.3870967741935484
 40
0.3870967741935484
 40
0.3870967741935484
 40
0.4193548387096774
 40
0.4193548387096774
 40
0.4193548387096774
 40
0.4193548387096774
 40
0.4516129032258064
 40
0.4516129032258064
 40
0.4516129032258064
 40
0.4516129032258064
 40
0.4838709677419355
 40
0.4838709677419355
 40
0.4838709677419355
 40
0.4838709677419355
 40
0.5161290322580645
 40
0.5161290322580645
 40
0.5161290322580645
 40
0.5161290322580645
 40
0.5483870967741935
 40
0.5483870967741935
 40
0.5483870967741935
 40
0.5483870967741935
 40
0.5806451612903226
 40
0.5806451612903226
 40
0.5806451612903226
 40
0.5806451612903226
 40
0.6129032258064516
 40
0.6129032258064516
 40
0.6129032258064516
 40
0.6129032258064516
 40
0.6451612903225806
 40
0.6451612903225806
 40
0.6451612903225806
 40
0.6451612903225806
 40
0.6774193548387096
 40
0.6774193548387096
 40
0.6774193548387096
 40
0.6774193548387096
 40
0.7096774193548387
 40
0.7096774193548387
 40
0.7096774193548387
 40
0.7096774193548387
 40
0.7419354838709677
 40
0.7419354838709677
 40
0.7419354838709677
 40
0.7419354838709677
 40
0.7741935483870968
 40
0.7741935483870968
 40
0.7741935483870968
 40
0.7741935483870968
 40
0.8064516129032258
 40
0.8064516129032258
 40
0.8064516129032258
 40
0.8064516129032258
 40
0.8387096774193549
 40
0.8387096774193549
 40
0.8387096774193549
 40
0.8387096774193549
 40
0.8709677419354839
 40
0.8709677419354839
 40
0.8709677419354839
 40
0.8709677419354839
 40
0.9032258064516129
 40
0.9032258064516129
 40
0.9032258064516129
 40
0.9032258064516129
 40
0.9354838709677419
 40
0.9354838709677419
 40
0.9354838709677419
 40
0.9354838709677419
 40
1.0
 40
1.0
 40
1.0
 40
1.0
 10
-32.8464
 20
-3.727
 30
0.0
 10
-32.8464
 20
-3.727
 30
0.0
 10
-32.8793
 20
-3.4791
 30
0.0
 10
-32.8793
 20
-3.4791
 30
0.0
 10
-32.8793
 20
-3.4791
 30
0.0
 10
-32.7387
 20
-3.4504
 30
0.0
 10
-32.6376
 20
-3.4019
 30
0.0
 10
-32.5755
 20
-3.3337
 30
0.0
 10
-32.5755
 20
-3.3337
 30
0.0
 10
-32.5134
 20
-3.2651
 30
0.0
 10
-32.4823
 20
-3.1818
 30
0.0
 10
-32.4823
 20
-3.0835
 30
0.0
 10
-32.4823
 20
-3.0835
 30
0.0
 10
-32.4823
 20
-2.9669
 30
0.0
 10
-32.5228
 20
-2.8681
 30
0.0
 10
-32.6037
 20
-2.7876
 30
0.0
 10
-32.6037
 20
-2.7876
 30
0.0
 10
-32.6846
 20
-2.7077
 30
0.0
 10
-32.7848
 20
-2.6672
 30
0.0
 10
-32.9043
 20
-2.6672
 30
0.0
 10
-32.9043
 20
-2.6672
 30
0.0
 10
-33.0181
 20
-2.6672
 30
0.0
 10
-33.1122
 20
-2.7044
 30
0.0
 10
-33.186
 20
-2.7787
 30
0.0
 10
-33.186
 20
-2.7787
 30
0.0
 10
-33.2598
 20
-2.8535
 30
0.0
 10
-33.297
 20
-2.948
 30
0.0
 10
-33.297
 20
-3.0628
 30
0.0
 10
-33.297
 20
-3.0628
 30
0.0
 10
-33.297
 20
-3.1098
 30
0.0
 10
-33.2876
 20
-3.1682
 30
0.0
 10
-33.2693
 20
-3.2378
 30
0.0
 10
-33.2693
 20
-3.2378
 30
0.0
 10
-33.2693
 20
-3.2378
 30
0.0
 10
-33.487
 20
-3.21
 30
0.0
 10
-33.487
 20
-3.21
 30
0.0
 10
-33.487
 20
-3.21
 30
0.0
 10
-33.4852
 20
-3.1936
 30
0.0
 10
-33.4842
 20
-3.1804
 30
0.0
 10
-33.4842
 20
-3.1701
 30
0.0
 10
-33.4842
 20
-3.1701
 30
0.0
 10
-33.4842
 20
-3.0647
 30
0.0
 10
-33.512
 20
-2.9697
 30
0.0
 10
-33.567
 20
-2.885
 30
0.0
 10
-33.567
 20
-2.885
 30
0.0
 10
-33.622
 20
-2.8003
 30
0.0
 10
-33.7072
 20
-2.758
 30
0.0
 10
-33.8219
 20
-2.758
 30
0.0
 10
-33.8219
 20
-2.758
 30
0.0
 10
-33.9127
 20
-2.758
 30
0.0
 10
-33.9884
 20
-2.7891
 30
0.0
 10
-34.0477
 20
-2.8507
 30
0.0
 10
-34.0477
 20
-2.8507
 30
0.0
 10
-34.1074
 20
-2.9123
 30
0.0
 10
-34.1376
 20
-2.9918
 30
0.0
 10
-34.1376
 20
-3.0892
 30
0.0
 10
-34.1376
 20
-3.0892
 30
0.0
 10
-34.1376
 20
-3.1856
 30
0.0
 10
-34.107
 20
-3.266
 30
0.0
 10
-34.0468
 20
-3.33
 30
0.0
 10
-34.0468
 20
-3.33
 30
0.0
 10
-33.9861
 20
-3.3944
 30
0.0
 10
-33.8948
 20
-3.4358
 30
0.0
 10
-33.7735
 20
-3.4542
 30
0.0
 10
-33.7735
 20
-3.4542
 30
0.0
 10
-33.7735
 20
-3.4542
 30
0.0
 10
-33.8177
 20
-3.702
 30
0.0
 10
-33.8177
 20
-3.702
 30
0.0
 10
-33.8177
 20
-3.702
 30
0.0
 10
-33.9842
 20
-3.6719
 30
0.0
 10
-34.1131
 20
-3.6028
 30
0.0
 10
-34.2043
 20
-3.4955
 30
0.0
 10
-34.2043
 20
-3.4955
 30
0.0
 10
-34.2956
 20
-3.3878
 30
0.0
 10
-34.3417
 20
-3.2542
 30
0.0
 10
-34.3417
 20
-3.0943
 30
0.0
 10
-34.3417
 20
-3.0943
 30
0.0
 10
-34.3417
 20
-2.9843
 30
0.0
 10
-34.3177
 20
-2.8827
 30
0.0
 10
-34.2707
 20
-2.79
 30
0.0
 10
-34.2707
 20
-2.79
 30
0.0
 10
-34.2232
 20
-2.6973
 30
0.0
 10
-34.1587
 20
-2.6263
 30
0.0
 10
-34.0769
 20
-2.5769
 30
0.0
 10
-34.0769
 20
-2.5769
 30
0.0
 10
-33.995
 20
-2.528
 30
0.0
 10
-33.9085
 20
-2.5031
 30
0.0
 10
-33.8163
 20
-2.5031
 30
0.0
 10
-33.8163
 20
-2.5031
 30
0.0
 10
-33.7293
 20
-2.5031
 30
0.0
 10
-33.6498
 20
-2.5266
 30
0.0
 10
-33.5778
 20
-2.5736
 30
0.0
 10
-33.5778
 20
-2.5736
 30
0.0
 10
-33.5063
 20
-2.6207
 30
0.0
 10
-33.4494
 20
-2.6898
 30
0.0
 10
-33.4071
 20
-2.7815
 30
0.0
 10
-33.4071
 20
-2.7815
 30
0.0
 10
-33.3798
 20
-2.6621
 30
0.0
 10
-33.3224
 20
-2.5694
 30
0.0
 10
-33.2354
 20
-2.5031
 30
0.0
 10
-33.2354
 20
-2.5031
 30
0.0
 10
-33.1488
 20
-2.4372
 30
0.0
 10
-33.0402
 20
-2.4043
 30
0.0
 10
-32.9099
 20
-2.4043
 30
0.0
 10
-32.9099
 20
-2.4043
 30
0.0
 10
-32.7335
 20
-2.4043
 30
0.0
 10
-32.5839
 20
-2.4683
 30
0.0
 10
-32.4612
 20
-2.5971
 30
0.0
 10
-32.4612
 20
-2.5971
 30
0.0
 10
-32.3384
 20
-2.7256
 30
0.0
 10
-32.2773
 20
-2.8883
 30
0.0
 10
-32.2773
 20
-3.0849
 30
0.0
 10
-32.2773
 20
-3.0849
 30
0.0
 10
-32.2773
 20
-3.2622
 30
0.0
 10
-32.3299
 20
-3.4095
 30
0.0
 10
-32.4358
 20
-3.5266
 30
0.0
 10
-32.4358
 20
-3.5266
 30
0.0
 10
-32.5411
 20
-3.6437
 30
0.0
 10
-32.678
 20
-3.7105
 30
0.0
 10
-32.8464
 20
-3.727
 30
0.0
  0
SPLINE
  5
51
330
1F
100
AcDbEntity
  8
DEFAULT_3
 62
   250
100
AcDbSpline
210
0.0
220
0.0
230
1.0
 70
    11
 71
     3
 72
    20
 73
    16
 74
     0
 42
0.0000000001
 43
0.0000000001
 40
0.0
 40
0.0
 40
0.0
 40
0.0
 40
0.2
 40
0.2
 40
0.2
 40
0.2
 40
0.4
 40
0.4
 40
0.4
 40
0.4
 40
0.6
 40
0.6
 40
0.6
 40
0.6
 40
1.0
 40
1.0
 40
1.0
 40
1.0
 10
-32.0657
 20
14.9458
 30
0.0
 10
-32.0657
 20
14.9458
 30
0.0
 10
-31.7128
 20
17.4458
 30
0.0
 10
-31.7128
 20
17.4458
 30
0.0
 10
-31.7128
 20
17.4458
 30
0.0
 10
-31.7128
 20
17.4458
 30
0.0
 10
-31.6345
 20
17.4458
 30
0.0
 10
-31.6345
 20
17.4458
 30
0.0
 10
-31.6345
 20
17.4458
 30
0.0
 10
-31.6345
 20
17.4458
 30
0.0
 10
-31.2582
 20
14.9458
 30
0.0
 10
-31.2582
 20
14.9458
 30
0.0
 10
-31.2582
 20
14.9458
 30
0.0
 10
-31.2582
 20
14.9458
 30
0.0
 10
-32.0657
 20
14.9458
 30
0.0
 10
-32.0657
 20
14.9458
 30
0.0
  0
SPLINE
  5
52
330
1F
100
AcDbEntity
  8
DEFAULT_3
 62
   250
100
AcDbSpline
210
0.0
220
0.0
230
1.0
 70
    11
 71
     3
 72
    20
 73
    16
 74
     0
 42
0.0000000001
 43
0.0000000001
 40
0.0
 40
0.0
 40
0.0
 40
0.0
 40
0.2
 40
0.2
 40
0.2
 40
0.2
 40
0.4
 40
0.4
 40
0.4
 40
0.4
 40
0.6
 40
0.6
 40
0.6
 40
0.6
 40
1.0
 40
1.0
 40
1.0
 40
1.0
 10
-31.2696
 20
-26.4109
 30
0.0
 10
-31.2696
 20
-26.4109
 30
0.0
 10
-31.6225
 20
-28.9109
 30
0.0
 10
-31.6225
 20
-28.9109
 30
0.0
 10
-31.6225
 20
-28.9109
 30
0.0
 10
-31.6225
 20
-28.9109
 30
0.0
 10
-31.7008
 20
-28.9109
 30
0.0
 10
-31.7008
 20
-28.9109
 30
0.0
 10
-31.7008
 20
-28.9109
 30
0.0
 10
-31.7008
 20
-28.9109
 30
0.0
 10
-32.0771
 20
-26.4109
 30
0.0
 10
-32.0771
 20
-26.4109
 30
0.0
 10
-32.0771
 20
-26.4109
 30
0.0
 10
-32.0771
 20
-26.4109
 30
0.0
 10
-31.2696
 20
-26.4109
 30
0.0
 10
-31.2696
 20
-26.4109
 30
0.0
  0
SPLINE
  5
53
330
1F
100
AcDbEntity
  8
DEFAULT_3
 62
   250
100
AcDbSpline
210
0.0
220
0.0
230
1.0
 70
    24
 71
     3
 72
     8
 73
     4
 74
     0
 42
0.0000000001
 43
0.0000000001
 40
0.0
 40
0.0
 40
0.0
 40
0.0
 40
1.0
 40
1.0
 40
1.0
 40
1.0
 10
29.7528
 20
17.8884
 30
0.0
 10
29.7528
 20
17.8884
 30
0.0
 10
29.7528
 20
21.3775
 30
0.0
 10
29.7528
 20
21.3775
 30
0.0
  0
SPLINE
  5
54
330
1F
100
AcDbEntity
  8
DEFAULT_3
 62
   250
100
AcDbSpline
210
0.0
220
0.0
230
1.0
 70
    24
 71
     3
 72
     8
 73
     4
 74
     0
 42
0.0000000001
 43
0.0000000001
 40
0.0
 40
0.0
 40
0.0
 40
0.0
 40
1.0
 40
1.0
 40
1.0
 40
1.0
 10
31.3717
 20
17.7561
 30
0.0
 10
31.3717
 20
17.7561
 30
0.0
 10
31.3717
 20
21.2287
 30
0.0
 10
31.3717
 20
21.2287
 30
0.0
  0
SPLINE
  5
55
330
1F
100
AcDbEntity
  8
DEFAULT_3
 62
   250
100
AcDbSpline
210
0.0
220
0.0
230
1.0
 70
    24
 71
     3
 72
     8
 73
     4
 74
     0
 42
0.0000000001
 43
0.0000000001
 40
0.0
 40
0.0
 40
0.0
 40
0.0
 40
1.0
 40
1.0
 40
1.0
 40
1.0
 10
34.3418
 20
20.886
 30
0.0
 10
34.3418
 20
20.886
 30
0.0
 10
26.406
 20
20.886
 30
0.0
 10
26.406
 20
20.886
 30
0.0
  0
SPLINE
  5
56
330
1F
100
AcDbEntity
  8
DEFAULT_3
 62
   250
100
AcDbSpline
210
0.0
220
0.0
230
1.0
 70
    11
 71
     3
 72
    92
 73
    88
 74
     0
 42
0.0000000001
 43
0.0000000001
 40
0.0
 40
0.0
 40
0.0
 40
0.0
 40
0.0434782608695652
 40
0.0434782608695652
 40
0.0434782608695652
 40
0.0434782608695652
 40
0.0869565217391304
 40
0.0869565217391304
 40
0.0869565217391304
 40
0.0869565217391304
 40
0.1304347826086956
 40
0.1304347826086956
 40
0.1304347826086956
 40
0.1304347826086956
 40
0.1739130434782609
 40
0.1739130434782609
 40
0.1739130434782609
 40
0.1739130434782609
 40
0.2173913043478261
 40
0.2173913043478261
 40
0.2173913043478261
 40
0.2173913043478261
 40
0.2608695652173913
 40
0.2608695652173913
 40
0.2608695652173913
 40
0.2608695652173913
 40
0.3043478260869565
 40
0.3043478260869565
 40
0.3043478260869565
 40
0.3043478260869565
 40
0.3478260869565217
 40
0.3478260869565217
 40
0.3478260869565217
 40
0.3478260869565217
 40
0.391304347826087
 40
0.391304347826087
 40
0.391304347826087
 40
0.391304347826087
 40
0.4347826086956522
 40
0.4347826086956522
 40
0.4347826086956522
 40
0.4347826086956522
 40
0.4782608695652174
 40
0.4782608695652174
 40
0.4782608695652174
 40
0.4782608695652174
 40
0.5217391304347826
 40
0.5217391304347826
 40
0.5217391304347826
 40
0.5217391304347826
 40
0.5652173913043478
 40
0.5652173913043478
 40
0.5652173913043478
 40
0.5652173913043478
 40
0.6086956521739131
 40
0.6086956521739131
 40
0.6086956521739131
 40
0.6086956521739131
 40
0.6521739130434783
 40
0.6521739130434783
 40
0.6521739130434783
 40
0.6521739130434783
 40
0.6956521739130435
 40
0.6956521739130435
 40
0.6956521739130435
 40
0.6956521739130435
 40
0.7391304347826086
 40
0.7391304347826086
 40
0.7391304347826086
 40
0.7391304347826086
 40
0.782608695652174
 40
0.782608695652174
 40
0.782608695652174
 40
0.782608695652174
 40
0.8260869565217391
 40
0.8260869565217391
 40
0.8260869565217391
 40
0.8260869565217391
 40
0.8695652173913043
 40
0.8695652173913043
 40
0.8695652173913043
 40
0.8695652173913043
 40
0.9130434782608695
 40
0.9130434782608695
 40
0.9130434782608695
 40
0.9130434782608695
 40
1.0
 40
1.0
 40
1.0
 40
1.0
 10
29.9317
 20
21.9845
 30
0.0
 10
29.9317
 20
21.9845
 30
0.0
 10
30.1923
 20
22.0066
 30
0.0
 10
30.1923
 20
22.0066
 30
0.0
 10
30.1923
 20
22.0066
 30
0.0
 10
30.2116
 20
21.8796
 30
0.0
 10
30.2563
 20
21.7846
 30
0.0
 10
30.3264
 20
21.7206
 30
0.0
 10
30.3264
 20
21.7206
 30
0.0
 10
30.3969
 20
21.6566
 30
0.0
 10
30.4816
 20
21.6246
 30
0.0
 10
30.5808
 20
21.6246
 30
0.0
 10
30.5808
 20
21.6246
 30
0.0
 10
30.7003
 20
21.6246
 30
0.0
 10
30.8014
 20
21.6698
 30
0.0
 10
30.8837
 20
21.7596
 30
0.0
 10
30.8837
 20
21.7596
 30
0.0
 10
30.9665
 20
21.8499
 30
0.0
 10
31.0079
 20
21.9694
 30
0.0
 10
31.0079
 20
22.118
 30
0.0
 10
31.0079
 20
22.118
 30
0.0
 10
31.0079
 20
22.2596
 30
0.0
 10
30.9684
 20
22.3711
 30
0.0
 10
30.8889
 20
22.4529
 30
0.0
 10
30.8889
 20
22.4529
 30
0.0
 10
30.8094
 20
22.5348
 30
0.0
 10
30.7055
 20
22.5757
 30
0.0
 10
30.5766
 20
22.5757
 30
0.0
 10
30.5766
 20
22.5757
 30
0.0
 10
30.4966
 20
22.5757
 30
0.0
 10
30.4247
 20
22.5574
 30
0.0
 10
30.3602
 20
22.5212
 30
0.0
 10
30.3602
 20
22.5212
 30
0.0
 10
30.2958
 20
22.4849
 30
0.0
 10
30.2455
 20
22.4379
 30
0.0
 10
30.2088
 20
22.38
 30
0.0
 10
30.2088
 20
22.38
 30
0.0
 10
30.2088
 20
22.38
 30
0.0
 10
29.9759
 20
22.4101
 30
0.0
 10
29.9759
 20
22.4101
 30
0.0
 10
29.9759
 20
22.4101
 30
0.0
 10
29.9759
 20
22.4101
 30
0.0
 10
30.1716
 20
23.4478
 30
0.0
 10
30.1716
 20
23.4478
 30
0.0
 10
30.1716
 20
23.4478
 30
0.0
 10
30.1716
 20
23.4478
 30
0.0
 10
31.1763
 20
23.4478
 30
0.0
 10
31.1763
 20
23.4478
 30
0.0
 10
31.1763
 20
23.4478
 30
0.0
 10
31.1763
 20
23.4478
 30
0.0
 10
31.1763
 20
23.2107
 30
0.0
 10
31.1763
 20
23.2107
 30
0.0
 10
31.1763
 20
23.2107
 30
0.0
 10
31.1763
 20
23.2107
 30
0.0
 10
30.3701
 20
23.2107
 30
0.0
 10
30.3701
 20
23.2107
 30
0.0
 10
30.3701
 20
23.2107
 30
0.0
 10
30.3701
 20
23.2107
 30
0.0
 10
30.261
 20
22.6679
 30
0.0
 10
30.261
 20
22.6679
 30
0.0
 10
30.261
 20
22.6679
 30
0.0
 10
30.3823
 20
22.7526
 30
0.0
 10
30.5098
 20
22.7949
 30
0.0
 10
30.6429
 20
22.7949
 30
0.0
 10
30.6429
 20
22.7949
 30
0.0
 10
30.8193
 20
22.7949
 30
0.0
 10
30.9679
 20
22.7338
 30
0.0
 10
31.0893
 20
22.6115
 30
0.0
 10
31.0893
 20
22.6115
 30
0.0
 10
31.2106
 20
22.4892
 30
0.0
 10
31.2713
 20
22.3321
 30
0.0
 10
31.2713
 20
22.1402
 30
0.0
 10
31.2713
 20
22.1402
 30
0.0
 10
31.2713
 20
21.9572
 30
0.0
 10
31.2177
 20
21.7991
 30
0.0
 10
31.1114
 20
21.666
 30
0.0
 10
31.1114
 20
21.666
 30
0.0
 10
30.9816
 20
21.5028
 30
0.0
 10
30.8047
 20
21.421
 30
0.0
 10
30.5808
 20
21.421
 30
0.0
 10
30.5808
 20
21.421
 30
0.0
 10
30.3969
 20
21.421
 30
0.0
 10
30.2469
 20
21.4722
 30
0.0
 10
30.1307
 20
21.5752
 30
0.0
 10
30.1307
 20
21.5752
 30
0.0
 10
30.0145
 20
21.6783
 30
0.0
 10
29.9482
 20
21.8147
 30
0.0
 10
29.9317
 20
21.9845
 30
0.0
  0
SPLINE
  5
57
330
1F
100
AcDbEntity
  8
DEFAULT_3
 62
   250
100
AcDbSpline
210
0.0
220
0.0
230
1.0
 70
    11
 71
     3
 72
    20
 73
    16
 74
     0
 42
0.0000000001
 43
0.0000000001
 40
0.0
 40
0.0
 40
0.0
 40
0.0
 40
0.2
 40
0.2
 40
0.2
 40
0.2
 40
0.4
 40
0.4
 40
0.4
 40
0.4
 40
0.6
 40
0.6
 40
0.6
 40
0.6
 40
1.0
 40
1.0
 40
1.0
 40
1.0
 10
27.21
 20
21.2825
 30
0.0
 10
27.21
 20
21.2825
 30
0.0
 10
29.71
 20
20.9296
 30
0.0
 10
29.71
 20
20.9296
 30
0.0
 10
29.71
 20
20.9296
 30
0.0
 10
29.71
 20
20.9296
 30
0.0
 10
29.71
 20
20.8513
 30
0.0
 10
29.71
 20
20.8513
 30
0.0
 10
29.71
 20
20.8513
 30
0.0
 10
29.71
 20
20.8513
 30
0.0
 10
27.21
 20
20.475
 30
0.0
 10
27.21
 20
20.475
 30
0.0
 10
27.21
 20
20.475
 30
0.0
 10
27.21
 20
20.475
 30
0.0
 10
27.21
 20
21.2825
 30
0.0
 10
27.21
 20
21.2825
 30
0.0
  0
SPLINE
  5
58
330
1F
100
AcDbEntity
  8
DEFAULT_3
 62
   250
100
AcDbSpline
210
0.0
220
0.0
230
1.0
 70
    11
 71
     3
 72
    20
 73
    16
 74
     0
 42
0.0000000001
 43
0.0000000001
 40
0.0
 40
0.0
 40
0.0
 40
0.0
 40
0.2
 40
0.2
 40
0.2
 40
0.2
 40
0.4
 40
0.4
 40
0.4
 40
0.4
 40
0.6
 40
0.6
 40
0.6
 40
0.6
 40
1.0
 40
1.0
 40
1.0
 40
1.0
 10
33.9904
 20
20.4699
 30
0.0
 10
33.9904
 20
20.4699
 30
0.0
 10
31.4904
 20
20.8228
 30
0.0
 10
31.4904
 20
20.8228
 30
0.0
 10
31.4904
 20
20.8228
 30
0.0
 10
31.4904
 20
20.8228
 30
0.0
 10
31.4904
 20
20.9011
 30
0.0
 10
31.4904
 20
20.9011
 30
0.0
 10
31.4904
 20
20.9011
 30
0.0
 10
31.4904
 20
20.9011
 30
0.0
 10
33.9904
 20
21.2774
 30
0.0
 10
33.9904
 20
21.2774
 30
0.0
 10
33.9904
 20
21.2774
 30
0.0
 10
33.9904
 20
21.2774
 30
0.0
 10
33.9904
 20
20.4699
 30
0.0
 10
33.9904
 20
20.4699
 30
0.0
  0
SPLINE
  5
59
330
1F
100
AcDbEntity
  8
DEFAULT_3
100
AcDbSpline
210
0.0
220
0.0
230
1.0
 70
    24
 71
     3
 72
     8
 73
     4
 74
     0
 42
0.0000000001
 43
0.0000000001
 40
0.0
 40
0.0
 40
0.0
 40
0.0
 40
1.0
 40
1.0
 40
1.0
 40
1.0
 10
26.1654
 20
-28.4554
 30
0.0
 10
26.1654
 20
-28.4554
 30
0.0
 10
29.7439
 20
-28.5177
 30
0.0
 10
29.7439
 20
-28.5177
 30
0.0
  0
SPLINE
  5
5A
330
1F
100
AcDbEntity
  8
DEFAULT_3
100
AcDbSpline
210
0.0
220
0.0
230
1.0
 70
    24
 71
     3
 72
     8
 73
     4
 74
     0
 42
0.0000000001
 43
0.0000000001
 40
0.0
 40
0.0
 40
0.0
 40
0.0
 40
1.0
 40
1.0
 40
1.0
 40
1.0
 10
26.1654
 20
16.6378
 30
0.0
 10
26.1654
 20
16.6378
 30
0.0
 10
26.1654
 20
-28.4554
 30
0.0
 10
26.1654
 20
-28.4554
 30
0.0
  0
SPLINE
  5
5B
330
1F
100
AcDbEntity
  8
DEFAULT_3
100
AcDbSpline
210
0.0
220
0.0
230
1.0
 70
    24
 71
     3
 72
     8
 73
     4
 74
     0
 42
0.0000000001
 43
0.0000000001
 40
0.0
 40
0.0
 40
0.0
 40
0.0
 40
1.0
 40
1.0
 40
1.0
 40
1.0
 10
29.7439
 20
16.7001
 30
0.0
 10
29.7439
 20
16.7001
 30
0.0
 10
26.1654
 20
16.6378
 30
0.0
 10
26.1654
 20
16.6378
 30
0.0
  0
SPLINE
  5
5C
330
1F
100
AcDbEntity
  8
DEFAULT_3
100
AcDbSpline
210
0.0
220
0.0
230
1.0
 70
    24
 71
     3
 72
     8
 73
     4
 74
     0
 42
0.0000000001
 43
0.0000000001
 40
0.0
 40
0.0
 40
0.0
 40
0.0
 40
1.0
 40
1.0
 40
1.0
 40
1.0
 10
25.8514
 20
-25.1154
 30
0.0
 10
25.8514
 20
-25.1154
 30
0.0
 10
26.1654
 20
-27.2167
 30
0.0
 10
26.1654
 20
-27.2167
 30
0.0
  0
SPLINE
  5
5D
330
1F
100
AcDbEntity
  8
DEFAULT_3
100
AcDbSpline
210
0.0
220
0.0
230
1.0
 70
    24
 71
     3
 72
     8
 73
     4
 74
     0
 42
0.0000000001
 43
0.0000000001
 40
0.0
 40
0.0
 40
0.0
 40
0.0
 40
1.0
 40
1.0
 40
1.0
 40
1.0
 10
25.7504
 20
-24.4398
 30
0.0
 10
25.7504
 20
-24.4398
 30
0.0
 10
25.169
 20
-20.5492
 30
0.0
 10
25.169
 20
-20.5492
 30
0.0
  0
SPLINE
  5
5E
330
1F
100
AcDbEntity
  8
DEFAULT_3
100
AcDbSpline
210
0.0
220
0.0
230
1.0
 70
    24
 71
     3
 72
     8
 73
     4
 74
     0
 42
0.0000000001
 43
0.0000000001
 40
0.0
 40
0.0
 40
0.0
 40
0.0
 40
1.0
 40
1.0
 40
1.0
 40
1.0
 10
26.1654
 20
-20.5666
 30
0.0
 10
26.1654
 20
-20.5666
 30
0.0
 10
25.169
 20
-20.5492
 30
0.0
 10
25.169
 20
-20.5492
 30
0.0
  0
SPLINE
  5
5F
330
1F
100
AcDbEntity
  8
DEFAULT_3
100
AcDbSpline
210
0.0
220
0.0
230
1.0
 70
    24
 71
     3
 72
     8
 73
     4
 74
     0
 42
0.0000000001
 43
0.0000000001
 40
0.0
 40
0.0
 40
0.0
 40
0.0
 40
1.0
 40
1.0
 40
1.0
 40
1.0
 10
25.8514
 20
-25.1154
 30
0.0
 10
25.8514
 20
-25.1154
 30
0.0
 10
26.1654
 20
-25.121
 30
0.0
 10
26.1654
 20
-25.121
 30
0.0
  0
SPLINE
  5
60
330
1F
100
AcDbEntity
  8
DEFAULT_3
100
AcDbSpline
210
0.0
220
0.0
230
1.0
 70
    24
 71
     3
 72
     8
 73
     4
 74
     0
 42
0.0000000001
 43
0.0000000001
 40
0.0
 40
0.0
 40
0.0
 40
0.0
 40
1.0
 40
1.0
 40
1.0
 40
1.0
 10
26.1654
 20
-24.4327
 30
0.0
 10
26.1654
 20
-24.4327
 30
0.0
 10
25.7504
 20
-24.4398
 30
0.0
 10
25.7504
 20
-24.4398
 30
0.0
  0
SPLINE
  5
61
330
1F
100
AcDbEntity
  8
DEFAULT_3
100
AcDbSpline
210
0.0
220
0.0
230
1.0
 70
    24
 71
     3
 72
     8
 73
     4
 74
     0
 42
0.0000000001
 43
0.0000000001
 40
0.0
 40
0.0
 40
0.0
 40
0.0
 40
1.0
 40
1.0
 40
1.0
 40
1.0
 10
26.1654
 20
-10.7695
 30
0.0
 10
26.1654
 20
-10.7695
 30
0.0
 10
24.8642
 20
-10.7924
 30
0.0
 10
24.8642
 20
-10.7924
 30
0.0
  0
SPLINE
  5
62
330
1F
100
AcDbEntity
  8
DEFAULT_3
100
AcDbSpline
210
0.0
220
0.0
230
1.0
 70
    24
 71
     3
 72
     8
 73
     4
 74
     0
 42
0.0000000001
 43
0.0000000001
 40
0.0
 40
0.0
 40
0.0
 40
0.0
 40
1.0
 40
1.0
 40
1.0
 40
1.0
 10
24.8642
 20
-7.694
 30
0.0
 10
24.8642
 20
-7.694
 30
0.0
 10
24.8642
 20
-10.7924
 30
0.0
 10
24.8642
 20
-10.7924
 30
0.0
  0
SPLINE
  5
63
330
1F
100
AcDbEntity
  8
DEFAULT_3
100
AcDbSpline
210
0.0
220
0.0
230
1.0
 70
    24
 71
     3
 72
     8
 73
     4
 74
     0
 42
0.0000000001
 43
0.0000000001
 40
0.0
 40
0.0
 40
0.0
 40
0.0
 40
1.0
 40
1.0
 40
1.0
 40
1.0
 10
26.1654
 20
-7.7168
 30
0.0
 10
26.1654
 20
-7.7168
 30
0.0
 10
24.8642
 20
-7.694
 30
0.0
 10
24.8642
 20
-7.694
 30
0.0
  0
SPLINE
  5
64
330
1F
100
AcDbEntity
  8
DEFAULT_3
100
AcDbSpline
210
0.0
220
0.0
230
1.0
 70
    24
 71
     3
 72
     8
 73
     4
 74
     0
 42
0.0000000001
 43
0.0000000001
 40
0.0
 40
0.0
 40
0.0
 40
0.0
 40
1.0
 40
1.0
 40
1.0
 40
1.0
 10
26.1654
 20
-6.8658
 30
0.0
 10
26.1654
 20
-6.8658
 30
0.0
 10
24.8642
 20
-6.8885
 30
0.0
 10
24.8642
 20
-6.8885
 30
0.0
  0
SPLINE
  5
65
330
1F
100
AcDbEntity
  8
DEFAULT_3
100
AcDbSpline
210
0.0
220
0.0
230
1.0
 70
    24
 71
     3
 72
     8
 73
     4
 74
     0
 42
0.0000000001
 43
0.0000000001
 40
0.0
 40
0.0
 40
0.0
 40
0.0
 40
1.0
 40
1.0
 40
1.0
 40
1.0
 10
24.8642
 20
-4.9291
 30
0.0
 10
24.8642
 20
-4.9291
 30
0.0
 10
24.8642
 20
-6.8885
 30
0.0
 10
24.8642
 20
-6.8885
 30
0.0
  0
SPLINE
  5
66
330
1F
100
AcDbEntity
  8
DEFAULT_3
100
AcDbSpline
210
0.0
220
0.0
230
1.0
 70
    24
 71
     3
 72
     8
 73
     4
 74
     0
 42
0.0000000001
 43
0.0000000001
 40
0.0
 40
0.0
 40
0.0
 40
0.0
 40
1.0
 40
1.0
 40
1.0
 40
1.0
 10
26.1654
 20
-4.9518
 30
0.0
 10
26.1654
 20
-4.9518
 30
0.0
 10
24.8642
 20
-4.9291
 30
0.0
 10
24.8642
 20
-4.9291
 30
0.0
  0
SPLINE
  5
67
330
1F
100
AcDbEntity
  8
DEFAULT_3
100
AcDbSpline
210
0.0
220
0.0
230
1.0
 70
    24
 71
     3
 72
     8
 73
     4
 74
     0
 42
0.0000000001
 43
0.0000000001
 40
0.0
 40
0.0
 40
0.0
 40
0.0
 40
1.0
 40
1.0
 40
1.0
 40
1.0
 10
25.7504
 20
-4.1081
 30
0.0
 10
25.7504
 20
-4.1081
 30
0.0
 10
25.169
 20
-4.1181
 30
0.0
 10
25.169
 20
-4.1181
 30
0.0
  0
SPLINE
  5
68
330
1F
100
AcDbEntity
  8
DEFAULT_3
100
AcDbSpline
210
0.0
220
0.0
230
1.0
 70
    24
 71
     3
 72
     8
 73
     4
 74
     0
 42
0.0000000001
 43
0.0000000001
 40
0.0
 40
0.0
 40
0.0
 40
0.0
 40
1.0
 40
1.0
 40
1.0
 40
1.0
 10
25.8514
 20
-4.1061
 30
0.0
 10
25.8514
 20
-4.1061
 30
0.0
 10
26.1654
 20
-4.1009
 30
0.0
 10
26.1654
 20
-4.1009
 30
0.0
  0
SPLINE
  5
69
330
1F
100
AcDbEntity
  8
DEFAULT_3
100
AcDbSpline
210
0.0
220
0.0
230
1.0
 70
    24
 71
     3
 72
     8
 73
     4
 74
     0
 42
0.0000000001
 43
0.0000000001
 40
0.0
 40
0.0
 40
0.0
 40
0.0
 40
1.0
 40
1.0
 40
1.0
 40
1.0
 10
25.169
 20
8.7317
 30
0.0
 10
25.169
 20
8.7317
 30
0.0
 10
24.8642
 20
6.6922
 30
0.0
 10
24.8642
 20
6.6922
 30
0.0
  0
SPLINE
  5
6A
330
1F
100
AcDbEntity
  8
DEFAULT_3
100
AcDbSpline
210
0.0
220
0.0
230
1.0
 70
     8
 71
     3
 72
     8
 73
     4
 74
     0
 42
0.0000000001
 43
0.0000000001
 40
0.0
 40
0.0
 40
0.0
 40
0.0
 40
1.0
 40
1.0
 40
1.0
 40
1.0
 10
26.1654
 20
15.399
 30
0.0
 10
25.8333
 20
13.1766
 30
0.0
 10
25.5011
 20
10.954
 30
0.0
 10
25.169
 20
8.7317
 30
0.0
  0
SPLINE
  5
6B
330
1F
100
AcDbEntity
  8
DEFAULT_3
100
AcDbSpline
210
0.0
220
0.0
230
1.0
 70
     8
 71
     3
 72
     8
 73
     4
 74
     0
 42
0.0000000001
 43
0.0000000001
 40
0.0
 40
0.0
 40
0.0
 40
0.0
 40
1.0
 40
1.0
 40
1.0
 40
1.0
 10
26.1654
 20
15.399
 30
0.0
 10
26.0608
 20
14.6986
 30
0.0
 10
25.9562
 20
13.9983
 30
0.0
 10
25.8514
 20
13.2977
 30
0.0
  0
SPLINE
  5
6C
330
1F
100
AcDbEntity
  8
DEFAULT_3
100
AcDbSpline
210
0.0
220
0.0
230
1.0
 70
     8
 71
     3
 72
     8
 73
     4
 74
     0
 42
0.0000000001
 43
0.0000000001
 40
0.0
 40
0.0
 40
0.0
 40
0.0
 40
1.0
 40
1.0
 40
1.0
 40
1.0
 10
25.169
 20
8.7317
 30
0.0
 10
25.0674
 20
8.0518
 30
0.0
 10
24.9659
 20
7.3719
 30
0.0
 10
24.8642
 20
6.6922
 30
0.0
  0
SPLINE
  5
6D
330
1F
100
AcDbEntity
  8
DEFAULT_3
100
AcDbSpline
210
0.0
220
0.0
230
1.0
 70
    24
 71
     3
 72
     8
 73
     4
 74
     0
 42
0.0000000001
 43
0.0000000001
 40
0.0
 40
0.0
 40
0.0
 40
0.0
 40
1.0
 40
1.0
 40
1.0
 40
1.0
 10
24.8642
 20
6.6922
 30
0.0
 10
24.8642
 20
6.6922
 30
0.0
 10
24.8642
 20
-4.1235
 30
0.0
 10
24.8642
 20
-4.1235
 30
0.0
  0
SPLINE
  5
6E
330
1F
100
AcDbEntity
  8
DEFAULT_3
100
AcDbSpline
210
0.0
220
0.0
230
1.0
 70
    24
 71
     3
 72
     8
 73
     4
 74
     0
 42
0.0000000001
 43
0.0000000001
 40
0.0
 40
0.0
 40
0.0
 40
0.0
 40
1.0
 40
1.0
 40
1.0
 40
1.0
 10
24.8642
 20
-11.4353
 30
0.0
 10
24.8642
 20
-11.4353
 30
0.0
 10
26.1654
 20
-12.977
 30
0.0
 10
26.1654
 20
-12.977
 30
0.0
  0
SPLINE
  5
6F
330
1F
100
AcDbEntity
  8
DEFAULT_3
100
AcDbSpline
210
0.0
220
0.0
230
1.0
 70
    24
 71
     3
 72
     8
 73
     4
 74
     0
 42
0.0000000001
 43
0.0000000001
 40
0.0
 40
0.0
 40
0.0
 40
0.0
 40
1.0
 40
1.0
 40
1.0
 40
1.0
 10
26.1654
 20
-11.4579
 30
0.0
 10
26.1654
 20
-11.4579
 30
0.0
 10
24.8642
 20
-11.4353
 30
0.0
 10
24.8642
 20
-11.4353
 30
0.0
  0
SPLINE
  5
70
330
1F
100
AcDbEntity
  8
DEFAULT_3
100
AcDbSpline
210
0.0
220
0.0
230
1.0
 70
    24
 71
     3
 72
     8
 73
     4
 74
     0
 42
0.0000000001
 43
0.0000000001
 40
0.0
 40
0.0
 40
0.0
 40
0.0
 40
1.0
 40
1.0
 40
1.0
 40
1.0
 10
25.0716
 20
-4.1198
 30
0.0
 10
25.0716
 20
-4.1198
 30
0.0
 10
24.8642
 20
-4.1235
 30
0.0
 10
24.8642
 20
-4.1235
 30
0.0
  0
SPLINE
  5
71
330
1F
100
AcDbEntity
  8
DEFAULT_3
100
AcDbSpline
210
0.0
220
0.0
230
1.0
 70
    24
 71
     3
 72
     8
 73
     4
 74
     0
 42
0.0000000001
 43
0.0000000001
 40
0.0
 40
0.0
 40
0.0
 40
0.0
 40
1.0
 40
1.0
 40
1.0
 40
1.0
 10
29.7439
 20
17.2961
 30
0.0
 10
29.7439
 20
17.2961
 30
0.0
 10
29.7439
 20
-29.1685
 30
0.0
 10
29.7439
 20
-29.1685
 30
0.0
  0
SPLINE
  5
72
330
1F
100
AcDbEntity
  8
DEFAULT_3
100
AcDbSpline
210
0.0
220
0.0
230
1.0
 70
    24
 71
     3
 72
     8
 73
     4
 74
     0
 42
0.0000000001
 43
0.0000000001
 40
0.0
 40
0.0
 40
0.0
 40
0.0
 40
1.0
 40
1.0
 40
1.0
 40
1.0
 10
31.2757
 20
-29.1456
 30
0.0
 10
31.2757
 20
-29.1456
 30
0.0
 10
29.744
 20
-29.1685
 30
0.0
 10
29.744
 20
-29.1685
 30
0.0
  0
SPLINE
  5
73
330
1F
100
AcDbEntity
  8
DEFAULT_3
100
AcDbSpline
210
0.0
220
0.0
230
1.0
 70
    24
 71
     3
 72
     8
 73
     4
 74
     0
 42
0.0000000001
 43
0.0000000001
 40
0.0
 40
0.0
 40
0.0
 40
0.0
 40
1.0
 40
1.0
 40
1.0
 40
1.0
 10
29.7439
 20
-28.9067
 30
0.0
 10
29.7439
 20
-28.9067
 30
0.0
 10
29.7439
 20
17.0892
 30
0.0
 10
29.7439
 20
17.0892
 30
0.0
  0
SPLINE
  5
74
330
1F
100
AcDbEntity
  8
DEFAULT_3
100
AcDbSpline
210
0.0
220
0.0
230
1.0
 70
    24
 71
     3
 72
     8
 73
     4
 74
     0
 42
0.0000000001
 43
0.0000000001
 40
0.0
 40
0.0
 40
0.0
 40
0.0
 40
1.0
 40
1.0
 40
1.0
 40
1.0
 10
29.7439
 20
17.3508
 30
0.0
 10
29.7439
 20
17.3508
 30
0.0
 10
29.7439
 20
17.326
 30
0.0
 10
29.7439
 20
17.326
 30
0.0
  0
SPLINE
  5
75
330
1F
100
AcDbEntity
  8
DEFAULT_3
100
AcDbSpline
210
0.0
220
0.0
230
1.0
 70
    24
 71
     3
 72
     8
 73
     4
 74
     0
 42
0.0000000001
 43
0.0000000001
 40
0.0
 40
0.0
 40
0.0
 40
0.0
 40
1.0
 40
1.0
 40
1.0
 40
1.0
 10
29.744
 20
17.3508
 30
0.0
 10
29.744
 20
17.3508
 30
0.0
 10
31.3193
 20
17.3281
 30
0.0
 10
31.3193
 20
17.3281
 30
0.0
  0
SPLINE
  5
76
330
1F
100
AcDbEntity
  8
DEFAULT_3
100
AcDbSpline
210
0.0
220
0.0
230
1.0
 70
    24
 71
     3
 72
     8
 73
     4
 74
     0
 42
0.0000000001
 43
0.0000000001
 40
0.0
 40
0.0
 40
0.0
 40
0.0
 40
1.0
 40
1.0
 40
1.0
 40
1.0
 10
29.7439
 20
17.0257
 30
0.0
 10
29.7439
 20
17.0257
 30
0.0
 10
29.7439
 20
-28.9677
 30
0.0
 10
29.7439
 20
-28.9677
 30
0.0
  0
SPLINE
  5
77
330
1F
100
AcDbEntity
  8
DEFAULT_3
100
AcDbSpline
210
0.0
220
0.0
230
1.0
 70
    24
 71
     3
 72
     8
 73
     4
 74
     0
 42
0.0000000001
 43
0.0000000001
 40
0.0
 40
0.0
 40
0.0
 40
0.0
 40
1.0
 40
1.0
 40
1.0
 40
1.0
 10
26.1654
 20
16.6378
 30
0.0
 10
26.1654
 20
16.6378
 30
0.0
 10
26.1654
 20
-28.4554
 30
0.0
 10
26.1654
 20
-28.4554
 30
0.0
  0
SPLINE
  5
78
330
1F
100
AcDbEntity
  8
DEFAULT_3
100
AcDbSpline
210
0.0
220
0.0
230
1.0
 70
    24
 71
     3
 72
     8
 73
     4
 74
     0
 42
0.0000000001
 43
0.0000000001
 40
0.0
 40
0.0
 40
0.0
 40
0.0
 40
1.0
 40
1.0
 40
1.0
 40
1.0
 10
25.0716
 20
8.0797
 30
0.0
 10
25.0716
 20
8.0797
 30
0.0
 10
26.1654
 20
15.399
 30
0.0
 10
26.1654
 20
15.399
 30
0.0
  0
SPLINE
  5
79
330
1F
100
AcDbEntity
  8
DEFAULT_3
100
AcDbSpline
210
0.0
220
0.0
230
1.0
 70
    24
 71
     3
 72
     8
 73
     4
 74
     0
 42
0.0000000001
 43
0.0000000001
 40
0.0
 40
0.0
 40
0.0
 40
0.0
 40
1.0
 40
1.0
 40
1.0
 40
1.0
 10
25.7504
 20
12.6223
 30
0.0
 10
25.7504
 20
12.6223
 30
0.0
 10
26.1654
 20
15.399
 30
0.0
 10
26.1654
 20
15.399
 30
0.0
  0
SPLINE
  5
7A
330
1F
100
AcDbEntity
  8
DEFAULT_3
100
AcDbSpline
210
0.0
220
0.0
230
1.0
 70
    24
 71
     3
 72
     8
 73
     4
 74
     0
 42
0.0000000001
 43
0.0000000001
 40
0.0
 40
0.0
 40
0.0
 40
0.0
 40
1.0
 40
1.0
 40
1.0
 40
1.0
 10
26.1654
 20
-24.4327
 30
0.0
 10
26.1654
 20
-24.4327
 30
0.0
 10
25.7504
 20
-24.4398
 30
0.0
 10
25.7504
 20
-24.4398
 30
0.0
  0
SPLINE
  5
7B
330
1F
100
AcDbEntity
  8
DEFAULT_3
100
AcDbSpline
210
0.0
220
0.0
230
1.0
 70
    24
 71
     3
 72
     8
 73
     4
 74
     0
 42
0.0000000001
 43
0.0000000001
 40
0.0
 40
0.0
 40
0.0
 40
0.0
 40
1.0
 40
1.0
 40
1.0
 40
1.0
 10
25.169
 20
-20.5492
 30
0.0
 10
25.169
 20
-20.5492
 30
0.0
 10
26.1654
 20
-20.5666
 30
0.0
 10
26.1654
 20
-20.5666
 30
0.0
  0
SPLINE
  5
7C
330
1F
100
AcDbEntity
  8
DEFAULT_3
100
AcDbSpline
210
0.0
220
0.0
230
1.0
 70
    24
 71
     3
 72
     8
 73
     4
 74
     0
 42
0.0000000001
 43
0.0000000001
 40
0.0
 40
0.0
 40
0.0
 40
0.0
 40
1.0
 40
1.0
 40
1.0
 40
1.0
 10
26.1654
 20
-19.8783
 30
0.0
 10
26.1654
 20
-19.8783
 30
0.0
 10
25.0716
 20
-19.8974
 30
0.0
 10
25.0716
 20
-19.8974
 30
0.0
  0
SPLINE
  5
7D
330
1F
100
AcDbEntity
  8
DEFAULT_3
100
AcDbSpline
210
0.0
220
0.0
230
1.0
 70
    24
 71
     3
 72
     8
 73
     4
 74
     0
 42
0.0000000001
 43
0.0000000001
 40
0.0
 40
0.0
 40
0.0
 40
0.0
 40
1.0
 40
1.0
 40
1.0
 40
1.0
 10
24.8642
 20
-11.4353
 30
0.0
 10
24.8642
 20
-11.4353
 30
0.0
 10
26.1654
 20
-12.977
 30
0.0
 10
26.1654
 20
-12.977
 30
0.0
  0
SPLINE
  5
7E
330
1F
100
AcDbEntity
  8
DEFAULT_3
100
AcDbSpline
210
0.0
220
0.0
230
1.0
 70
    24
 71
     3
 72
     8
 73
     4
 74
     0
 42
0.0000000001
 43
0.0000000001
 40
0.0
 40
0.0
 40
0.0
 40
0.0
 40
1.0
 40
1.0
 40
1.0
 40
1.0
 10
24.8642
 20
-10.7924
 30
0.0
 10
24.8642
 20
-10.7924
 30
0.0
 10
26.1654
 20
-10.7695
 30
0.0
 10
26.1654
 20
-10.7695
 30
0.0
  0
SPLINE
  5
7F
330
1F
100
AcDbEntity
  8
DEFAULT_3
100
AcDbSpline
210
0.0
220
0.0
230
1.0
 70
    24
 71
     3
 72
     8
 73
     4
 74
     0
 42
0.0000000001
 43
0.0000000001
 40
0.0
 40
0.0
 40
0.0
 40
0.0
 40
1.0
 40
1.0
 40
1.0
 40
1.0
 10
26.1654
 20
-11.4579
 30
0.0
 10
26.1654
 20
-11.4579
 30
0.0
 10
24.8642
 20
-11.4353
 30
0.0
 10
24.8642
 20
-11.4353
 30
0.0
  0
SPLINE
  5
80
330
1F
100
AcDbEntity
  8
DEFAULT_3
100
AcDbSpline
210
0.0
220
0.0
230
1.0
 70
    24
 71
     3
 72
     8
 73
     4
 74
     0
 42
0.0000000001
 43
0.0000000001
 40
0.0
 40
0.0
 40
0.0
 40
0.0
 40
1.0
 40
1.0
 40
1.0
 40
1.0
 10
24.8642
 20
-7.694
 30
0.0
 10
24.8642
 20
-7.694
 30
0.0
 10
26.1654
 20
-7.7168
 30
0.0
 10
26.1654
 20
-7.7168
 30
0.0
  0
SPLINE
  5
81
330
1F
100
AcDbEntity
  8
DEFAULT_3
100
AcDbSpline
210
0.0
220
0.0
230
1.0
 70
    24
 71
     3
 72
     8
 73
     4
 74
     0
 42
0.0000000001
 43
0.0000000001
 40
0.0
 40
0.0
 40
0.0
 40
0.0
 40
1.0
 40
1.0
 40
1.0
 40
1.0
 10
26.1654
 20
-6.8658
 30
0.0
 10
26.1654
 20
-6.8658
 30
0.0
 10
24.8642
 20
-6.8885
 30
0.0
 10
24.8642
 20
-6.8885
 30
0.0
  0
SPLINE
  5
82
330
1F
100
AcDbEntity
  8
DEFAULT_3
100
AcDbSpline
210
0.0
220
0.0
230
1.0
 70
    24
 71
     3
 72
     8
 73
     4
 74
     0
 42
0.0000000001
 43
0.0000000001
 40
0.0
 40
0.0
 40
0.0
 40
0.0
 40
1.0
 40
1.0
 40
1.0
 40
1.0
 10
24.8642
 20
-4.9291
 30
0.0
 10
24.8642
 20
-4.9291
 30
0.0
 10
26.1654
 20
-4.9518
 30
0.0
 10
26.1654
 20
-4.9518
 30
0.0
  0
SPLINE
  5
83
330
1F
100
AcDbEntity
  8
DEFAULT_3
100
AcDbSpline
210
0.0
220
0.0
230
1.0
 70
    24
 71
     3
 72
     8
 73
     4
 74
     0
 42
0.0000000001
 43
0.0000000001
 40
0.0
 40
0.0
 40
0.0
 40
0.0
 40
1.0
 40
1.0
 40
1.0
 40
1.0
 10
26.1654
 20
-4.1009
 30
0.0
 10
26.1654
 20
-4.1009
 30
0.0
 10
24.8642
 20
-4.1235
 30
0.0
 10
24.8642
 20
-4.1235
 30
0.0
  0
SPLINE
  5
84
330
1F
100
AcDbEntity
  8
DEFAULT_3
100
AcDbSpline
210
0.0
220
0.0
230
1.0
 70
     8
 71
     3
 72
    24
 73
    20
 74
     0
 42
0.0000000001
 43
0.0000000001
 40
0.0
 40
0.0
 40
0.0
 40
0.0
 40
0.1666666666666667
 40
0.1666666666666667
 40
0.1666666666666667
 40
0.1666666666666667
 40
0.3333333333333333
 40
0.3333333333333333
 40
0.3333333333333333
 40
0.3333333333333333
 40
0.5
 40
0.5
 40
0.5
 40
0.5
 40
0.6666666666666666
 40
0.6666666666666666
 40
0.6666666666666666
 40
0.6666666666666666
 40
1.0
 40
1.0
 40
1.0
 40
1.0
 10
31.3461
 20
17.2791
 30
0.0
 10
31.3461
 20
17.2791
 30
0.0
 10
31.3705
 20
17.1553
 30
0.0
 10
31.3705
 20
17.1553
 30
0.0
 10
31.3705
 20
17.1553
 30
0.0
 10
31.3705
 20
17.1553
 30
0.0
 10
31.3705
 20
16.5009
 30
0.0
 10
31.3705
 20
16.5009
 30
0.0
 10
31.3705
 20
16.5009
 30
0.0
 10
31.3705
 20
16.5009
 30
0.0
 10
31.3705
 20
-28.2617
 30
0.0
 10
31.3705
 20
-28.2617
 30
0.0
 10
31.3705
 20
-28.2617
 30
0.0
 10
31.3705
 20
-28.2617
 30
0.0
 10
31.3705
 20
-28.9159
 30
0.0
 10
31.3705
 20
-28.9159
 30
0.0
 10
31.3705
 20
-28.9159
 30
0.0
 10
31.3705
 20
-28.9159
 30
0.0
 10
31.3461
 20
-29.0398
 30
0.0
 10
31.3461
 20
-29.0398
 30
0.0
  0
SPLINE
  5
85
330
1F
100
AcDbEntity
  8
DEFAULT_3
100
AcDbSpline
210
0.0
220
0.0
230
1.0
 70
     8
 71
     3
 72
     8
 73
     4
 74
     0
 42
0.0000000001
 43
0.0000000001
 40
0.0
 40
0.0
 40
0.0
 40
0.0
 40
1.0
 40
1.0
 40
1.0
 40
1.0
 10
25.169
 20
8.7317
 30
0.0
 10
25.0674
 20
8.0518
 30
0.0
 10
24.9659
 20
7.3719
 30
0.0
 10
24.8642
 20
6.6922
 30
0.0
  0
SPLINE
  5
86
330
1F
100
AcDbEntity
  8
DEFAULT_3
100
AcDbSpline
210
0.0
220
0.0
230
1.0
 70
     8
 71
     3
 72
    28
 73
    24
 74
     0
 42
0.0000000001
 43
0.0000000001
 40
0.0
 40
0.0
 40
0.0
 40
0.0
 40
0.1428571428571428
 40
0.1428571428571428
 40
0.1428571428571428
 40
0.1428571428571428
 40
0.2857142857142857
 40
0.2857142857142857
 40
0.2857142857142857
 40
0.2857142857142857
 40
0.4285714285714285
 40
0.4285714285714285
 40
0.4285714285714285
 40
0.4285714285714285
 40
0.5714285714285714
 40
0.5714285714285714
 40
0.5714285714285714
 40
0.5714285714285714
 40
0.7142857142857143
 40
0.7142857142857143
 40
0.7142857142857143
 40
0.7142857142857143
 40
1.0
 40
1.0
 40
1.0
 40
1.0
 10
24.8642
 20
6.6922
 30
0.0
 10
24.8642
 20
6.6922
 30
0.0
 10
24.8642
 20
6.0416
 30
0.0
 10
24.8642
 20
6.0416
 30
0.0
 10
24.8642
 20
6.0416
 30
0.0
 10
24.8642
 20
6.0416
 30
0.0
 10
24.8642
 20
-17.8592
 30
0.0
 10
24.8642
 20
-17.8592
 30
0.0
 10
24.8642
 20
-17.8592
 30
0.0
 10
24.8642
 20
-17.8592
 30
0.0
 10
24.8642
 20
-18.5098
 30
0.0
 10
24.8642
 20
-18.5098
 30
0.0
 10
24.8642
 20
-18.5098
 30
0.0
 10
24.8642
 20
-18.5098
 30
0.0
 10
24.9604
 20
-19.1532
 30
0.0
 10
24.9604
 20
-19.1532
 30
0.0
 10
24.9604
 20
-19.1532
 30
0.0
 10
24.9604
 20
-19.1532
 30
0.0
 10
26.0694
 20
-26.5731
 30
0.0
 10
26.0694
 20
-26.5731
 30
0.0
 10
26.0694
 20
-26.5731
 30
0.0
 10
26.0694
 20
-26.5731
 30
0.0
 10
26.1654
 20
-27.2167
 30
0.0
 10
26.1654
 20
-27.2167
 30
0.0
  0
SPLINE
  5
87
330
1F
100
AcDbEntity
  8
DEFAULT_3
100
AcDbSpline
210
0.0
220
0.0
230
1.0
 70
    24
 71
     3
 72
     8
 73
     4
 74
     0
 42
0.0000000001
 43
0.0000000001
 40
0.0
 40
0.0
 40
0.0
 40
0.0
 40
1.0
 40
1.0
 40
1.0
 40
1.0
 10
3.9526
 20
-7.609
 30
0.0
 10
3.9526
 20
-7.609
 30
0.0
 10
3.9526
 20
-23.4625
 30
0.0
 10
3.9526
 20
-23.4625
 30
0.0
  0
SPLINE
  5
88
330
1F
100
AcDbEntity
  8
DEFAULT_3
100
AcDbSpline
210
0.0
220
0.0
230
1.0
 70
    24
 71
     3
 72
     8
 73
     4
 74
     0
 42
0.0000000001
 43
0.0000000001
 40
0.0
 40
0.0
 40
0.0
 40
0.0
 40
1.0
 40
1.0
 40
1.0
 40
1.0
 10
1.7734
 20
-23.4512
 30
0.0
 10
1.7734
 20
-23.4512
 30
0.0
 10
3.9412
 20
-23.4512
 30
0.0
 10
3.9412
 20
-23.4512
 30
0.0
  0
SPLINE
  5
89
330
1F
100
AcDbEntity
  8
DEFAULT_3
100
AcDbSpline
210
0.0
220
0.0
230
1.0
 70
    24
 71
     3
 72
     8
 73
     4
 74
     0
 42
0.0000000001
 43
0.0000000001
 40
0.0
 40
0.0
 40
0.0
 40
0.0
 40
1.0
 40
1.0
 40
1.0
 40
1.0
 10
3.9412
 20
-7.6203
 30
0.0
 10
3.9412
 20
-7.6203
 30
0.0
 10
3.9412
 20
-23.4512
 30
0.0
 10
3.9412
 20
-23.4512
 30
0.0
  0
SPLINE
  5
8A
330
1F
100
AcDbEntity
  8
DEFAULT_3
100
AcDbSpline
210
0.0
220
0.0
230
1.0
 70
    24
 71
     3
 72
     8
 73
     4
 74
     0
 42
0.0000000001
 43
0.0000000001
 40
0.0
 40
0.0
 40
0.0
 40
0.0
 40
1.0
 40
1.0
 40
1.0
 40
1.0
 10
3.9526
 20
-23.4625
 30
0.0
 10
3.9526
 20
-23.4625
 30
0.0
 10
1.762
 20
-23.4625
 30
0.0
 10
1.762
 20
-23.4625
 30
0.0
  0
SPLINE
  5
8B
330
1F
100
AcDbEntity
  8
DEFAULT_3
100
AcDbSpline
210
0.0
220
0.0
230
1.0
 70
    24
 71
     3
 72
     8
 73
     4
 74
     0
 42
0.0000000001
 43
0.0000000001
 40
0.0
 40
0.0
 40
0.0
 40
0.0
 40
1.0
 40
1.0
 40
1.0
 40
1.0
 10
1.762
 20
-7.609
 30
0.0
 10
1.762
 20
-7.609
 30
0.0
 10
1.762
 20
-23.4625
 30
0.0
 10
1.762
 20
-23.4625
 30
0.0
  0
SPLINE
  5
8C
330
1F
100
AcDbEntity
  8
DEFAULT_3
100
AcDbSpline
210
0.0
220
0.0
230
1.0
 70
    24
 71
     3
 72
     8
 73
     4
 74
     0
 42
0.0000000001
 43
0.0000000001
 40
0.0
 40
0.0
 40
0.0
 40
0.0
 40
1.0
 40
1.0
 40
1.0
 40
1.0
 10
1.7734
 20
-23.4512
 30
0.0
 10
1.7734
 20
-23.4512
 30
0.0
 10
1.7734
 20
-7.6203
 30
0.0
 10
1.7734
 20
-7.6203
 30
0.0
  0
SPLINE
  5
8D
330
1F
100
AcDbEntity
  8
DEFAULT_3
100
AcDbSpline
210
0.0
220
0.0
230
1.0
 70
    24
 71
     3
 72
     8
 73
     4
 74
     0
 42
0.0000000001
 43
0.0000000001
 40
0.0
 40
0.0
 40
0.0
 40
0.0
 40
1.0
 40
1.0
 40
1.0
 40
1.0
 10
3.9412
 20
-7.6203
 30
0.0
 10
3.9412
 20
-7.6203
 30
0.0
 10
1.7734
 20
-7.6203
 30
0.0
 10
1.7734
 20
-7.6203
 30
0.0
  0
SPLINE
  5
8E
330
1F
100
AcDbEntity
  8
DEFAULT_3
100
AcDbSpline
210
0.0
220
0.0
230
1.0
 70
    24
 71
     3
 72
     8
 73
     4
 74
     0
 42
0.0000000001
 43
0.0000000001
 40
0.0
 40
0.0
 40
0.0
 40
0.0
 40
1.0
 40
1.0
 40
1.0
 40
1.0
 10
1.762
 20
-7.609
 30
0.0
 10
1.762
 20
-7.609
 30
0.0
 10
3.9526
 20
-7.609
 30
0.0
 10
3.9526
 20
-7.609
 30
0.0
  0
SPLINE
  5
8F
330
1F
100
AcDbEntity
  8
DEFAULT_3
100
AcDbSpline
210
0.0
220
0.0
230
1.0
 70
    24
 71
     3
 72
     8
 73
     4
 74
     0
 42
0.0000000001
 43
0.0000000001
 40
0.0
 40
0.0
 40
0.0
 40
0.0
 40
1.0
 40
1.0
 40
1.0
 40
1.0
 10
-2.7922
 20
-7.609
 30
0.0
 10
-2.7922
 20
-7.609
 30
0.0
 10
-2.7923
 20
-23.4625
 30
0.0
 10
-2.7923
 20
-23.4625
 30
0.0
  0
SPLINE
  5
90
330
1F
100
AcDbEntity
  8
DEFAULT_3
100
AcDbSpline
210
0.0
220
0.0
230
1.0
 70
    24
 71
     3
 72
     8
 73
     4
 74
     0
 42
0.0000000001
 43
0.0000000001
 40
0.0
 40
0.0
 40
0.0
 40
0.0
 40
1.0
 40
1.0
 40
1.0
 40
1.0
 10
-2.781
 20
-23.4512
 30
0.0
 10
-2.781
 20
-23.4512
 30
0.0
 10
-0.6129
 20
-23.4512
 30
0.0
 10
-0.6129
 20
-23.4512
 30
0.0
  0
SPLINE
  5
91
330
1F
100
AcDbEntity
  8
DEFAULT_3
100
AcDbSpline
210
0.0
220
0.0
230
1.0
 70
    24
 71
     3
 72
     8
 73
     4
 74
     0
 42
0.0000000001
 43
0.0000000001
 40
0.0
 40
0.0
 40
0.0
 40
0.0
 40
1.0
 40
1.0
 40
1.0
 40
1.0
 10
-0.6129
 20
-7.6203
 30
0.0
 10
-0.6129
 20
-7.6203
 30
0.0
 10
-0.6129
 20
-23.4512
 30
0.0
 10
-0.6129
 20
-23.4512
 30
0.0
  0
SPLINE
  5
92
330
1F
100
AcDbEntity
  8
DEFAULT_3
100
AcDbSpline
210
0.0
220
0.0
230
1.0
 70
    24
 71
     3
 72
     8
 73
     4
 74
     0
 42
0.0000000001
 43
0.0000000001
 40
0.0
 40
0.0
 40
0.0
 40
0.0
 40
1.0
 40
1.0
 40
1.0
 40
1.0
 10
-2.7923
 20
-23.4625
 30
0.0
 10
-2.7923
 20
-23.4625
 30
0.0
 10
-0.6018
 20
-23.4625
 30
0.0
 10
-0.6018
 20
-23.4625
 30
0.0
  0
SPLINE
  5
93
330
1F
100
AcDbEntity
  8
DEFAULT_3
100
AcDbSpline
210
0.0
220
0.0
230
1.0
 70
    24
 71
     3
 72
     8
 73
     4
 74
     0
 42
0.0000000001
 43
0.0000000001
 40
0.0
 40
0.0
 40
0.0
 40
0.0
 40
1.0
 40
1.0
 40
1.0
 40
1.0
 10
-0.6018
 20
-7.609
 30
0.0
 10
-0.6018
 20
-7.609
 30
0.0
 10
-0.6018
 20
-23.4625
 30
0.0
 10
-0.6018
 20
-23.4625
 30
0.0
  0
SPLINE
  5
94
330
1F
100
AcDbEntity
  8
DEFAULT_3
100
AcDbSpline
210
0.0
220
0.0
230
1.0
 70
    24
 71
     3
 72
     8
 73
     4
 74
     0
 42
0.0000000001
 43
0.0000000001
 40
0.0
 40
0.0
 40
0.0
 40
0.0
 40
1.0
 40
1.0
 40
1.0
 40
1.0
 10
-2.7922
 20
-7.609
 30
0.0
 10
-2.7922
 20
-7.609
 30
0.0
 10
-0.6018
 20
-7.609
 30
0.0
 10
-0.6018
 20
-7.609
 30
0.0
  0
SPLINE
  5
95
330
1F
100
AcDbEntity
  8
DEFAULT_3
100
AcDbSpline
210
0.0
220
0.0
230
1.0
 70
    24
 71
     3
 72
     8
 73
     4
 74
     0
 42
0.0000000001
 43
0.0000000001
 40
0.0
 40
0.0
 40
0.0
 40
0.0
 40
1.0
 40
1.0
 40
1.0
 40
1.0
 10
-0.6129
 20
-7.6203
 30
0.0
 10
-0.6129
 20
-7.6203
 30
0.0
 10
-2.781
 20
-7.6203
 30
0.0
 10
-2.781
 20
-7.6203
 30
0.0
  0
SPLINE
  5
96
330
1F
100
AcDbEntity
  8
DEFAULT_3
100
AcDbSpline
210
0.0
220
0.0
230
1.0
 70
    24
 71
     3
 72
     8
 73
     4
 74
     0
 42
0.0000000001
 43
0.0000000001
 40
0.0
 40
0.0
 40
0.0
 40
0.0
 40
1.0
 40
1.0
 40
1.0
 40
1.0
 10
-2.781
 20
-23.4512
 30
0.0
 10
-2.781
 20
-23.4512
 30
0.0
 10
-2.781
 20
-7.6203
 30
0.0
 10
-2.781
 20
-7.6203
 30
0.0
  0
SPLINE
  5
97
330
1F
100
AcDbEntity
  8
DEFAULT_3
100
AcDbSpline
210
0.0
220
0.0
230
1.0
 70
    24
 71
     3
 72
     8
 73
     4
 74
     0
 42
0.0000000001
 43
0.0000000001
 40
0.0
 40
0.0
 40
0.0
 40
0.0
 40
1.0
 40
1.0
 40
1.0
 40
1.0
 10
-6.4573
 20
-23.4625
 30
0.0
 10
-6.4573
 20
-23.4625
 30
0.0
 10
-22.3109
 20
-23.4625
 30
0.0
 10
-22.3109
 20
-23.4625
 30
0.0
  0
SPLINE
  5
98
330
1F
100
AcDbEntity
  8
DEFAULT_3
100
AcDbSpline
210
0.0
220
0.0
230
1.0
 70
    24
 71
     3
 72
     8
 73
     4
 74
     0
 42
0.0000000001
 43
0.0000000001
 40
0.0
 40
0.0
 40
0.0
 40
0.0
 40
1.0
 40
1.0
 40
1.0
 40
1.0
 10
-22.2997
 20
-23.4512
 30
0.0
 10
-22.2997
 20
-23.4512
 30
0.0
 10
-22.2997
 20
-21.2834
 30
0.0
 10
-22.2997
 20
-21.2834
 30
0.0
  0
SPLINE
  5
99
330
1F
100
AcDbEntity
  8
DEFAULT_3
100
AcDbSpline
210
0.0
220
0.0
230
1.0
 70
    24
 71
     3
 72
     8
 73
     4
 74
     0
 42
0.0000000001
 43
0.0000000001
 40
0.0
 40
0.0
 40
0.0
 40
0.0
 40
1.0
 40
1.0
 40
1.0
 40
1.0
 10
-22.3109
 20
-21.2721
 30
0.0
 10
-22.3109
 20
-21.2721
 30
0.0
 10
-6.4573
 20
-21.2721
 30
0.0
 10
-6.4573
 20
-21.2721
 30
0.0
  0
SPLINE
  5
9A
330
1F
100
AcDbEntity
  8
DEFAULT_3
100
AcDbSpline
210
0.0
220
0.0
230
1.0
 70
    24
 71
     3
 72
     8
 73
     4
 74
     0
 42
0.0000000001
 43
0.0000000001
 40
0.0
 40
0.0
 40
0.0
 40
0.0
 40
1.0
 40
1.0
 40
1.0
 40
1.0
 10
-6.4573
 20
-23.4625
 30
0.0
 10
-6.4573
 20
-23.4625
 30
0.0
 10
-6.4573
 20
-21.2721
 30
0.0
 10
-6.4573
 20
-21.2721
 30
0.0
  0
SPLINE
  5
9B
330
1F
100
AcDbEntity
  8
DEFAULT_3
100
AcDbSpline
210
0.0
220
0.0
230
1.0
 70
    24
 71
     3
 72
     8
 73
     4
 74
     0
 42
0.0000000001
 43
0.0000000001
 40
0.0
 40
0.0
 40
0.0
 40
0.0
 40
1.0
 40
1.0
 40
1.0
 40
1.0
 10
-22.2997
 20
-21.2834
 30
0.0
 10
-22.2997
 20
-21.2834
 30
0.0
 10
-6.4685
 20
-21.2834
 30
0.0
 10
-6.4685
 20
-21.2834
 30
0.0
  0
SPLINE
  5
9C
330
1F
100
AcDbEntity
  8
DEFAULT_3
100
AcDbSpline
210
0.0
220
0.0
230
1.0
 70
    24
 71
     3
 72
     8
 73
     4
 74
     0
 42
0.0000000001
 43
0.0000000001
 40
0.0
 40
0.0
 40
0.0
 40
0.0
 40
1.0
 40
1.0
 40
1.0
 40
1.0
 10
-6.4685
 20
-23.4512
 30
0.0
 10
-6.4685
 20
-23.4512
 30
0.0
 10
-6.4685
 20
-21.2834
 30
0.0
 10
-6.4685
 20
-21.2834
 30
0.0
  0
SPLINE
  5
9D
330
1F
100
AcDbEntity
  8
DEFAULT_3
100
AcDbSpline
210
0.0
220
0.0
230
1.0
 70
    24
 71
     3
 72
     8
 73
     4
 74
     0
 42
0.0000000001
 43
0.0000000001
 40
0.0
 40
0.0
 40
0.0
 40
0.0
 40
1.0
 40
1.0
 40
1.0
 40
1.0
 10
-22.2997
 20
-23.4512
 30
0.0
 10
-22.2997
 20
-23.4512
 30
0.0
 10
-6.4685
 20
-23.4512
 30
0.0
 10
-6.4685
 20
-23.4512
 30
0.0
  0
SPLINE
  5
9E
330
1F
100
AcDbEntity
  8
DEFAULT_3
100
AcDbSpline
210
0.0
220
0.0
230
1.0
 70
    24
 71
     3
 72
     8
 73
     4
 74
     0
 42
0.0000000001
 43
0.0000000001
 40
0.0
 40
0.0
 40
0.0
 40
0.0
 40
1.0
 40
1.0
 40
1.0
 40
1.0
 10
-22.3109
 20
-23.4625
 30
0.0
 10
-22.3109
 20
-23.4625
 30
0.0
 10
-22.3109
 20
-21.2721
 30
0.0
 10
-22.3109
 20
-21.2721
 30
0.0
  0
SPLINE
  5
9F
330
1F
100
AcDbEntity
  8
DEFAULT_3
100
AcDbSpline
210
0.0
220
0.0
230
1.0
 70
    24
 71
     3
 72
     8
 73
     4
 74
     0
 42
0.0000000001
 43
0.0000000001
 40
0.0
 40
0.0
 40
0.0
 40
0.0
 40
1.0
 40
1.0
 40
1.0
 40
1.0
 10
13.0612
 20
-7.609
 30
0.0
 10
13.0612
 20
-7.609
 30
0.0
 10
13.0612
 20
-23.4625
 30
0.0
 10
13.0612
 20
-23.4625
 30
0.0
  0
SPLINE
  5
A0
330
1F
100
AcDbEntity
  8
DEFAULT_3
100
AcDbSpline
210
0.0
220
0.0
230
1.0
 70
    24
 71
     3
 72
     8
 73
     4
 74
     0
 42
0.0000000001
 43
0.0000000001
 40
0.0
 40
0.0
 40
0.0
 40
0.0
 40
1.0
 40
1.0
 40
1.0
 40
1.0
 10
10.882
 20
-23.4512
 30
0.0
 10
10.882
 20
-23.4512
 30
0.0
 10
13.0499
 20
-23.4512
 30
0.0
 10
13.0499
 20
-23.4512
 30
0.0
  0
SPLINE
  5
A1
330
1F
100
AcDbEntity
  8
DEFAULT_3
100
AcDbSpline
210
0.0
220
0.0
230
1.0
 70
    24
 71
     3
 72
     8
 73
     4
 74
     0
 42
0.0000000001
 43
0.0000000001
 40
0.0
 40
0.0
 40
0.0
 40
0.0
 40
1.0
 40
1.0
 40
1.0
 40
1.0
 10
13.0499
 20
-7.6203
 30
0.0
 10
13.0499
 20
-7.6203
 30
0.0
 10
13.0499
 20
-23.4512
 30
0.0
 10
13.0499
 20
-23.4512
 30
0.0
  0
SPLINE
  5
A2
330
1F
100
AcDbEntity
  8
DEFAULT_3
100
AcDbSpline
210
0.0
220
0.0
230
1.0
 70
    24
 71
     3
 72
     8
 73
     4
 74
     0
 42
0.0000000001
 43
0.0000000001
 40
0.0
 40
0.0
 40
0.0
 40
0.0
 40
1.0
 40
1.0
 40
1.0
 40
1.0
 10
13.0612
 20
-23.4625
 30
0.0
 10
13.0612
 20
-23.4625
 30
0.0
 10
10.8707
 20
-23.4625
 30
0.0
 10
10.8707
 20
-23.4625
 30
0.0
  0
SPLINE
  5
A3
330
1F
100
AcDbEntity
  8
DEFAULT_3
100
AcDbSpline
210
0.0
220
0.0
230
1.0
 70
    24
 71
     3
 72
     8
 73
     4
 74
     0
 42
0.0000000001
 43
0.0000000001
 40
0.0
 40
0.0
 40
0.0
 40
0.0
 40
1.0
 40
1.0
 40
1.0
 40
1.0
 10
10.8707
 20
-7.609
 30
0.0
 10
10.8707
 20
-7.609
 30
0.0
 10
10.8707
 20
-23.4625
 30
0.0
 10
10.8707
 20
-23.4625
 30
0.0
  0
SPLINE
  5
A4
330
1F
100
AcDbEntity
  8
DEFAULT_3
100
AcDbSpline
210
0.0
220
0.0
230
1.0
 70
    24
 71
     3
 72
     8
 73
     4
 74
     0
 42
0.0000000001
 43
0.0000000001
 40
0.0
 40
0.0
 40
0.0
 40
0.0
 40
1.0
 40
1.0
 40
1.0
 40
1.0
 10
10.882
 20
-23.4512
 30
0.0
 10
10.882
 20
-23.4512
 30
0.0
 10
10.882
 20
-7.6203
 30
0.0
 10
10.882
 20
-7.6203
 30
0.0
  0
SPLINE
  5
A5
330
1F
100
AcDbEntity
  8
DEFAULT_3
100
AcDbSpline
210
0.0
220
0.0
230
1.0
 70
    24
 71
     3
 72
     8
 73
     4
 74
     0
 42
0.0000000001
 43
0.0000000001
 40
0.0
 40
0.0
 40
0.0
 40
0.0
 40
1.0
 40
1.0
 40
1.0
 40
1.0
 10
13.0499
 20
-7.6203
 30
0.0
 10
13.0499
 20
-7.6203
 30
0.0
 10
10.882
 20
-7.6203
 30
0.0
 10
10.882
 20
-7.6203
 30
0.0
  0
SPLINE
  5
A6
330
1F
100
AcDbEntity
  8
DEFAULT_3
100
AcDbSpline
210
0.0
220
0.0
230
1.0
 70
    24
 71
     3
 72
     8
 73
     4
 74
     0
 42
0.0000000001
 43
0.0000000001
 40
0.0
 40
0.0
 40
0.0
 40
0.0
 40
1.0
 40
1.0
 40
1.0
 40
1.0
 10
10.8707
 20
-7.609
 30
0.0
 10
10.8707
 20
-7.609
 30
0.0
 10
13.0612
 20
-7.609
 30
0.0
 10
13.0612
 20
-7.609
 30
0.0
  0
SPLINE
  5
A7
330
1F
100
AcDbEntity
  8
DEFAULT_3
100
AcDbSpline
210
0.0
220
0.0
230
1.0
 70
    24
 71
     3
 72
     8
 73
     4
 74
     0
 42
0.0000000001
 43
0.0000000001
 40
0.0
 40
0.0
 40
0.0
 40
0.0
 40
1.0
 40
1.0
 40
1.0
 40
1.0
 10
6.3165
 20
-7.609
 30
0.0
 10
6.3165
 20
-7.609
 30
0.0
 10
6.3165
 20
-23.4625
 30
0.0
 10
6.3165
 20
-23.4625
 30
0.0
  0
SPLINE
  5
A8
330
1F
100
AcDbEntity
  8
DEFAULT_3
100
AcDbSpline
210
0.0
220
0.0
230
1.0
 70
    24
 71
     3
 72
     8
 73
     4
 74
     0
 42
0.0000000001
 43
0.0000000001
 40
0.0
 40
0.0
 40
0.0
 40
0.0
 40
1.0
 40
1.0
 40
1.0
 40
1.0
 10
6.3276
 20
-23.4512
 30
0.0
 10
6.3276
 20
-23.4512
 30
0.0
 10
8.4957
 20
-23.4512
 30
0.0
 10
8.4957
 20
-23.4512
 30
0.0
  0
SPLINE
  5
A9
330
1F
100
AcDbEntity
  8
DEFAULT_3
100
AcDbSpline
210
0.0
220
0.0
230
1.0
 70
    24
 71
     3
 72
     8
 73
     4
 74
     0
 42
0.0000000001
 43
0.0000000001
 40
0.0
 40
0.0
 40
0.0
 40
0.0
 40
1.0
 40
1.0
 40
1.0
 40
1.0
 10
8.4957
 20
-7.6203
 30
0.0
 10
8.4957
 20
-7.6203
 30
0.0
 10
8.4957
 20
-23.4512
 30
0.0
 10
8.4957
 20
-23.4512
 30
0.0
  0
SPLINE
  5
AA
330
1F
100
AcDbEntity
  8
DEFAULT_3
100
AcDbSpline
210
0.0
220
0.0
230
1.0
 70
    24
 71
     3
 72
     8
 73
     4
 74
     0
 42
0.0000000001
 43
0.0000000001
 40
0.0
 40
0.0
 40
0.0
 40
0.0
 40
1.0
 40
1.0
 40
1.0
 40
1.0
 10
6.3165
 20
-23.4625
 30
0.0
 10
6.3165
 20
-23.4625
 30
0.0
 10
8.5069
 20
-23.4625
 30
0.0
 10
8.5069
 20
-23.4625
 30
0.0
  0
SPLINE
  5
AB
330
1F
100
AcDbEntity
  8
DEFAULT_3
100
AcDbSpline
210
0.0
220
0.0
230
1.0
 70
    24
 71
     3
 72
     8
 73
     4
 74
     0
 42
0.0000000001
 43
0.0000000001
 40
0.0
 40
0.0
 40
0.0
 40
0.0
 40
1.0
 40
1.0
 40
1.0
 40
1.0
 10
8.5069
 20
-7.609
 30
0.0
 10
8.5069
 20
-7.609
 30
0.0
 10
8.5069
 20
-23.4625
 30
0.0
 10
8.5069
 20
-23.4625
 30
0.0
  0
SPLINE
  5
AC
330
1F
100
AcDbEntity
  8
DEFAULT_3
100
AcDbSpline
210
0.0
220
0.0
230
1.0
 70
    24
 71
     3
 72
     8
 73
     4
 74
     0
 42
0.0000000001
 43
0.0000000001
 40
0.0
 40
0.0
 40
0.0
 40
0.0
 40
1.0
 40
1.0
 40
1.0
 40
1.0
 10
6.3165
 20
-7.609
 30
0.0
 10
6.3165
 20
-7.609
 30
0.0
 10
8.5069
 20
-7.609
 30
0.0
 10
8.5069
 20
-7.609
 30
0.0
  0
SPLINE
  5
AD
330
1F
100
AcDbEntity
  8
DEFAULT_3
100
AcDbSpline
210
0.0
220
0.0
230
1.0
 70
    24
 71
     3
 72
     8
 73
     4
 74
     0
 42
0.0000000001
 43
0.0000000001
 40
0.0
 40
0.0
 40
0.0
 40
0.0
 40
1.0
 40
1.0
 40
1.0
 40
1.0
 10
8.4957
 20
-7.6203
 30
0.0
 10
8.4957
 20
-7.6203
 30
0.0
 10
6.3276
 20
-7.6203
 30
0.0
 10
6.3276
 20
-7.6203
 30
0.0
  0
SPLINE
  5
AE
330
1F
100
AcDbEntity
  8
DEFAULT_3
100
AcDbSpline
210
0.0
220
0.0
230
1.0
 70
    24
 71
     3
 72
     8
 73
     4
 74
     0
 42
0.0000000001
 43
0.0000000001
 40
0.0
 40
0.0
 40
0.0
 40
0.0
 40
1.0
 40
1.0
 40
1.0
 40
1.0
 10
6.3276
 20
-23.4512
 30
0.0
 10
6.3276
 20
-23.4512
 30
0.0
 10
6.3276
 20
-7.6203
 30
0.0
 10
6.3276
 20
-7.6203
 30
0.0
  0
SPLINE
  5
AF
330
1F
100
AcDbEntity
  8
DEFAULT_3
100
AcDbSpline
210
0.0
220
0.0
230
1.0
 70
    24
 71
     3
 72
     8
 73
     4
 74
     0
 42
0.0000000001
 43
0.0000000001
 40
0.0
 40
0.0
 40
0.0
 40
0.0
 40
1.0
 40
1.0
 40
1.0
 40
1.0
 10
-6.4573
 20
-18.9081
 30
0.0
 10
-6.4573
 20
-18.9081
 30
0.0
 10
-22.3109
 20
-18.9081
 30
0.0
 10
-22.3109
 20
-18.9081
 30
0.0
  0
SPLINE
  5
B0
330
1F
100
AcDbEntity
  8
DEFAULT_3
100
AcDbSpline
210
0.0
220
0.0
230
1.0
 70
    24
 71
     3
 72
     8
 73
     4
 74
     0
 42
0.0000000001
 43
0.0000000001
 40
0.0
 40
0.0
 40
0.0
 40
0.0
 40
1.0
 40
1.0
 40
1.0
 40
1.0
 10
-22.2997
 20
-18.897
 30
0.0
 10
-22.2997
 20
-18.897
 30
0.0
 10
-22.2997
 20
-16.7289
 30
0.0
 10
-22.2997
 20
-16.7289
 30
0.0
  0
SPLINE
  5
B1
330
1F
100
AcDbEntity
  8
DEFAULT_3
100
AcDbSpline
210
0.0
220
0.0
230
1.0
 70
    24
 71
     3
 72
     8
 73
     4
 74
     0
 42
0.0000000001
 43
0.0000000001
 40
0.0
 40
0.0
 40
0.0
 40
0.0
 40
1.0
 40
1.0
 40
1.0
 40
1.0
 10
-22.3109
 20
-16.7177
 30
0.0
 10
-22.3109
 20
-16.7177
 30
0.0
 10
-6.4573
 20
-16.7177
 30
0.0
 10
-6.4573
 20
-16.7177
 30
0.0
  0
SPLINE
  5
B2
330
1F
100
AcDbEntity
  8
DEFAULT_3
100
AcDbSpline
210
0.0
220
0.0
230
1.0
 70
    24
 71
     3
 72
     8
 73
     4
 74
     0
 42
0.0000000001
 43
0.0000000001
 40
0.0
 40
0.0
 40
0.0
 40
0.0
 40
1.0
 40
1.0
 40
1.0
 40
1.0
 10
-6.4573
 20
-18.9081
 30
0.0
 10
-6.4573
 20
-18.9081
 30
0.0
 10
-6.4573
 20
-16.7177
 30
0.0
 10
-6.4573
 20
-16.7177
 30
0.0
  0
SPLINE
  5
B3
330
1F
100
AcDbEntity
  8
DEFAULT_3
100
AcDbSpline
210
0.0
220
0.0
230
1.0
 70
    24
 71
     3
 72
     8
 73
     4
 74
     0
 42
0.0000000001
 43
0.0000000001
 40
0.0
 40
0.0
 40
0.0
 40
0.0
 40
1.0
 40
1.0
 40
1.0
 40
1.0
 10
-22.2997
 20
-16.7289
 30
0.0
 10
-22.2997
 20
-16.7289
 30
0.0
 10
-6.4685
 20
-16.7289
 30
0.0
 10
-6.4685
 20
-16.7289
 30
0.0
  0
SPLINE
  5
B4
330
1F
100
AcDbEntity
  8
DEFAULT_3
100
AcDbSpline
210
0.0
220
0.0
230
1.0
 70
    24
 71
     3
 72
     8
 73
     4
 74
     0
 42
0.0000000001
 43
0.0000000001
 40
0.0
 40
0.0
 40
0.0
 40
0.0
 40
1.0
 40
1.0
 40
1.0
 40
1.0
 10
-6.4685
 20
-18.897
 30
0.0
 10
-6.4685
 20
-18.897
 30
0.0
 10
-6.4685
 20
-16.7289
 30
0.0
 10
-6.4685
 20
-16.7289
 30
0.0
  0
SPLINE
  5
B5
330
1F
100
AcDbEntity
  8
DEFAULT_3
100
AcDbSpline
210
0.0
220
0.0
230
1.0
 70
    24
 71
     3
 72
     8
 73
     4
 74
     0
 42
0.0000000001
 43
0.0000000001
 40
0.0
 40
0.0
 40
0.0
 40
0.0
 40
1.0
 40
1.0
 40
1.0
 40
1.0
 10
-22.2997
 20
-18.897
 30
0.0
 10
-22.2997
 20
-18.897
 30
0.0
 10
-6.4685
 20
-18.897
 30
0.0
 10
-6.4685
 20
-18.897
 30
0.0
  0
SPLINE
  5
B6
330
1F
100
AcDbEntity
  8
DEFAULT_3
100
AcDbSpline
210
0.0
220
0.0
230
1.0
 70
    24
 71
     3
 72
     8
 73
     4
 74
     0
 42
0.0000000001
 43
0.0000000001
 40
0.0
 40
0.0
 40
0.0
 40
0.0
 40
1.0
 40
1.0
 40
1.0
 40
1.0
 10
-22.3109
 20
-18.9081
 30
0.0
 10
-22.3109
 20
-18.9081
 30
0.0
 10
-22.3109
 20
-16.7177
 30
0.0
 10
-22.3109
 20
-16.7177
 30
0.0
  0
SPLINE
  5
B7
330
1F
100
AcDbEntity
  8
DEFAULT_3
100
AcDbSpline
210
0.0
220
0.0
230
1.0
 70
    24
 71
     3
 72
     8
 73
     4
 74
     0
 42
0.0000000001
 43
0.0000000001
 40
0.0
 40
0.0
 40
0.0
 40
0.0
 40
1.0
 40
1.0
 40
1.0
 40
1.0
 10
-6.4573
 20
-12.1632
 30
0.0
 10
-6.4573
 20
-12.1632
 30
0.0
 10
-6.4573
 20
-14.3539
 30
0.0
 10
-6.4573
 20
-14.3539
 30
0.0
  0
SPLINE
  5
B8
330
1F
100
AcDbEntity
  8
DEFAULT_3
100
AcDbSpline
210
0.0
220
0.0
230
1.0
 70
    24
 71
     3
 72
     8
 73
     4
 74
     0
 42
0.0000000001
 43
0.0000000001
 40
0.0
 40
0.0
 40
0.0
 40
0.0
 40
1.0
 40
1.0
 40
1.0
 40
1.0
 10
-22.2997
 20
-14.3426
 30
0.0
 10
-22.2997
 20
-14.3426
 30
0.0
 10
-6.4685
 20
-14.3426
 30
0.0
 10
-6.4685
 20
-14.3426
 30
0.0
  0
SPLINE
  5
B9
330
1F
100
AcDbEntity
  8
DEFAULT_3
100
AcDbSpline
210
0.0
220
0.0
230
1.0
 70
    24
 71
     3
 72
     8
 73
     4
 74
     0
 42
0.0000000001
 43
0.0000000001
 40
0.0
 40
0.0
 40
0.0
 40
0.0
 40
1.0
 40
1.0
 40
1.0
 40
1.0
 10
-6.4685
 20
-12.1747
 30
0.0
 10
-6.4685
 20
-12.1747
 30
0.0
 10
-6.4685
 20
-14.3426
 30
0.0
 10
-6.4685
 20
-14.3426
 30
0.0
  0
SPLINE
  5
BA
330
1F
100
AcDbEntity
  8
DEFAULT_3
100
AcDbSpline
210
0.0
220
0.0
230
1.0
 70
    24
 71
     3
 72
     8
 73
     4
 74
     0
 42
0.0000000001
 43
0.0000000001
 40
0.0
 40
0.0
 40
0.0
 40
0.0
 40
1.0
 40
1.0
 40
1.0
 40
1.0
 10
-6.4573
 20
-14.3539
 30
0.0
 10
-6.4573
 20
-14.3539
 30
0.0
 10
-22.3109
 20
-14.3539
 30
0.0
 10
-22.3109
 20
-14.3539
 30
0.0
  0
SPLINE
  5
BB
330
1F
100
AcDbEntity
  8
DEFAULT_3
100
AcDbSpline
210
0.0
220
0.0
230
1.0
 70
    24
 71
     3
 72
     8
 73
     4
 74
     0
 42
0.0000000001
 43
0.0000000001
 40
0.0
 40
0.0
 40
0.0
 40
0.0
 40
1.0
 40
1.0
 40
1.0
 40
1.0
 10
-22.3109
 20
-12.1632
 30
0.0
 10
-22.3109
 20
-12.1632
 30
0.0
 10
-22.3109
 20
-14.3539
 30
0.0
 10
-22.3109
 20
-14.3539
 30
0.0
  0
SPLINE
  5
BC
330
1F
100
AcDbEntity
  8
DEFAULT_3
100
AcDbSpline
210
0.0
220
0.0
230
1.0
 70
    24
 71
     3
 72
     8
 73
     4
 74
     0
 42
0.0000000001
 43
0.0000000001
 40
0.0
 40
0.0
 40
0.0
 40
0.0
 40
1.0
 40
1.0
 40
1.0
 40
1.0
 10
-22.2997
 20
-14.3426
 30
0.0
 10
-22.2997
 20
-14.3426
 30
0.0
 10
-22.2997
 20
-12.1747
 30
0.0
 10
-22.2997
 20
-12.1747
 30
0.0
  0
SPLINE
  5
BD
330
1F
100
AcDbEntity
  8
DEFAULT_3
100
AcDbSpline
210
0.0
220
0.0
230
1.0
 70
    24
 71
     3
 72
     8
 73
     4
 74
     0
 42
0.0000000001
 43
0.0000000001
 40
0.0
 40
0.0
 40
0.0
 40
0.0
 40
1.0
 40
1.0
 40
1.0
 40
1.0
 10
-6.4685
 20
-12.1747
 30
0.0
 10
-6.4685
 20
-12.1747
 30
0.0
 10
-22.2997
 20
-12.1747
 30
0.0
 10
-22.2997
 20
-12.1747
 30
0.0
  0
SPLINE
  5
BE
330
1F
100
AcDbEntity
  8
DEFAULT_3
100
AcDbSpline
210
0.0
220
0.0
230
1.0
 70
    24
 71
     3
 72
     8
 73
     4
 74
     0
 42
0.0000000001
 43
0.0000000001
 40
0.0
 40
0.0
 40
0.0
 40
0.0
 40
1.0
 40
1.0
 40
1.0
 40
1.0
 10
-22.3109
 20
-12.1632
 30
0.0
 10
-22.3109
 20
-12.1632
 30
0.0
 10
-6.4573
 20
-12.1632
 30
0.0
 10
-6.4573
 20
-12.1632
 30
0.0
  0
SPLINE
  5
BF
330
1F
100
AcDbEntity
  8
DEFAULT_3
100
AcDbSpline
210
0.0
220
0.0
230
1.0
 70
    24
 71
     3
 72
     8
 73
     4
 74
     0
 42
0.0000000001
 43
0.0000000001
 40
0.0
 40
0.0
 40
0.0
 40
0.0
 40
1.0
 40
1.0
 40
1.0
 40
1.0
 10
-6.4573
 20
-9.7995
 30
0.0
 10
-6.4573
 20
-9.7995
 30
0.0
 10
-22.3109
 20
-9.7995
 30
0.0
 10
-22.3109
 20
-9.7995
 30
0.0
  0
SPLINE
  5
C0
330
1F
100
AcDbEntity
  8
DEFAULT_3
100
AcDbSpline
210
0.0
220
0.0
230
1.0
 70
    24
 71
     3
 72
     8
 73
     4
 74
     0
 42
0.0000000001
 43
0.0000000001
 40
0.0
 40
0.0
 40
0.0
 40
0.0
 40
1.0
 40
1.0
 40
1.0
 40
1.0
 10
-22.2997
 20
-9.7883
 30
0.0
 10
-22.2997
 20
-9.7883
 30
0.0
 10
-22.2997
 20
-7.6203
 30
0.0
 10
-22.2997
 20
-7.6203
 30
0.0
  0
SPLINE
  5
C1
330
1F
100
AcDbEntity
  8
DEFAULT_3
100
AcDbSpline
210
0.0
220
0.0
230
1.0
 70
    24
 71
     3
 72
     8
 73
     4
 74
     0
 42
0.0000000001
 43
0.0000000001
 40
0.0
 40
0.0
 40
0.0
 40
0.0
 40
1.0
 40
1.0
 40
1.0
 40
1.0
 10
-22.3109
 20
-7.609
 30
0.0
 10
-22.3109
 20
-7.609
 30
0.0
 10
-6.4573
 20
-7.609
 30
0.0
 10
-6.4573
 20
-7.609
 30
0.0
  0
SPLINE
  5
C2
330
1F
100
AcDbEntity
  8
DEFAULT_3
100
AcDbSpline
210
0.0
220
0.0
230
1.0
 70
    24
 71
     3
 72
     8
 73
     4
 74
     0
 42
0.0000000001
 43
0.0000000001
 40
0.0
 40
0.0
 40
0.0
 40
0.0
 40
1.0
 40
1.0
 40
1.0
 40
1.0
 10
-6.4573
 20
-9.7995
 30
0.0
 10
-6.4573
 20
-9.7995
 30
0.0
 10
-6.4573
 20
-7.609
 30
0.0
 10
-6.4573
 20
-7.609
 30
0.0
  0
SPLINE
  5
C3
330
1F
100
AcDbEntity
  8
DEFAULT_3
100
AcDbSpline
210
0.0
220
0.0
230
1.0
 70
    24
 71
     3
 72
     8
 73
     4
 74
     0
 42
0.0000000001
 43
0.0000000001
 40
0.0
 40
0.0
 40
0.0
 40
0.0
 40
1.0
 40
1.0
 40
1.0
 40
1.0
 10
-22.2997
 20
-7.6203
 30
0.0
 10
-22.2997
 20
-7.6203
 30
0.0
 10
-6.4685
 20
-7.6203
 30
0.0
 10
-6.4685
 20
-7.6203
 30
0.0
  0
SPLINE
  5
C4
330
1F
100
AcDbEntity
  8
DEFAULT_3
100
AcDbSpline
210
0.0
220
0.0
230
1.0
 70
    24
 71
     3
 72
     8
 73
     4
 74
     0
 42
0.0000000001
 43
0.0000000001
 40
0.0
 40
0.0
 40
0.0
 40
0.0
 40
1.0
 40
1.0
 40
1.0
 40
1.0
 10
-6.4685
 20
-9.7883
 30
0.0
 10
-6.4685
 20
-9.7883
 30
0.0
 10
-6.4685
 20
-7.6203
 30
0.0
 10
-6.4685
 20
-7.6203
 30
0.0
  0
SPLINE
  5
C5
330
1F
100
AcDbEntity
  8
DEFAULT_3
100
AcDbSpline
210
0.0
220
0.0
230
1.0
 70
    24
 71
     3
 72
     8
 73
     4
 74
     0
 42
0.0000000001
 43
0.0000000001
 40
0.0
 40
0.0
 40
0.0
 40
0.0
 40
1.0
 40
1.0
 40
1.0
 40
1.0
 10
-22.2997
 20
-9.7883
 30
0.0
 10
-22.2997
 20
-9.7883
 30
0.0
 10
-6.4685
 20
-9.7883
 30
0.0
 10
-6.4685
 20
-9.7883
 30
0.0
  0
SPLINE
  5
C6
330
1F
100
AcDbEntity
  8
DEFAULT_3
100
AcDbSpline
210
0.0
220
0.0
230
1.0
 70
    24
 71
     3
 72
     8
 73
     4
 74
     0
 42
0.0000000001
 43
0.0000000001
 40
0.0
 40
0.0
 40
0.0
 40
0.0
 40
1.0
 40
1.0
 40
1.0
 40
1.0
 10
-22.3109
 20
-9.7995
 30
0.0
 10
-22.3109
 20
-9.7995
 30
0.0
 10
-22.3109
 20
-7.609
 30
0.0
 10
-22.3109
 20
-7.609
 30
0.0
  0
SPLINE
  5
C7
330
1F
100
AcDbEntity
  8
DEFAULT_3
100
AcDbSpline
210
0.0
220
0.0
230
1.0
 70
    24
 71
     3
 72
     8
 73
     4
 74
     0
 42
0.0000000001
 43
0.0000000001
 40
0.0
 40
0.0
 40
0.0
 40
0.0
 40
1.0
 40
1.0
 40
1.0
 40
1.0
 10
-20.1204
 20
-3.944
 30
0.0
 10
-20.1204
 20
-3.944
 30
0.0
 10
-22.3109
 20
-3.944
 30
0.0
 10
-22.3109
 20
-3.944
 30
0.0
  0
SPLINE
  5
C8
330
1F
100
AcDbEntity
  8
DEFAULT_3
100
AcDbSpline
210
0.0
220
0.0
230
1.0
 70
    24
 71
     3
 72
     8
 73
     4
 74
     0
 42
0.0000000001
 43
0.0000000001
 40
0.0
 40
0.0
 40
0.0
 40
0.0
 40
1.0
 40
1.0
 40
1.0
 40
1.0
 10
-22.2997
 20
-3.9328
 30
0.0
 10
-22.2997
 20
-3.9328
 30
0.0
 10
-22.2997
 20
11.8982
 30
0.0
 10
-22.2997
 20
11.8982
 30
0.0
  0
SPLINE
  5
C9
330
1F
100
AcDbEntity
  8
DEFAULT_3
100
AcDbSpline
210
0.0
220
0.0
230
1.0
 70
    24
 71
     3
 72
     8
 73
     4
 74
     0
 42
0.0000000001
 43
0.0000000001
 40
0.0
 40
0.0
 40
0.0
 40
0.0
 40
1.0
 40
1.0
 40
1.0
 40
1.0
 10
-22.3109
 20
11.9097
 30
0.0
 10
-22.3109
 20
11.9097
 30
0.0
 10
-20.1204
 20
11.9097
 30
0.0
 10
-20.1204
 20
11.9097
 30
0.0
  0
SPLINE
  5
CA
330
1F
100
AcDbEntity
  8
DEFAULT_3
100
AcDbSpline
210
0.0
220
0.0
230
1.0
 70
    24
 71
     3
 72
     8
 73
     4
 74
     0
 42
0.0000000001
 43
0.0000000001
 40
0.0
 40
0.0
 40
0.0
 40
0.0
 40
1.0
 40
1.0
 40
1.0
 40
1.0
 10
-20.1204
 20
-3.944
 30
0.0
 10
-20.1204
 20
-3.944
 30
0.0
 10
-20.1204
 20
11.9097
 30
0.0
 10
-20.1204
 20
11.9097
 30
0.0
  0
SPLINE
  5
CB
330
1F
100
AcDbEntity
  8
DEFAULT_3
100
AcDbSpline
210
0.0
220
0.0
230
1.0
 70
    24
 71
     3
 72
     8
 73
     4
 74
     0
 42
0.0000000001
 43
0.0000000001
 40
0.0
 40
0.0
 40
0.0
 40
0.0
 40
1.0
 40
1.0
 40
1.0
 40
1.0
 10
-22.2997
 20
11.8982
 30
0.0
 10
-22.2997
 20
11.8982
 30
0.0
 10
-20.1317
 20
11.8982
 30
0.0
 10
-20.1317
 20
11.8982
 30
0.0
  0
SPLINE
  5
CC
330
1F
100
AcDbEntity
  8
DEFAULT_3
100
AcDbSpline
210
0.0
220
0.0
230
1.0
 70
    24
 71
     3
 72
     8
 73
     4
 74
     0
 42
0.0000000001
 43
0.0000000001
 40
0.0
 40
0.0
 40
0.0
 40
0.0
 40
1.0
 40
1.0
 40
1.0
 40
1.0
 10
-20.1317
 20
-3.9328
 30
0.0
 10
-20.1317
 20
-3.9328
 30
0.0
 10
-20.1317
 20
11.8982
 30
0.0
 10
-20.1317
 20
11.8982
 30
0.0
  0
SPLINE
  5
CD
330
1F
100
AcDbEntity
  8
DEFAULT_3
100
AcDbSpline
210
0.0
220
0.0
230
1.0
 70
    24
 71
     3
 72
     8
 73
     4
 74
     0
 42
0.0000000001
 43
0.0000000001
 40
0.0
 40
0.0
 40
0.0
 40
0.0
 40
1.0
 40
1.0
 40
1.0
 40
1.0
 10
-22.2997
 20
-3.9328
 30
0.0
 10
-22.2997
 20
-3.9328
 30
0.0
 10
-20.1317
 20
-3.9328
 30
0.0
 10
-20.1317
 20
-3.9328
 30
0.0
  0
SPLINE
  5
CE
330
1F
100
AcDbEntity
  8
DEFAULT_3
100
AcDbSpline
210
0.0
220
0.0
230
1.0
 70
    24
 71
     3
 72
     8
 73
     4
 74
     0
 42
0.0000000001
 43
0.0000000001
 40
0.0
 40
0.0
 40
0.0
 40
0.0
 40
1.0
 40
1.0
 40
1.0
 40
1.0
 10
-22.3109
 20
-3.944
 30
0.0
 10
-22.3109
 20
-3.944
 30
0.0
 10
-22.3109
 20
11.9097
 30
0.0
 10
-22.3109
 20
11.9097
 30
0.0
  0
SPLINE
  5
CF
330
1F
100
AcDbEntity
  8
DEFAULT_3
100
AcDbSpline
210
0.0
220
0.0
230
1.0
 70
    24
 71
     3
 72
     8
 73
     4
 74
     0
 42
0.0000000001
 43
0.0000000001
 40
0.0
 40
0.0
 40
0.0
 40
0.0
 40
1.0
 40
1.0
 40
1.0
 40
1.0
 10
13.0612
 20
-3.944
 30
0.0
 10
13.0612
 20
-3.944
 30
0.0
 10
-2.7923
 20
-3.944
 30
0.0
 10
-2.7923
 20
-3.944
 30
0.0
  0
SPLINE
  5
D0
330
1F
100
AcDbEntity
  8
DEFAULT_3
100
AcDbSpline
210
0.0
220
0.0
230
1.0
 70
    24
 71
     3
 72
     8
 73
     4
 74
     0
 42
0.0000000001
 43
0.0000000001
 40
0.0
 40
0.0
 40
0.0
 40
0.0
 40
1.0
 40
1.0
 40
1.0
 40
1.0
 10
-2.781
 20
-3.9328
 30
0.0
 10
-2.781
 20
-3.9328
 30
0.0
 10
-2.781
 20
-1.7647
 30
0.0
 10
-2.781
 20
-1.7647
 30
0.0
  0
SPLINE
  5
D1
330
1F
100
AcDbEntity
  8
DEFAULT_3
100
AcDbSpline
210
0.0
220
0.0
230
1.0
 70
    24
 71
     3
 72
     8
 73
     4
 74
     0
 42
0.0000000001
 43
0.0000000001
 40
0.0
 40
0.0
 40
0.0
 40
0.0
 40
1.0
 40
1.0
 40
1.0
 40
1.0
 10
-2.7922
 20
-1.7535
 30
0.0
 10
-2.7922
 20
-1.7535
 30
0.0
 10
13.0612
 20
-1.7535
 30
0.0
 10
13.0612
 20
-1.7535
 30
0.0
  0
SPLINE
  5
D2
330
1F
100
AcDbEntity
  8
DEFAULT_3
100
AcDbSpline
210
0.0
220
0.0
230
1.0
 70
    24
 71
     3
 72
     8
 73
     4
 74
     0
 42
0.0000000001
 43
0.0000000001
 40
0.0
 40
0.0
 40
0.0
 40
0.0
 40
1.0
 40
1.0
 40
1.0
 40
1.0
 10
13.0612
 20
-3.944
 30
0.0
 10
13.0612
 20
-3.944
 30
0.0
 10
13.0612
 20
-1.7535
 30
0.0
 10
13.0612
 20
-1.7535
 30
0.0
  0
SPLINE
  5
D3
330
1F
100
AcDbEntity
  8
DEFAULT_3
100
AcDbSpline
210
0.0
220
0.0
230
1.0
 70
    24
 71
     3
 72
     8
 73
     4
 74
     0
 42
0.0000000001
 43
0.0000000001
 40
0.0
 40
0.0
 40
0.0
 40
0.0
 40
1.0
 40
1.0
 40
1.0
 40
1.0
 10
-2.781
 20
-1.7647
 30
0.0
 10
-2.781
 20
-1.7647
 30
0.0
 10
13.0499
 20
-1.7647
 30
0.0
 10
13.0499
 20
-1.7647
 30
0.0
  0
SPLINE
  5
D4
330
1F
100
AcDbEntity
  8
DEFAULT_3
100
AcDbSpline
210
0.0
220
0.0
230
1.0
 70
    24
 71
     3
 72
     8
 73
     4
 74
     0
 42
0.0000000001
 43
0.0000000001
 40
0.0
 40
0.0
 40
0.0
 40
0.0
 40
1.0
 40
1.0
 40
1.0
 40
1.0
 10
13.0499
 20
-3.9328
 30
0.0
 10
13.0499
 20
-3.9328
 30
0.0
 10
13.0499
 20
-1.7647
 30
0.0
 10
13.0499
 20
-1.7647
 30
0.0
  0
SPLINE
  5
D5
330
1F
100
AcDbEntity
  8
DEFAULT_3
100
AcDbSpline
210
0.0
220
0.0
230
1.0
 70
    24
 71
     3
 72
     8
 73
     4
 74
     0
 42
0.0000000001
 43
0.0000000001
 40
0.0
 40
0.0
 40
0.0
 40
0.0
 40
1.0
 40
1.0
 40
1.0
 40
1.0
 10
-2.781
 20
-3.9328
 30
0.0
 10
-2.781
 20
-3.9328
 30
0.0
 10
13.0499
 20
-3.9328
 30
0.0
 10
13.0499
 20
-3.9328
 30
0.0
  0
SPLINE
  5
D6
330
1F
100
AcDbEntity
  8
DEFAULT_3
100
AcDbSpline
210
0.0
220
0.0
230
1.0
 70
    24
 71
     3
 72
     8
 73
     4
 74
     0
 42
0.0000000001
 43
0.0000000001
 40
0.0
 40
0.0
 40
0.0
 40
0.0
 40
1.0
 40
1.0
 40
1.0
 40
1.0
 10
-2.7923
 20
-3.944
 30
0.0
 10
-2.7923
 20
-3.944
 30
0.0
 10
-2.7922
 20
-1.7535
 30
0.0
 10
-2.7922
 20
-1.7535
 30
0.0
  0
SPLINE
  5
D7
330
1F
100
AcDbEntity
  8
DEFAULT_3
100
AcDbSpline
210
0.0
220
0.0
230
1.0
 70
    24
 71
     3
 72
     8
 73
     4
 74
     0
 42
0.0000000001
 43
0.0000000001
 40
0.0
 40
0.0
 40
0.0
 40
0.0
 40
1.0
 40
1.0
 40
1.0
 40
1.0
 10
-11.0115
 20
11.9097
 30
0.0
 10
-11.0115
 20
11.9097
 30
0.0
 10
-11.0115
 20
-3.944
 30
0.0
 10
-11.0115
 20
-3.944
 30
0.0
  0
SPLINE
  5
D8
330
1F
100
AcDbEntity
  8
DEFAULT_3
100
AcDbSpline
210
0.0
220
0.0
230
1.0
 70
    24
 71
     3
 72
     8
 73
     4
 74
     0
 42
0.0000000001
 43
0.0000000001
 40
0.0
 40
0.0
 40
0.0
 40
0.0
 40
1.0
 40
1.0
 40
1.0
 40
1.0
 10
-13.1909
 20
-3.9328
 30
0.0
 10
-13.1909
 20
-3.9328
 30
0.0
 10
-11.0229
 20
-3.9328
 30
0.0
 10
-11.0229
 20
-3.9328
 30
0.0
  0
SPLINE
  5
D9
330
1F
100
AcDbEntity
  8
DEFAULT_3
100
AcDbSpline
210
0.0
220
0.0
230
1.0
 70
    24
 71
     3
 72
     8
 73
     4
 74
     0
 42
0.0000000001
 43
0.0000000001
 40
0.0
 40
0.0
 40
0.0
 40
0.0
 40
1.0
 40
1.0
 40
1.0
 40
1.0
 10
-11.0229
 20
11.8982
 30
0.0
 10
-11.0229
 20
11.8982
 30
0.0
 10
-11.0229
 20
-3.9328
 30
0.0
 10
-11.0229
 20
-3.9328
 30
0.0
  0
SPLINE
  5
DA
330
1F
100
AcDbEntity
  8
DEFAULT_3
100
AcDbSpline
210
0.0
220
0.0
230
1.0
 70
    24
 71
     3
 72
     8
 73
     4
 74
     0
 42
0.0000000001
 43
0.0000000001
 40
0.0
 40
0.0
 40
0.0
 40
0.0
 40
1.0
 40
1.0
 40
1.0
 40
1.0
 10
-11.0115
 20
-3.944
 30
0.0
 10
-11.0115
 20
-3.944
 30
0.0
 10
-13.2021
 20
-3.944
 30
0.0
 10
-13.2021
 20
-3.944
 30
0.0
  0
SPLINE
  5
DB
330
1F
100
AcDbEntity
  8
DEFAULT_3
100
AcDbSpline
210
0.0
220
0.0
230
1.0
 70
    24
 71
     3
 72
     8
 73
     4
 74
     0
 42
0.0000000001
 43
0.0000000001
 40
0.0
 40
0.0
 40
0.0
 40
0.0
 40
1.0
 40
1.0
 40
1.0
 40
1.0
 10
-13.2021
 20
11.9097
 30
0.0
 10
-13.2021
 20
11.9097
 30
0.0
 10
-13.2021
 20
-3.944
 30
0.0
 10
-13.2021
 20
-3.944
 30
0.0
  0
SPLINE
  5
DC
330
1F
100
AcDbEntity
  8
DEFAULT_3
100
AcDbSpline
210
0.0
220
0.0
230
1.0
 70
    24
 71
     3
 72
     8
 73
     4
 74
     0
 42
0.0000000001
 43
0.0000000001
 40
0.0
 40
0.0
 40
0.0
 40
0.0
 40
1.0
 40
1.0
 40
1.0
 40
1.0
 10
-13.1909
 20
-3.9328
 30
0.0
 10
-13.1909
 20
-3.9328
 30
0.0
 10
-13.1909
 20
11.8982
 30
0.0
 10
-13.1909
 20
11.8982
 30
0.0
  0
SPLINE
  5
DD
330
1F
100
AcDbEntity
  8
DEFAULT_3
100
AcDbSpline
210
0.0
220
0.0
230
1.0
 70
    24
 71
     3
 72
     8
 73
     4
 74
     0
 42
0.0000000001
 43
0.0000000001
 40
0.0
 40
0.0
 40
0.0
 40
0.0
 40
1.0
 40
1.0
 40
1.0
 40
1.0
 10
-11.0229
 20
11.8982
 30
0.0
 10
-11.0229
 20
11.8982
 30
0.0
 10
-13.1909
 20
11.8982
 30
0.0
 10
-13.1909
 20
11.8982
 30
0.0
  0
SPLINE
  5
DE
330
1F
100
AcDbEntity
  8
DEFAULT_3
100
AcDbSpline
210
0.0
220
0.0
230
1.0
 70
    24
 71
     3
 72
     8
 73
     4
 74
     0
 42
0.0000000001
 43
0.0000000001
 40
0.0
 40
0.0
 40
0.0
 40
0.0
 40
1.0
 40
1.0
 40
1.0
 40
1.0
 10
-13.2021
 20
11.9097
 30
0.0
 10
-13.2021
 20
11.9097
 30
0.0
 10
-11.0115
 20
11.9097
 30
0.0
 10
-11.0115
 20
11.9097
 30
0.0
  0
SPLINE
  5
DF
330
1F
100
AcDbEntity
  8
DEFAULT_3
100
AcDbSpline
210
0.0
220
0.0
230
1.0
 70
    24
 71
     3
 72
     8
 73
     4
 74
     0
 42
0.0000000001
 43
0.0000000001
 40
0.0
 40
0.0
 40
0.0
 40
0.0
 40
1.0
 40
1.0
 40
1.0
 40
1.0
 10
-15.5659
 20
-3.944
 30
0.0
 10
-15.5659
 20
-3.944
 30
0.0
 10
-17.7566
 20
-3.944
 30
0.0
 10
-17.7566
 20
-3.944
 30
0.0
  0
SPLINE
  5
E0
330
1F
100
AcDbEntity
  8
DEFAULT_3
100
AcDbSpline
210
0.0
220
0.0
230
1.0
 70
    24
 71
     3
 72
     8
 73
     4
 74
     0
 42
0.0000000001
 43
0.0000000001
 40
0.0
 40
0.0
 40
0.0
 40
0.0
 40
1.0
 40
1.0
 40
1.0
 40
1.0
 10
-17.7452
 20
-3.9328
 30
0.0
 10
-17.7452
 20
-3.9328
 30
0.0
 10
-17.7452
 20
11.8982
 30
0.0
 10
-17.7452
 20
11.8982
 30
0.0
  0
SPLINE
  5
E1
330
1F
100
AcDbEntity
  8
DEFAULT_3
100
AcDbSpline
210
0.0
220
0.0
230
1.0
 70
    24
 71
     3
 72
     8
 73
     4
 74
     0
 42
0.0000000001
 43
0.0000000001
 40
0.0
 40
0.0
 40
0.0
 40
0.0
 40
1.0
 40
1.0
 40
1.0
 40
1.0
 10
-17.7566
 20
11.9097
 30
0.0
 10
-17.7566
 20
11.9097
 30
0.0
 10
-15.5659
 20
11.9097
 30
0.0
 10
-15.5659
 20
11.9097
 30
0.0
  0
SPLINE
  5
E2
330
1F
100
AcDbEntity
  8
DEFAULT_3
100
AcDbSpline
210
0.0
220
0.0
230
1.0
 70
    24
 71
     3
 72
     8
 73
     4
 74
     0
 42
0.0000000001
 43
0.0000000001
 40
0.0
 40
0.0
 40
0.0
 40
0.0
 40
1.0
 40
1.0
 40
1.0
 40
1.0
 10
-15.5659
 20
-3.944
 30
0.0
 10
-15.5659
 20
-3.944
 30
0.0
 10
-15.5659
 20
11.9097
 30
0.0
 10
-15.5659
 20
11.9097
 30
0.0
  0
SPLINE
  5
E3
330
1F
100
AcDbEntity
  8
DEFAULT_3
100
AcDbSpline
210
0.0
220
0.0
230
1.0
 70
    24
 71
     3
 72
     8
 73
     4
 74
     0
 42
0.0000000001
 43
0.0000000001
 40
0.0
 40
0.0
 40
0.0
 40
0.0
 40
1.0
 40
1.0
 40
1.0
 40
1.0
 10
-17.7452
 20
11.8982
 30
0.0
 10
-17.7452
 20
11.8982
 30
0.0
 10
-15.5774
 20
11.8982
 30
0.0
 10
-15.5774
 20
11.8982
 30
0.0
  0
SPLINE
  5
E4
330
1F
100
AcDbEntity
  8
DEFAULT_3
100
AcDbSpline
210
0.0
220
0.0
230
1.0
 70
    24
 71
     3
 72
     8
 73
     4
 74
     0
 42
0.0000000001
 43
0.0000000001
 40
0.0
 40
0.0
 40
0.0
 40
0.0
 40
1.0
 40
1.0
 40
1.0
 40
1.0
 10
-15.5774
 20
-3.9328
 30
0.0
 10
-15.5774
 20
-3.9328
 30
0.0
 10
-15.5774
 20
11.8982
 30
0.0
 10
-15.5774
 20
11.8982
 30
0.0
  0
SPLINE
  5
E5
330
1F
100
AcDbEntity
  8
DEFAULT_3
100
AcDbSpline
210
0.0
220
0.0
230
1.0
 70
    24
 71
     3
 72
     8
 73
     4
 74
     0
 42
0.0000000001
 43
0.0000000001
 40
0.0
 40
0.0
 40
0.0
 40
0.0
 40
1.0
 40
1.0
 40
1.0
 40
1.0
 10
-17.7452
 20
-3.9328
 30
0.0
 10
-17.7452
 20
-3.9328
 30
0.0
 10
-15.5774
 20
-3.9328
 30
0.0
 10
-15.5774
 20
-3.9328
 30
0.0
  0
SPLINE
  5
E6
330
1F
100
AcDbEntity
  8
DEFAULT_3
100
AcDbSpline
210
0.0
220
0.0
230
1.0
 70
    24
 71
     3
 72
     8
 73
     4
 74
     0
 42
0.0000000001
 43
0.0000000001
 40
0.0
 40
0.0
 40
0.0
 40
0.0
 40
1.0
 40
1.0
 40
1.0
 40
1.0
 10
-17.7566
 20
-3.944
 30
0.0
 10
-17.7566
 20
-3.944
 30
0.0
 10
-17.7566
 20
11.9097
 30
0.0
 10
-17.7566
 20
11.9097
 30
0.0
  0
SPLINE
  5
E7
330
1F
100
AcDbEntity
  8
DEFAULT_3
100
AcDbSpline
210
0.0
220
0.0
230
1.0
 70
    24
 71
     3
 72
     8
 73
     4
 74
     0
 42
0.0000000001
 43
0.0000000001
 40
0.0
 40
0.0
 40
0.0
 40
0.0
 40
1.0
 40
1.0
 40
1.0
 40
1.0
 10
-6.4573
 20
-3.944
 30
0.0
 10
-6.4573
 20
-3.944
 30
0.0
 10
-8.6478
 20
-3.944
 30
0.0
 10
-8.6478
 20
-3.944
 30
0.0
  0
SPLINE
  5
E8
330
1F
100
AcDbEntity
  8
DEFAULT_3
100
AcDbSpline
210
0.0
220
0.0
230
1.0
 70
    24
 71
     3
 72
     8
 73
     4
 74
     0
 42
0.0000000001
 43
0.0000000001
 40
0.0
 40
0.0
 40
0.0
 40
0.0
 40
1.0
 40
1.0
 40
1.0
 40
1.0
 10
-8.6366
 20
-3.9328
 30
0.0
 10
-8.6366
 20
-3.9328
 30
0.0
 10
-8.6366
 20
11.8982
 30
0.0
 10
-8.6366
 20
11.8982
 30
0.0
  0
SPLINE
  5
E9
330
1F
100
AcDbEntity
  8
DEFAULT_3
100
AcDbSpline
210
0.0
220
0.0
230
1.0
 70
    24
 71
     3
 72
     8
 73
     4
 74
     0
 42
0.0000000001
 43
0.0000000001
 40
0.0
 40
0.0
 40
0.0
 40
0.0
 40
1.0
 40
1.0
 40
1.0
 40
1.0
 10
-8.6478
 20
11.9097
 30
0.0
 10
-8.6478
 20
11.9097
 30
0.0
 10
-6.4573
 20
11.9097
 30
0.0
 10
-6.4573
 20
11.9097
 30
0.0
  0
SPLINE
  5
EA
330
1F
100
AcDbEntity
  8
DEFAULT_3
100
AcDbSpline
210
0.0
220
0.0
230
1.0
 70
    24
 71
     3
 72
     8
 73
     4
 74
     0
 42
0.0000000001
 43
0.0000000001
 40
0.0
 40
0.0
 40
0.0
 40
0.0
 40
1.0
 40
1.0
 40
1.0
 40
1.0
 10
-6.4573
 20
-3.944
 30
0.0
 10
-6.4573
 20
-3.944
 30
0.0
 10
-6.4573
 20
11.9097
 30
0.0
 10
-6.4573
 20
11.9097
 30
0.0
  0
SPLINE
  5
EB
330
1F
100
AcDbEntity
  8
DEFAULT_3
100
AcDbSpline
210
0.0
220
0.0
230
1.0
 70
    24
 71
     3
 72
     8
 73
     4
 74
     0
 42
0.0000000001
 43
0.0000000001
 40
0.0
 40
0.0
 40
0.0
 40
0.0
 40
1.0
 40
1.0
 40
1.0
 40
1.0
 10
-8.6366
 20
11.8982
 30
0.0
 10
-8.6366
 20
11.8982
 30
0.0
 10
-6.4685
 20
11.8982
 30
0.0
 10
-6.4685
 20
11.8982
 30
0.0
  0
SPLINE
  5
EC
330
1F
100
AcDbEntity
  8
DEFAULT_3
100
AcDbSpline
210
0.0
220
0.0
230
1.0
 70
    24
 71
     3
 72
     8
 73
     4
 74
     0
 42
0.0000000001
 43
0.0000000001
 40
0.0
 40
0.0
 40
0.0
 40
0.0
 40
1.0
 40
1.0
 40
1.0
 40
1.0
 10
-6.4685
 20
-3.9328
 30
0.0
 10
-6.4685
 20
-3.9328
 30
0.0
 10
-6.4685
 20
11.8982
 30
0.0
 10
-6.4685
 20
11.8982
 30
0.0
  0
SPLINE
  5
ED
330
1F
100
AcDbEntity
  8
DEFAULT_3
100
AcDbSpline
210
0.0
220
0.0
230
1.0
 70
    24
 71
     3
 72
     8
 73
     4
 74
     0
 42
0.0000000001
 43
0.0000000001
 40
0.0
 40
0.0
 40
0.0
 40
0.0
 40
1.0
 40
1.0
 40
1.0
 40
1.0
 10
-8.6366
 20
-3.9328
 30
0.0
 10
-8.6366
 20
-3.9328
 30
0.0
 10
-6.4685
 20
-3.9328
 30
0.0
 10
-6.4685
 20
-3.9328
 30
0.0
  0
SPLINE
  5
EE
330
1F
100
AcDbEntity
  8
DEFAULT_3
100
AcDbSpline
210
0.0
220
0.0
230
1.0
 70
    24
 71
     3
 72
     8
 73
     4
 74
     0
 42
0.0000000001
 43
0.0000000001
 40
0.0
 40
0.0
 40
0.0
 40
0.0
 40
1.0
 40
1.0
 40
1.0
 40
1.0
 10
-8.6478
 20
-3.944
 30
0.0
 10
-8.6478
 20
-3.944
 30
0.0
 10
-8.6478
 20
11.9097
 30
0.0
 10
-8.6478
 20
11.9097
 30
0.0
  0
SPLINE
  5
EF
330
1F
100
AcDbEntity
  8
DEFAULT_3
100
AcDbSpline
210
0.0
220
0.0
230
1.0
 70
    24
 71
     3
 72
     8
 73
     4
 74
     0
 42
0.0000000001
 43
0.0000000001
 40
0.0
 40
0.0
 40
0.0
 40
0.0
 40
1.0
 40
1.0
 40
1.0
 40
1.0
 10
13.0612
 20
0.6102
 30
0.0
 10
13.0612
 20
0.6102
 30
0.0
 10
-2.7923
 20
0.6102
 30
0.0
 10
-2.7923
 20
0.6102
 30
0.0
  0
SPLINE
  5
F0
330
1F
100
AcDbEntity
  8
DEFAULT_3
100
AcDbSpline
210
0.0
220
0.0
230
1.0
 70
    24
 71
     3
 72
     8
 73
     4
 74
     0
 42
0.0000000001
 43
0.0000000001
 40
0.0
 40
0.0
 40
0.0
 40
0.0
 40
1.0
 40
1.0
 40
1.0
 40
1.0
 10
-2.781
 20
0.6217
 30
0.0
 10
-2.781
 20
0.6217
 30
0.0
 10
-2.781
 20
2.7895
 30
0.0
 10
-2.781
 20
2.7895
 30
0.0
  0
SPLINE
  5
F1
330
1F
100
AcDbEntity
  8
DEFAULT_3
100
AcDbSpline
210
0.0
220
0.0
230
1.0
 70
    24
 71
     3
 72
     8
 73
     4
 74
     0
 42
0.0000000001
 43
0.0000000001
 40
0.0
 40
0.0
 40
0.0
 40
0.0
 40
1.0
 40
1.0
 40
1.0
 40
1.0
 10
-2.7922
 20
2.8008
 30
0.0
 10
-2.7922
 20
2.8008
 30
0.0
 10
13.0612
 20
2.8008
 30
0.0
 10
13.0612
 20
2.8008
 30
0.0
  0
SPLINE
  5
F2
330
1F
100
AcDbEntity
  8
DEFAULT_3
100
AcDbSpline
210
0.0
220
0.0
230
1.0
 70
    24
 71
     3
 72
     8
 73
     4
 74
     0
 42
0.0000000001
 43
0.0000000001
 40
0.0
 40
0.0
 40
0.0
 40
0.0
 40
1.0
 40
1.0
 40
1.0
 40
1.0
 10
13.0612
 20
0.6102
 30
0.0
 10
13.0612
 20
0.6102
 30
0.0
 10
13.0612
 20
2.8008
 30
0.0
 10
13.0612
 20
2.8008
 30
0.0
  0
SPLINE
  5
F3
330
1F
100
AcDbEntity
  8
DEFAULT_3
100
AcDbSpline
210
0.0
220
0.0
230
1.0
 70
    24
 71
     3
 72
     8
 73
     4
 74
     0
 42
0.0000000001
 43
0.0000000001
 40
0.0
 40
0.0
 40
0.0
 40
0.0
 40
1.0
 40
1.0
 40
1.0
 40
1.0
 10
-2.781
 20
2.7895
 30
0.0
 10
-2.781
 20
2.7895
 30
0.0
 10
13.0499
 20
2.7895
 30
0.0
 10
13.0499
 20
2.7895
 30
0.0
  0
SPLINE
  5
F4
330
1F
100
AcDbEntity
  8
DEFAULT_3
100
AcDbSpline
210
0.0
220
0.0
230
1.0
 70
    24
 71
     3
 72
     8
 73
     4
 74
     0
 42
0.0000000001
 43
0.0000000001
 40
0.0
 40
0.0
 40
0.0
 40
0.0
 40
1.0
 40
1.0
 40
1.0
 40
1.0
 10
13.0499
 20
0.6217
 30
0.0
 10
13.0499
 20
0.6217
 30
0.0
 10
13.0499
 20
2.7895
 30
0.0
 10
13.0499
 20
2.7895
 30
0.0
  0
SPLINE
  5
F5
330
1F
100
AcDbEntity
  8
DEFAULT_3
100
AcDbSpline
210
0.0
220
0.0
230
1.0
 70
    24
 71
     3
 72
     8
 73
     4
 74
     0
 42
0.0000000001
 43
0.0000000001
 40
0.0
 40
0.0
 40
0.0
 40
0.0
 40
1.0
 40
1.0
 40
1.0
 40
1.0
 10
-2.781
 20
0.6217
 30
0.0
 10
-2.781
 20
0.6217
 30
0.0
 10
13.0499
 20
0.6217
 30
0.0
 10
13.0499
 20
0.6217
 30
0.0
  0
SPLINE
  5
F6
330
1F
100
AcDbEntity
  8
DEFAULT_3
100
AcDbSpline
210
0.0
220
0.0
230
1.0
 70
    24
 71
     3
 72
     8
 73
     4
 74
     0
 42
0.0000000001
 43
0.0000000001
 40
0.0
 40
0.0
 40
0.0
 40
0.0
 40
1.0
 40
1.0
 40
1.0
 40
1.0
 10
-2.7923
 20
0.6102
 30
0.0
 10
-2.7923
 20
0.6102
 30
0.0
 10
-2.7922
 20
2.8008
 30
0.0
 10
-2.7922
 20
2.8008
 30
0.0
  0
SPLINE
  5
F7
330
1F
100
AcDbEntity
  8
DEFAULT_3
100
AcDbSpline
210
0.0
220
0.0
230
1.0
 70
    24
 71
     3
 72
     8
 73
     4
 74
     0
 42
0.0000000001
 43
0.0000000001
 40
0.0
 40
0.0
 40
0.0
 40
0.0
 40
1.0
 40
1.0
 40
1.0
 40
1.0
 10
13.0612
 20
5.1647
 30
0.0
 10
13.0612
 20
5.1647
 30
0.0
 10
-2.7923
 20
5.1647
 30
0.0
 10
-2.7923
 20
5.1647
 30
0.0
  0
SPLINE
  5
F8
330
1F
100
AcDbEntity
  8
DEFAULT_3
100
AcDbSpline
210
0.0
220
0.0
230
1.0
 70
    24
 71
     3
 72
     8
 73
     4
 74
     0
 42
0.0000000001
 43
0.0000000001
 40
0.0
 40
0.0
 40
0.0
 40
0.0
 40
1.0
 40
1.0
 40
1.0
 40
1.0
 10
-2.781
 20
5.1759
 30
0.0
 10
-2.781
 20
5.1759
 30
0.0
 10
-2.781
 20
7.344
 30
0.0
 10
-2.781
 20
7.344
 30
0.0
  0
SPLINE
  5
F9
330
1F
100
AcDbEntity
  8
DEFAULT_3
100
AcDbSpline
210
0.0
220
0.0
230
1.0
 70
    24
 71
     3
 72
     8
 73
     4
 74
     0
 42
0.0000000001
 43
0.0000000001
 40
0.0
 40
0.0
 40
0.0
 40
0.0
 40
1.0
 40
1.0
 40
1.0
 40
1.0
 10
-2.7922
 20
7.3552
 30
0.0
 10
-2.7922
 20
7.3552
 30
0.0
 10
13.0612
 20
7.3552
 30
0.0
 10
13.0612
 20
7.3552
 30
0.0
  0
SPLINE
  5
FA
330
1F
100
AcDbEntity
  8
DEFAULT_3
100
AcDbSpline
210
0.0
220
0.0
230
1.0
 70
    24
 71
     3
 72
     8
 73
     4
 74
     0
 42
0.0000000001
 43
0.0000000001
 40
0.0
 40
0.0
 40
0.0
 40
0.0
 40
1.0
 40
1.0
 40
1.0
 40
1.0
 10
13.0612
 20
5.1647
 30
0.0
 10
13.0612
 20
5.1647
 30
0.0
 10
13.0612
 20
7.3552
 30
0.0
 10
13.0612
 20
7.3552
 30
0.0
  0
SPLINE
  5
FB
330
1F
100
AcDbEntity
  8
DEFAULT_3
100
AcDbSpline
210
0.0
220
0.0
230
1.0
 70
    24
 71
     3
 72
     8
 73
     4
 74
     0
 42
0.0000000001
 43
0.0000000001
 40
0.0
 40
0.0
 40
0.0
 40
0.0
 40
1.0
 40
1.0
 40
1.0
 40
1.0
 10
-2.781
 20
7.344
 30
0.0
 10
-2.781
 20
7.344
 30
0.0
 10
13.0499
 20
7.344
 30
0.0
 10
13.0499
 20
7.344
 30
0.0
  0
SPLINE
  5
FC
330
1F
100
AcDbEntity
  8
DEFAULT_3
100
AcDbSpline
210
0.0
220
0.0
230
1.0
 70
    24
 71
     3
 72
     8
 73
     4
 74
     0
 42
0.0000000001
 43
0.0000000001
 40
0.0
 40
0.0
 40
0.0
 40
0.0
 40
1.0
 40
1.0
 40
1.0
 40
1.0
 10
13.0499
 20
5.1759
 30
0.0
 10
13.0499
 20
5.1759
 30
0.0
 10
13.0499
 20
7.344
 30
0.0
 10
13.0499
 20
7.344
 30
0.0
  0
SPLINE
  5
FD
330
1F
100
AcDbEntity
  8
DEFAULT_3
100
AcDbSpline
210
0.0
220
0.0
230
1.0
 70
    24
 71
     3
 72
     8
 73
     4
 74
     0
 42
0.0000000001
 43
0.0000000001
 40
0.0
 40
0.0
 40
0.0
 40
0.0
 40
1.0
 40
1.0
 40
1.0
 40
1.0
 10
-2.781
 20
5.1759
 30
0.0
 10
-2.781
 20
5.1759
 30
0.0
 10
13.0499
 20
5.1759
 30
0.0
 10
13.0499
 20
5.1759
 30
0.0
  0
SPLINE
  5
FE
330
1F
100
AcDbEntity
  8
DEFAULT_3
100
AcDbSpline
210
0.0
220
0.0
230
1.0
 70
    24
 71
     3
 72
     8
 73
     4
 74
     0
 42
0.0000000001
 43
0.0000000001
 40
0.0
 40
0.0
 40
0.0
 40
0.0
 40
1.0
 40
1.0
 40
1.0
 40
1.0
 10
-2.7923
 20
5.1647
 30
0.0
 10
-2.7923
 20
5.1647
 30
0.0
 10
-2.7922
 20
7.3552
 30
0.0
 10
-2.7922
 20
7.3552
 30
0.0
  0
SPLINE
  5
FF
330
1F
100
AcDbEntity
  8
DEFAULT_3
100
AcDbSpline
210
0.0
220
0.0
230
1.0
 70
    24
 71
     3
 72
     8
 73
     4
 74
     0
 42
0.0000000001
 43
0.0000000001
 40
0.0
 40
0.0
 40
0.0
 40
0.0
 40
1.0
 40
1.0
 40
1.0
 40
1.0
 10
-2.7922
 20
11.9097
 30
0.0
 10
-2.7922
 20
11.9097
 30
0.0
 10
-2.7923
 20
9.719
 30
0.0
 10
-2.7923
 20
9.719
 30
0.0
  0
SPLINE
  5
100
330
1F
100
AcDbEntity
  8
DEFAULT_3
100
AcDbSpline
210
0.0
220
0.0
230
1.0
 70
    24
 71
     3
 72
     8
 73
     4
 74
     0
 42
0.0000000001
 43
0.0000000001
 40
0.0
 40
0.0
 40
0.0
 40
0.0
 40
1.0
 40
1.0
 40
1.0
 40
1.0
 10
-2.781
 20
9.7304
 30
0.0
 10
-2.781
 20
9.7304
 30
0.0
 10
13.0499
 20
9.7304
 30
0.0
 10
13.0499
 20
9.7304
 30
0.0
  0
SPLINE
  5
101
330
1F
100
AcDbEntity
  8
DEFAULT_3
100
AcDbSpline
210
0.0
220
0.0
230
1.0
 70
    24
 71
     3
 72
     8
 73
     4
 74
     0
 42
0.0000000001
 43
0.0000000001
 40
0.0
 40
0.0
 40
0.0
 40
0.0
 40
1.0
 40
1.0
 40
1.0
 40
1.0
 10
13.0499
 20
11.8982
 30
0.0
 10
13.0499
 20
11.8982
 30
0.0
 10
13.0499
 20
9.7304
 30
0.0
 10
13.0499
 20
9.7304
 30
0.0
  0
SPLINE
  5
102
330
1F
100
AcDbEntity
  8
DEFAULT_3
100
AcDbSpline
210
0.0
220
0.0
230
1.0
 70
    24
 71
     3
 72
     8
 73
     4
 74
     0
 42
0.0000000001
 43
0.0000000001
 40
0.0
 40
0.0
 40
0.0
 40
0.0
 40
1.0
 40
1.0
 40
1.0
 40
1.0
 10
-2.7923
 20
9.719
 30
0.0
 10
-2.7923
 20
9.719
 30
0.0
 10
13.0612
 20
9.719
 30
0.0
 10
13.0612
 20
9.719
 30
0.0
  0
SPLINE
  5
103
330
1F
100
AcDbEntity
  8
DEFAULT_3
100
AcDbSpline
210
0.0
220
0.0
230
1.0
 70
    24
 71
     3
 72
     8
 73
     4
 74
     0
 42
0.0000000001
 43
0.0000000001
 40
0.0
 40
0.0
 40
0.0
 40
0.0
 40
1.0
 40
1.0
 40
1.0
 40
1.0
 10
13.0612
 20
11.9097
 30
0.0
 10
13.0612
 20
11.9097
 30
0.0
 10
13.0612
 20
9.719
 30
0.0
 10
13.0612
 20
9.719
 30
0.0
  0
SPLINE
  5
104
330
1F
100
AcDbEntity
  8
DEFAULT_3
100
AcDbSpline
210
0.0
220
0.0
230
1.0
 70
    24
 71
     3
 72
     8
 73
     4
 74
     0
 42
0.0000000001
 43
0.0000000001
 40
0.0
 40
0.0
 40
0.0
 40
0.0
 40
1.0
 40
1.0
 40
1.0
 40
1.0
 10
-2.7922
 20
11.9097
 30
0.0
 10
-2.7922
 20
11.9097
 30
0.0
 10
13.0612
 20
11.9097
 30
0.0
 10
13.0612
 20
11.9097
 30
0.0
  0
SPLINE
  5
105
330
1F
100
AcDbEntity
  8
DEFAULT_3
100
AcDbSpline
210
0.0
220
0.0
230
1.0
 70
    24
 71
     3
 72
     8
 73
     4
 74
     0
 42
0.0000000001
 43
0.0000000001
 40
0.0
 40
0.0
 40
0.0
 40
0.0
 40
1.0
 40
1.0
 40
1.0
 40
1.0
 10
13.0499
 20
11.8982
 30
0.0
 10
13.0499
 20
11.8982
 30
0.0
 10
-2.781
 20
11.8982
 30
0.0
 10
-2.781
 20
11.8982
 30
0.0
  0
SPLINE
  5
106
330
1F
100
AcDbEntity
  8
DEFAULT_3
100
AcDbSpline
210
0.0
220
0.0
230
1.0
 70
    24
 71
     3
 72
     8
 73
     4
 74
     0
 42
0.0000000001
 43
0.0000000001
 40
0.0
 40
0.0
 40
0.0
 40
0.0
 40
1.0
 40
1.0
 40
1.0
 40
1.0
 10
-2.781
 20
9.7304
 30
0.0
 10
-2.781
 20
9.7304
 30
0.0
 10
-2.781
 20
11.8982
 30
0.0
 10
-2.781
 20
11.8982
 30
0.0
  0
SPLINE
  5
107
330
1F
100
AcDbEntity
  8
DEFAULT_3
100
AcDbSpline
210
0.0
220
0.0
230
1.0
 70
     8
 71
     3
 72
    24
 73
    20
 74
     0
 42
0.0000000001
 43
0.0000000001
 40
0.0
 40
0.0
 40
0.0
 40
0.0
 40
0.1666666666666667
 40
0.1666666666666667
 40
0.1666666666666667
 40
0.1666666666666667
 40
0.3333333333333333
 40
0.3333333333333333
 40
0.3333333333333333
 40
0.3333333333333333
 40
0.5
 40
0.5
 40
0.5
 40
0.5
 40
0.6666666666666666
 40
0.6666666666666666
 40
0.6666666666666666
 40
0.6666666666666666
 40
1.0
 40
1.0
 40
1.0
 40
1.0
 10
-27.7888
 20
-29.007
 30
0.0
 10
-27.7888
 20
-29.007
 30
0.0
 10
-27.7248
 20
-29.0133
 30
0.0
 10
-27.7248
 20
-29.0133
 30
0.0
 10
-27.7248
 20
-29.0133
 30
0.0
 10
-27.7248
 20
-29.0133
 30
0.0
 10
-27.0683
 20
-29.0133
 30
0.0
 10
-27.0683
 20
-29.0133
 30
0.0
 10
-27.0683
 20
-29.0133
 30
0.0
 10
-27.0683
 20
-29.0133
 30
0.0
 10
17.8545
 20
-29.0133
 30
0.0
 10
17.8545
 20
-29.0133
 30
0.0
 10
17.8545
 20
-29.0133
 30
0.0
 10
17.8545
 20
-29.0133
 30
0.0
 10
18.5112
 20
-29.0133
 30
0.0
 10
18.5112
 20
-29.0133
 30
0.0
 10
18.5112
 20
-29.0133
 30
0.0
 10
18.5112
 20
-29.0133
 30
0.0
 10
18.5752
 20
-29.007
 30
0.0
 10
18.5752
 20
-29.007
 30
0.0
  0
SPLINE
  5
108
330
1F
100
AcDbEntity
  8
DEFAULT_3
100
AcDbSpline
210
0.0
220
0.0
230
1.0
 70
     8
 71
     3
 72
    24
 73
    20
 74
     0
 42
0.0000000001
 43
0.0000000001
 40
0.0
 40
0.0
 40
0.0
 40
0.0
 40
0.1666666666666667
 40
0.1666666666666667
 40
0.1666666666666667
 40
0.1666666666666667
 40
0.3333333333333333
 40
0.3333333333333333
 40
0.3333333333333333
 40
0.3333333333333333
 40
0.5
 40
0.5
 40
0.5
 40
0.5
 40
0.6666666666666666
 40
0.6666666666666666
 40
0.6666666666666666
 40
0.6666666666666666
 40
1.0
 40
1.0
 40
1.0
 40
1.0
 10
18.6058
 20
-28.8932
 30
0.0
 10
18.6058
 20
-28.8932
 30
0.0
 10
18.5971
 20
-28.8293
 30
0.0
 10
18.5971
 20
-28.8293
 30
0.0
 10
18.5971
 20
-28.8293
 30
0.0
 10
18.5971
 20
-28.8293
 30
0.0
 10
18.5971
 20
-28.1736
 30
0.0
 10
18.5971
 20
-28.1736
 30
0.0
 10
18.5971
 20
-28.1736
 30
0.0
 10
18.5971
 20
-28.1736
 30
0.0
 10
18.5971
 20
16.6894
 30
0.0
 10
18.5971
 20
16.6894
 30
0.0
 10
18.5971
 20
16.6894
 30
0.0
 10
18.5971
 20
16.6894
 30
0.0
 10
18.5971
 20
17.3452
 30
0.0
 10
18.5971
 20
17.3452
 30
0.0
 10
18.5971
 20
17.3452
 30
0.0
 10
18.5971
 20
17.3452
 30
0.0
 10
18.6058
 20
17.4091
 30
0.0
 10
18.6058
 20
17.4091
 30
0.0
  0
SPLINE
  5
109
330
1F
100
AcDbEntity
  8
DEFAULT_3
100
AcDbSpline
210
0.0
220
0.0
230
1.0
 70
     8
 71
     3
 72
    24
 73
    20
 74
     0
 42
0.0000000001
 43
0.0000000001
 40
0.0
 40
0.0
 40
0.0
 40
0.0
 40
0.1666666666666667
 40
0.1666666666666667
 40
0.1666666666666667
 40
0.1666666666666667
 40
0.3333333333333333
 40
0.3333333333333333
 40
0.3333333333333333
 40
0.3333333333333333
 40
0.5
 40
0.5
 40
0.5
 40
0.5
 40
0.6666666666666666
 40
0.6666666666666666
 40
0.6666666666666666
 40
0.6666666666666666
 40
1.0
 40
1.0
 40
1.0
 40
1.0
 10
18.5462
 20
17.454
 30
0.0
 10
18.5462
 20
17.454
 30
0.0
 10
18.4822
 20
17.4604
 30
0.0
 10
18.4822
 20
17.4604
 30
0.0
 10
18.4822
 20
17.4604
 30
0.0
 10
18.4822
 20
17.4604
 30
0.0
 10
17.8261
 20
17.4604
 30
0.0
 10
17.8261
 20
17.4604
 30
0.0
 10
17.8261
 20
17.4604
 30
0.0
 10
17.8261
 20
17.4604
 30
0.0
 10
-27.0574
 20
17.4604
 30
0.0
 10
-27.0574
 20
17.4604
 30
0.0
 10
-27.0574
 20
17.4604
 30
0.0
 10
-27.0574
 20
17.4604
 30
0.0
 10
-27.7132
 20
17.4604
 30
0.0
 10
-27.7132
 20
17.4604
 30
0.0
 10
-27.7132
 20
17.4604
 30
0.0
 10
-27.7132
 20
17.4604
 30
0.0
 10
-27.7772
 20
17.454
 30
0.0
 10
-27.7772
 20
17.454
 30
0.0
  0
SPLINE
  5
10A
330
1F
100
AcDbEntity
  8
DEFAULT_3
100
AcDbSpline
210
0.0
220
0.0
230
1.0
 70
     8
 71
     3
 72
    24
 73
    20
 74
     0
 42
0.0000000001
 43
0.0000000001
 40
0.0
 40
0.0
 40
0.0
 40
0.0
 40
0.1666666666666667
 40
0.1666666666666667
 40
0.1666666666666667
 40
0.1666666666666667
 40
0.3333333333333333
 40
0.3333333333333333
 40
0.3333333333333333
 40
0.3333333333333333
 40
0.5
 40
0.5
 40
0.5
 40
0.5
 40
0.6666666666666666
 40
0.6666666666666666
 40
0.6666666666666666
 40
0.6666666666666666
 40
1.0
 40
1.0
 40
1.0
 40
1.0
 10
-27.8553
 20
17.3845
 30
0.0
 10
-27.8553
 20
17.3845
 30
0.0
 10
-27.8465
 20
17.3205
 30
0.0
 10
-27.8465
 20
17.3205
 30
0.0
 10
-27.8465
 20
17.3205
 30
0.0
 10
-27.8465
 20
17.3205
 30
0.0
 10
-27.8465
 20
16.6644
 30
0.0
 10
-27.8465
 20
16.6644
 30
0.0
 10
-27.8465
 20
16.6644
 30
0.0
 10
-27.8465
 20
16.6644
 30
0.0
 10
-27.8465
 20
-28.2227
 30
0.0
 10
-27.8465
 20
-28.2227
 30
0.0
 10
-27.8465
 20
-28.2227
 30
0.0
 10
-27.8465
 20
-28.2227
 30
0.0
 10
-27.8465
 20
-28.8787
 30
0.0
 10
-27.8465
 20
-28.8787
 30
0.0
 10
-27.8465
 20
-28.8787
 30
0.0
 10
-27.8465
 20
-28.8787
 30
0.0
 10
-27.8553
 20
-28.9427
 30
0.0
 10
-27.8553
 20
-28.9427
 30
0.0
  0
SPLINE
  5
10B
330
1F
100
AcDbEntity
  8
DEFAULT_3
 62
   250
100
AcDbSpline
210
0.0
220
0.0
230
1.0
 70
    24
 71
     3
 72
     8
 73
     4
 74
     0
 42
0.0000000001
 43
0.0000000001
 40
0.0
 40
0.0
 40
0.0
 40
0.0
 40
1.0
 40
1.0
 40
1.0
 40
1.0
 10
24.7261
 20
7.4901
 30
0.0
 10
24.7261
 20
7.4901
 30
0.0
 10
24.7261
 20
26.3882
 30
0.0
 10
24.7261
 20
26.3882
 30
0.0
  0
SPLINE
  5
10C
330
1F
100
AcDbEntity
  8
DEFAULT_3
 62
   250
100
AcDbSpline
210
0.0
220
0.0
230
1.0
 70
    24
 71
     3
 72
     8
 73
     4
 74
     0
 42
0.0000000001
 43
0.0000000001
 40
0.0
 40
0.0
 40
0.0
 40
0.0
 40
1.0
 40
1.0
 40
1.0
 40
1.0
 10
31.3717
 20
22.8361
 30
0.0
 10
31.3717
 20
22.8361
 30
0.0
 10
31.3717
 20
26.3087
 30
0.0
 10
31.3717
 20
26.3087
 30
0.0
  0
SPLINE
  5
10D
330
1F
100
AcDbEntity
  8
DEFAULT_3
 62
   250
100
AcDbSpline
210
0.0
220
0.0
230
1.0
 70
    24
 71
     3
 72
     8
 73
     4
 74
     0
 42
0.0000000001
 43
0.0000000001
 40
0.0
 40
0.0
 40
0.0
 40
0.0
 40
1.0
 40
1.0
 40
1.0
 40
1.0
 10
31.0938
 20
25.966
 30
0.0
 10
31.0938
 20
25.966
 30
0.0
 10
26.406
 20
25.966
 30
0.0
 10
26.406
 20
25.966
 30
0.0
  0
SPLINE
  5
10E
330
1F
100
AcDbEntity
  8
DEFAULT_3
 62
   250
100
AcDbSpline
210
0.0
220
0.0
230
1.0
 70
    11
 71
     3
 72
    44
 73
    40
 74
     0
 42
0.0000000001
 43
0.0000000001
 40
0.0
 40
0.0
 40
0.0
 40
0.0
 40
0.0909090909090909
 40
0.0909090909090909
 40
0.0909090909090909
 40
0.0909090909090909
 40
0.1818181818181818
 40
0.1818181818181818
 40
0.1818181818181818
 40
0.1818181818181818
 40
0.2727272727272727
 40
0.2727272727272727
 40
0.2727272727272727
 40
0.2727272727272727
 40
0.3636363636363636
 40
0.3636363636363636
 40
0.3636363636363636
 40
0.3636363636363636
 40
0.4545454545454545
 40
0.4545454545454545
 40
0.4545454545454545
 40
0.4545454545454545
 40
0.5454545454545454
 40
0.5454545454545454
 40
0.5454545454545454
 40
0.5454545454545454
 40
0.6363636363636364
 40
0.6363636363636364
 40
0.6363636363636364
 40
0.6363636363636364
 40
0.7272727272727273
 40
0.7272727272727273
 40
0.7272727272727273
 40
0.7272727272727273
 40
0.8181818181818182
 40
0.8181818181818182
 40
0.8181818181818182
 40
0.8181818181818182
 40
1.0
 40
1.0
 40
1.0
 40
1.0
 10
26.4562
 20
26.52
 30
0.0
 10
26.3193
 20
26.6927
 30
0.0
 10
26.2036
 20
26.8949
 30
0.0
 10
26.1091
 20
27.1263
 30
0.0
 10
26.1091
 20
27.1263
 30
0.0
 10
26.0146
 20
27.3582
 30
0.0
 10
25.967
 20
27.5976
 30
0.0
 10
25.967
 20
27.846
 30
0.0
 10
25.967
 20
27.846
 30
0.0
 10
25.967
 20
28.0647
 30
0.0
 10
26.0023
 20
28.274
 30
0.0
 10
26.0733
 20
28.4744
 30
0.0
 10
26.0733
 20
28.4744
 30
0.0
 10
26.1561
 20
28.7068
 30
0.0
 10
26.2836
 20
28.9382
 30
0.0
 10
26.4562
 20
29.1687
 30
0.0
 10
26.4562
 20
29.1687
 30
0.0
 10
26.4562
 20
29.1687
 30
0.0
 10
26.634
 20
29.1687
 30
0.0
 10
26.634
 20
29.1687
 30
0.0
 10
26.634
 20
29.1687
 30
0.0
 10
26.523
 20
28.9777
 30
0.0
 10
26.4496
 20
28.8413
 30
0.0
 10
26.4139
 20
28.7594
 30
0.0
 10
26.4139
 20
28.7594
 30
0.0
 10
26.3574
 20
28.6329
 30
0.0
 10
26.3137
 20
28.5003
 30
0.0
 10
26.2812
 20
28.3625
 30
0.0
 10
26.2812
 20
28.3625
 30
0.0
 10
26.2417
 20
28.1908
 30
0.0
 10
26.222
 20
28.0181
 30
0.0
 10
26.222
 20
27.8446
 30
0.0
 10
26.222
 20
27.8446
 30
0.0
 10
26.222
 20
27.4024
 30
0.0
 10
26.3593
 20
26.9612
 30
0.0
 10
26.634
 20
26.52
 30
0.0
 10
26.634
 20
26.52
 30
0.0
 10
26.634
 20
26.52
 30
0.0
 10
26.4562
 20
26.52
 30
0.0
 10
26.4562
 20
26.52
 30
0.0
  0
SPLINE
  5
10F
330
1F
100
AcDbEntity
  8
DEFAULT_3
 62
   250
100
AcDbSpline
210
0.0
220
0.0
230
1.0
 70
    11
 71
     3
 72
    92
 73
    88
 74
     0
 42
0.0000000001
 43
0.0000000001
 40
0.0
 40
0.0
 40
0.0
 40
0.0
 40
0.0434782608695652
 40
0.0434782608695652
 40
0.0434782608695652
 40
0.0434782608695652
 40
0.0869565217391304
 40
0.0869565217391304
 40
0.0869565217391304
 40
0.0869565217391304
 40
0.1304347826086956
 40
0.1304347826086956
 40
0.1304347826086956
 40
0.1304347826086956
 40
0.1739130434782609
 40
0.1739130434782609
 40
0.1739130434782609
 40
0.1739130434782609
 40
0.2173913043478261
 40
0.2173913043478261
 40
0.2173913043478261
 40
0.2173913043478261
 40
0.2608695652173913
 40
0.2608695652173913
 40
0.2608695652173913
 40
0.2608695652173913
 40
0.3043478260869565
 40
0.3043478260869565
 40
0.3043478260869565
 40
0.3043478260869565
 40
0.3478260869565217
 40
0.3478260869565217
 40
0.3478260869565217
 40
0.3478260869565217
 40
0.391304347826087
 40
0.391304347826087
 40
0.391304347826087
 40
0.391304347826087
 40
0.4347826086956522
 40
0.4347826086956522
 40
0.4347826086956522
 40
0.4347826086956522
 40
0.4782608695652174
 40
0.4782608695652174
 40
0.4782608695652174
 40
0.4782608695652174
 40
0.5217391304347826
 40
0.5217391304347826
 40
0.5217391304347826
 40
0.5217391304347826
 40
0.5652173913043478
 40
0.5652173913043478
 40
0.5652173913043478
 40
0.5652173913043478
 40
0.6086956521739131
 40
0.6086956521739131
 40
0.6086956521739131
 40
0.6086956521739131
 40
0.6521739130434783
 40
0.6521739130434783
 40
0.6521739130434783
 40
0.6521739130434783
 40
0.6956521739130435
 40
0.6956521739130435
 40
0.6956521739130435
 40
0.6956521739130435
 40
0.7391304347826086
 40
0.7391304347826086
 40
0.7391304347826086
 40
0.7391304347826086
 40
0.782608695652174
 40
0.782608695652174
 40
0.782608695652174
 40
0.782608695652174
 40
0.8260869565217391
 40
0.8260869565217391
 40
0.8260869565217391
 40
0.8260869565217391
 40
0.8695652173913043
 40
0.8695652173913043
 40
0.8695652173913043
 40
0.8695652173913043
 40
0.9130434782608695
 40
0.9130434782608695
 40
0.9130434782608695
 40
0.9130434782608695
 40
1.0
 40
1.0
 40
1.0
 40
1.0
 10
28.1571
 20
27.3526
 30
0.0
 10
28.1571
 20
27.3526
 30
0.0
 10
28.1571
 20
27.1141
 30
0.0
 10
28.1571
 20
27.1141
 30
0.0
 10
28.1571
 20
27.1141
 30
0.0
 10
28.1571
 20
27.1141
 30
0.0
 10
26.8217
 20
27.1141
 30
0.0
 10
26.8217
 20
27.1141
 30
0.0
 10
26.8217
 20
27.1141
 30
0.0
 10
26.8198
 20
27.1738
 30
0.0
 10
26.8292
 20
27.2312
 30
0.0
 10
26.8504
 20
27.2863
 30
0.0
 10
26.8504
 20
27.2863
 30
0.0
 10
26.8843
 20
27.3775
 30
0.0
 10
26.9388
 20
27.4669
 30
0.0
 10
27.0136
 20
27.5553
 30
0.0
 10
27.0136
 20
27.5553
 30
0.0
 10
27.0889
 20
27.6433
 30
0.0
 10
27.1971
 20
27.7453
 30
0.0
 10
27.3382
 20
27.861
 30
0.0
 10
27.3382
 20
27.861
 30
0.0
 10
27.5578
 20
28.0412
 30
0.0
 10
27.7065
 20
28.1837
 30
0.0
 10
27.7836
 20
28.2891
 30
0.0
 10
27.7836
 20
28.2891
 30
0.0
 10
27.8607
 20
28.394
 30
0.0
 10
27.8993
 20
28.4937
 30
0.0
 10
27.8993
 20
28.5873
 30
0.0
 10
27.8993
 20
28.5873
 30
0.0
 10
27.8993
 20
28.6856
 30
0.0
 10
27.864
 20
28.7684
 30
0.0
 10
27.794
 20
28.8361
 30
0.0
 10
27.794
 20
28.8361
 30
0.0
 10
27.7234
 20
28.9034
 30
0.0
 10
27.6317
 20
28.9372
 30
0.0
 10
27.5188
 20
28.9372
 30
0.0
 10
27.5188
 20
28.9372
 30
0.0
 10
27.3993
 20
28.9372
 30
0.0
 10
27.3038
 20
28.9015
 30
0.0
 10
27.2323
 20
28.8295
 30
0.0
 10
27.2323
 20
28.8295
 30
0.0
 10
27.1604
 20
28.758
 30
0.0
 10
27.1242
 20
28.6588
 30
0.0
 10
27.1232
 20
28.5323
 30
0.0
 10
27.1232
 20
28.5323
 30
0.0
 10
27.1232
 20
28.5323
 30
0.0
 10
26.8683
 20
28.5581
 30
0.0
 10
26.8683
 20
28.5581
 30
0.0
 10
26.8683
 20
28.5581
 30
0.0
 10
26.8857
 20
28.7486
 30
0.0
 10
26.9515
 20
28.8935
 30
0.0
 10
27.0654
 20
28.9932
 30
0.0
 10
27.0654
 20
28.9932
 30
0.0
 10
27.1792
 20
29.0929
 30
0.0
 10
27.3325
 20
29.1428
 30
0.0
 10
27.5244
 20
29.1428
 30
0.0
 10
27.5244
 20
29.1428
 30
0.0
 10
27.7182
 20
29.1428
 30
0.0
 10
27.8716
 20
29.0887
 30
0.0
 10
27.9845
 20
28.9815
 30
0.0
 10
27.9845
 20
28.9815
 30
0.0
 10
28.0978
 20
28.8737
 30
0.0
 10
28.1543
 20
28.7406
 30
0.0
 10
28.1543
 20
28.5816
 30
0.0
 10
28.1543
 20
28.5816
 30
0.0
 10
28.1543
 20
28.5007
 30
0.0
 10
28.1378
 20
28.4212
 30
0.0
 10
28.1044
 20
28.3432
 30
0.0
 10
28.1044
 20
28.3432
 30
0.0
 10
28.0715
 20
28.2651
 30
0.0
 10
28.0164
 20
28.1828
 30
0.0
 10
27.9398
 20
28.0967
 30
0.0
 10
27.9398
 20
28.0967
 30
0.0
 10
27.8631
 20
28.0101
 30
0.0
 10
27.7356
 20
27.8916
 30
0.0
 10
27.5574
 20
27.7411
 30
0.0
 10
27.5574
 20
27.7411
 30
0.0
 10
27.4087
 20
27.616
 30
0.0
 10
27.3132
 20
27.5313
 30
0.0
 10
27.2709
 20
27.4866
 30
0.0
 10
27.2709
 20
27.4866
 30
0.0
 10
27.2286
 20
27.4424
 30
0.0
 10
27.1938
 20
27.3977
 30
0.0
 10
27.166
 20
27.3526
 30
0.0
 10
27.166
 20
27.3526
 30
0.0
 10
27.166
 20
27.3526
 30
0.0
 10
28.1571
 20
27.3526
 30
0.0
 10
28.1571
 20
27.3526
 30
0.0
  0
SPLINE
  5
110
330
1F
100
AcDbEntity
  8
DEFAULT_3
 62
   250
100
AcDbSpline
210
0.0
220
0.0
230
1.0
 70
    11
 71
     3
 72
    52
 73
    48
 74
     0
 42
0.0000000001
 43
0.0000000001
 40
0.0
 40
0.0
 40
0.0
 40
0.0
 40
0.0769230769230769
 40
0.0769230769230769
 40
0.0769230769230769
 40
0.0769230769230769
 40
0.1538461538461539
 40
0.1538461538461539
 40
0.1538461538461539
 40
0.1538461538461539
 40
0.2307692307692308
 40
0.2307692307692308
 40
0.2307692307692308
 40
0.2307692307692308
 40
0.3076923076923077
 40
0.3076923076923077
 40
0.3076923076923077
 40
0.3076923076923077
 40
0.3846153846153846
 40
0.3846153846153846
 40
0.3846153846153846
 40
0.3846153846153846
 40
0.4615384615384616
 40
0.4615384615384616
 40
0.4615384615384616
 40
0.4615384615384616
 40
0.5384615384615384
 40
0.5384615384615384
 40
0.5384615384615384
 40
0.5384615384615384
 40
0.6153846153846154
 40
0.6153846153846154
 40
0.6153846153846154
 40
0.6153846153846154
 40
0.6923076923076923
 40
0.6923076923076923
 40
0.6923076923076923
 40
0.6923076923076923
 40
0.7692307692307693
 40
0.7692307692307693
 40
0.7692307692307693
 40
0.7692307692307693
 40
0.8461538461538461
 40
0.8461538461538461
 40
0.8461538461538461
 40
0.8461538461538461
 40
1.0
 40
1.0
 40
1.0
 40
1.0
 10
28.4228
 20
28.1103
 30
0.0
 10
28.4228
 20
28.3493
 30
0.0
 10
28.4473
 20
28.5417
 30
0.0
 10
28.4967
 20
28.687
 30
0.0
 10
28.4967
 20
28.687
 30
0.0
 10
28.5456
 20
28.8328
 30
0.0
 10
28.619
 20
28.9452
 30
0.0
 10
28.7159
 20
29.0243
 30
0.0
 10
28.7159
 20
29.0243
 30
0.0
 10
28.8128
 20
29.1033
 30
0.0
 10
28.9346
 20
29.1428
 30
0.0
 10
29.0813
 20
29.1428
 30
0.0
 10
29.0813
 20
29.1428
 30
0.0
 10
29.19
 20
29.1428
 30
0.0
 10
29.285
 20
29.1207
 30
0.0
 10
29.3668
 20
29.0769
 30
0.0
 10
29.3668
 20
29.0769
 30
0.0
 10
29.4487
 20
29.0337
 30
0.0
 10
29.516
 20
28.9706
 30
0.0
 10
29.5696
 20
28.8883
 30
0.0
 10
29.5696
 20
28.8883
 30
0.0
 10
29.6227
 20
28.806
 30
0.0
 10
29.6646
 20
28.7058
 30
0.0
 10
29.6947
 20
28.5878
 30
0.0
 10
29.6947
 20
28.5878
 30
0.0
 10
29.7253
 20
28.4697
 30
0.0
 10
29.7403
 20
28.3107
 30
0.0
 10
29.7403
 20
28.1103
 30
0.0
 10
29.7403
 20
28.1103
 30
0.0
 10
29.7403
 20
27.8733
 30
0.0
 10
29.7159
 20
27.6823
 30
0.0
 10
29.6674
 20
27.5365
 30
0.0
 10
29.6674
 20
27.5365
 30
0.0
 10
29.6185
 20
27.3907
 30
0.0
 10
29.5456
 20
27.2783
 30
0.0
 10
29.4487
 20
27.1988
 30
0.0
 10
29.4487
 20
27.1988
 30
0.0
 10
29.3518
 20
27.1193
 30
0.0
 10
29.2295
 20
27.0798
 30
0.0
 10
29.0813
 20
27.0798
 30
0.0
 10
29.0813
 20
27.0798
 30
0.0
 10
28.8866
 20
27.0798
 30
0.0
 10
28.7337
 20
27.1494
 30
0.0
 10
28.6227
 20
27.2891
 30
0.0
 10
28.6227
 20
27.2891
 30
0.0
 10
28.4896
 20
27.457
 30
0.0
 10
28.4228
 20
27.7312
 30
0.0
 10
28.4228
 20
28.1103
 30
0.0
  0
SPLINE
  5
111
330
1F
100
AcDbEntity
  8
DEFAULT_3
 62
   250
100
AcDbSpline
210
0.0
220
0.0
230
1.0
 70
    11
 71
     3
 72
    36
 73
    32
 74
     0
 42
0.0000000001
 43
0.0000000001
 40
0.0
 40
0.0
 40
0.0
 40
0.0
 40
0.1111111111111111
 40
0.1111111111111111
 40
0.1111111111111111
 40
0.1111111111111111
 40
0.2222222222222222
 40
0.2222222222222222
 40
0.2222222222222222
 40
0.2222222222222222
 40
0.3333333333333333
 40
0.3333333333333333
 40
0.3333333333333333
 40
0.3333333333333333
 40
0.4444444444444444
 40
0.4444444444444444
 40
0.4444444444444444
 40
0.4444444444444444
 40
0.5555555555555556
 40
0.5555555555555556
 40
0.5555555555555556
 40
0.5555555555555556
 40
0.6666666666666666
 40
0.6666666666666666
 40
0.6666666666666666
 40
0.6666666666666666
 40
0.7777777777777778
 40
0.7777777777777778
 40
0.7777777777777778
 40
0.7777777777777778
 40
1.0
 40
1.0
 40
1.0
 40
1.0
 10
28.6778
 20
28.1103
 30
0.0
 10
28.6778
 20
27.7787
 30
0.0
 10
28.7168
 20
27.5581
 30
0.0
 10
28.7944
 20
27.4481
 30
0.0
 10
28.7944
 20
27.4481
 30
0.0
 10
28.872
 20
27.3385
 30
0.0
 10
28.9675
 20
27.2834
 30
0.0
 10
29.0813
 20
27.2834
 30
0.0
 10
29.0813
 20
27.2834
 30
0.0
 10
29.1956
 20
27.2834
 30
0.0
 10
29.2911
 20
27.3389
 30
0.0
 10
29.3687
 20
27.449
 30
0.0
 10
29.3687
 20
27.449
 30
0.0
 10
29.4463
 20
27.5591
 30
0.0
 10
29.4854
 20
27.7797
 30
0.0
 10
29.4854
 20
28.1103
 30
0.0
 10
29.4854
 20
28.1103
 30
0.0
 10
29.4854
 20
28.4429
 30
0.0
 10
29.4463
 20
28.664
 30
0.0
 10
29.3687
 20
28.7731
 30
0.0
 10
29.3687
 20
28.7731
 30
0.0
 10
29.2911
 20
28.8827
 30
0.0
 10
29.1947
 20
28.9372
 30
0.0
 10
29.079
 20
28.9372
 30
0.0
 10
29.079
 20
28.9372
 30
0.0
 10
28.9647
 20
28.9372
 30
0.0
 10
28.8739
 20
28.8888
 30
0.0
 10
28.8057
 20
28.7924
 30
0.0
 10
28.8057
 20
28.7924
 30
0.0
 10
28.7206
 20
28.6696
 30
0.0
 10
28.6778
 20
28.4419
 30
0.0
 10
28.6778
 20
28.1103
 30
0.0
  0
SPLINE
  5
112
330
1F
100
AcDbEntity
  8
DEFAULT_3
 62
   250
100
AcDbSpline
210
0.0
220
0.0
230
1.0
 70
    11
 71
     3
 72
    44
 73
    40
 74
     0
 42
0.0000000001
 43
0.0000000001
 40
0.0
 40
0.0
 40
0.0
 40
0.0
 40
0.0909090909090909
 40
0.0909090909090909
 40
0.0909090909090909
 40
0.0909090909090909
 40
0.1818181818181818
 40
0.1818181818181818
 40
0.1818181818181818
 40
0.1818181818181818
 40
0.2727272727272727
 40
0.2727272727272727
 40
0.2727272727272727
 40
0.2727272727272727
 40
0.3636363636363636
 40
0.3636363636363636
 40
0.3636363636363636
 40
0.3636363636363636
 40
0.4545454545454545
 40
0.4545454545454545
 40
0.4545454545454545
 40
0.4545454545454545
 40
0.5454545454545454
 40
0.5454545454545454
 40
0.5454545454545454
 40
0.5454545454545454
 40
0.6363636363636364
 40
0.6363636363636364
 40
0.6363636363636364
 40
0.6363636363636364
 40
0.7272727272727273
 40
0.7272727272727273
 40
0.7272727272727273
 40
0.7272727272727273
 40
0.8181818181818182
 40
0.8181818181818182
 40
0.8181818181818182
 40
0.8181818181818182
 40
1.0
 40
1.0
 40
1.0
 40
1.0
 10
30.2238
 20
26.52
 30
0.0
 10
30.2238
 20
26.52
 30
0.0
 10
30.046
 20
26.52
 30
0.0
 10
30.046
 20
26.52
 30
0.0
 10
30.046
 20
26.52
 30
0.0
 10
30.3207
 20
26.9612
 30
0.0
 10
30.4581
 20
27.4024
 30
0.0
 10
30.4581
 20
27.8446
 30
0.0
 10
30.4581
 20
27.8446
 30
0.0
 10
30.4581
 20
28.0172
 30
0.0
 10
30.4383
 20
28.1884
 30
0.0
 10
30.3988
 20
28.3587
 30
0.0
 10
30.3988
 20
28.3587
 30
0.0
 10
30.3678
 20
28.496
 30
0.0
 10
30.324
 20
28.6287
 30
0.0
 10
30.2681
 20
28.7552
 30
0.0
 10
30.2681
 20
28.7552
 30
0.0
 10
30.2323
 20
28.838
 30
0.0
 10
30.1585
 20
28.9758
 30
0.0
 10
30.046
 20
29.1687
 30
0.0
 10
30.046
 20
29.1687
 30
0.0
 10
30.046
 20
29.1687
 30
0.0
 10
30.2238
 20
29.1687
 30
0.0
 10
30.2238
 20
29.1687
 30
0.0
 10
30.2238
 20
29.1687
 30
0.0
 10
30.3965
 20
28.9382
 30
0.0
 10
30.5244
 20
28.7068
 30
0.0
 10
30.6072
 20
28.4744
 30
0.0
 10
30.6072
 20
28.4744
 30
0.0
 10
30.6777
 20
28.274
 30
0.0
 10
30.713
 20
28.0647
 30
0.0
 10
30.713
 20
27.846
 30
0.0
 10
30.713
 20
27.846
 30
0.0
 10
30.713
 20
27.5976
 30
0.0
 10
30.6655
 20
27.3582
 30
0.0
 10
30.5705
 20
27.1263
 30
0.0
 10
30.5705
 20
27.1263
 30
0.0
 10
30.4755
 20
26.8949
 30
0.0
 10
30.3598
 20
26.6927
 30
0.0
 10
30.2238
 20
26.52
 30
0.0
  0
SPLINE
  5
113
330
1F
100
AcDbEntity
  8
DEFAULT_3
 62
   250
100
AcDbSpline
210
0.0
220
0.0
230
1.0
 70
    11
 71
     3
 72
    20
 73
    16
 74
     0
 42
0.0000000001
 43
0.0000000001
 40
0.0
 40
0.0
 40
0.0
 40
0.0
 40
0.2
 40
0.2
 40
0.2
 40
0.2
 40
0.4
 40
0.4
 40
0.4
 40
0.4
 40
0.6
 40
0.6
 40
0.6
 40
0.6
 40
1.0
 40
1.0
 40
1.0
 40
1.0
 10
28.8141
 20
26.346
 30
0.0
 10
28.8141
 20
26.346
 30
0.0
 10
31.3141
 20
25.9931
 30
0.0
 10
31.3141
 20
25.9931
 30
0.0
 10
31.3141
 20
25.9931
 30
0.0
 10
31.3141
 20
25.9931
 30
0.0
 10
31.3141
 20
25.9148
 30
0.0
 10
31.3141
 20
25.9148
 30
0.0
 10
31.3141
 20
25.9148
 30
0.0
 10
31.3141
 20
25.9148
 30
0.0
 10
28.8141
 20
25.5385
 30
0.0
 10
28.8141
 20
25.5385
 30
0.0
 10
28.8141
 20
25.5385
 30
0.0
 10
28.8141
 20
25.5385
 30
0.0
 10
28.8141
 20
26.346
 30
0.0
 10
28.8141
 20
26.346
 30
0.0
  0
SPLINE
  5
114
330
1F
100
AcDbEntity
  8
DEFAULT_3
 62
   250
100
AcDbSpline
210
0.0
220
0.0
230
1.0
 70
    11
 71
     3
 72
    20
 73
    16
 74
     0
 42
0.0000000001
 43
0.0000000001
 40
0.0
 40
0.0
 40
0.0
 40
0.0
 40
0.2
 40
0.2
 40
0.2
 40
0.2
 40
0.4
 40
0.4
 40
0.4
 40
0.4
 40
0.6
 40
0.6
 40
0.6
 40
0.6
 40
1.0
 40
1.0
 40
1.0
 40
1.0
 10
27.2931
 20
25.5333
 30
0.0
 10
27.2931
 20
25.5333
 30
0.0
 10
24.7931
 20
25.8862
 30
0.0
 10
24.7931
 20
25.8862
 30
0.0
 10
24.7931
 20
25.8862
 30
0.0
 10
24.7931
 20
25.8862
 30
0.0
 10
24.7931
 20
25.9645
 30
0.0
 10
24.7931
 20
25.9645
 30
0.0
 10
24.7931
 20
25.9645
 30
0.0
 10
24.7931
 20
25.9645
 30
0.0
 10
27.2931
 20
26.3408
 30
0.0
 10
27.2931
 20
26.3408
 30
0.0
 10
27.2931
 20
26.3408
 30
0.0
 10
27.2931
 20
26.3408
 30
0.0
 10
27.2931
 20
25.5333
 30
0.0
 10
27.2931
 20
25.5333
 30
0.0
  0
ENDSEC
  0
SECTION
  2
OBJECTS
  0
DICTIONARY
  5
C
330
0
100
AcDbDictionary
  3
ACAD_GROUP
350
D
  3
ACAD_LAYOUT
350
1A
  3
ACAD_MATERIAL
350
3B
  3
ACAD_MLEADERSTYLE
350
137
  3
ACAD_MLINESTYLE
350
17
  3
ACAD_PLOTSETTINGS
350
19
  3
ACAD_VISUALSTYLE
350
2A
  3
ACDBHEADERROUNDTRIPXREC
350
115
  3
ACDBVARIABLEDICTIONARY
350
135
  0
DICTIONARY
  5
D
102
{ACAD_REACTORS
330
C
102
}
330
C
100
AcDbDictionary
  0
DICTIONARY
  5
1A
102
{ACAD_REACTORS
330
C
102
}
330
C
100
AcDbDictionary
  0
DICTIONARY
  5
3B
102
{ACAD_REACTORS
330
C
102
}
330
C
100
AcDbDictionary
  3
BYBLOCK
350
3D
  3
BYLAYER
350
3C
  3
GLOBAL
350
3E
  0
DICTIONARY
  5
137
102
{ACAD_REACTORS
330
C
102
}
330
C
100
AcDbDictionary
  0
DICTIONARY
  5
17
102
{ACAD_REACTORS
330
C
102
}
330
C
100
AcDbDictionary
  3
STANDARD
350
18
  0
DICTIONARY
  5
19
102
{ACAD_REACTORS
330
C
102
}
330
C
100
AcDbDictionary
  0
DICTIONARY
  5
2A
102
{ACAD_REACTORS
330
C
102
}
330
C
100
AcDbDictionary
  3
2DWIREFRAME
350
2F
  3
3D_HIDDEN
350
31
  3
3DWIREFRAME
350
30
  3
BASIC
350
32
  3
BRIGHTEN
350
36
  3
COLORCHANGE
350
3A
  3
CONCEPTUAL
350
34
  3
DIM
350
35
  3
FACEPATTERN
350
39
  3
FLAT
350
2B
  3
FLATWITHEDGES
350
2C
  3
GOURAUD
350
2D
  3
GOURAUDWITHEDGES
350
2E
  3
LINEPATTERN
350
38
  3
REALISTIC
350
33
  3
THICKEN
350
37
  0
DICTIONARY
  5
115
102
{ACAD_REACTORS
330
C
102
}
330
C
100
AcDbDictionary
  3
CEPSNTYPE
350
11E
  3
DIMSTYLEDATA
350
134
  3
FINGERPRINTGUID
350
11F
  3
HYPERLINKBASE
350
118
  3
INSUNITS
350
11D
  3
LAYOUTDICT
350
11A
  3
LWETCUNION
350
11C
  3
PLOTSETDICT
350
11B
  3
PSVPSCALE
350
121
  3
PUCSBASE
350
124
  3
PUCSORGBACK
350
12A
  3
PUCSORGBOTTOM
350
126
  3
PUCSORGFRONT
350
129
  3
PUCSORGLEFT
350
127
  3
PUCSORGRIGHT
350
128
  3
PUCSORGTOP
350
125
  3
PUCSORTHOREF
350
122
  3
PUCSORTHOVIEW
350
123
  3
STYLESHEET
350
119
  3
TSTACKALIGN
350
116
  3
TSTACKSIZE
350
117
  3
UCSBASE
350
12D
  3
UCSORGBACK
350
133
  3
UCSORGBOTTOM
350
12F
  3
UCSORGFRONT
350
132
  3
UCSORGLEFT
350
130
  3
UCSORGRIGHT
350
131
  3
UCSORGTOP
350
12E
  3
UCSORTHOREF
350
12B
  3
UCSORTHOVIEW
350
12C
  3
VERSIONGUID
350
120
  0
DICTIONARY
  5
135
102
{ACAD_REACTORS
330
C
102
}
330
C
100
AcDbDictionary
  3
DIMASSOC
350
138
  3
HIDETEXT
350
139
  0
MATERIAL
  5
3D
102
{ACAD_REACTORS
330
3B
102
}
102
{ACAD_XDICTIONARY
360
13C
102
}
330
3B
100
AcDbMaterial
  1
ByBlock
  0
MATERIAL
  5
3C
102
{ACAD_REACTORS
330
3B
102
}
102
{ACAD_XDICTIONARY
360
13A
102
}
330
3B
100
AcDbMaterial
  1
ByLayer
  0
MATERIAL
  5
3E
102
{ACAD_REACTORS
330
3B
102
}
102
{ACAD_XDICTIONARY
360
13E
102
}
330
3B
100
AcDbMaterial
  1
Global
  0
MLINESTYLE
  5
18
102
{ACAD_REACTORS
330
17
102
}
330
17
100
AcDbMlineStyle
  2
Standard
 70
     0
  3

 62
   256
 51
90.0
 52
90.0
 71
     2
 49
0.5
 62
   256
  6
BYLAYER
 49
-0.5
 62
   256
  6
BYLAYER
  0
ACAD_PROXY_OBJECT
  5
2F
102
{ACAD_REACTORS
330
2A
102
}
330
2A
100
AcDbProxyObject
 90
      499
 91
      501
 93
      436
310
42CC9915DA5C99599C985B595049028333333333333E3BF0000000000000FB0107901411070040501600405405064090741402480A0340
1001
ACAD
1000
AcDbSavedByObjectVersion
1070
     0
  0
ACAD_PROXY_OBJECT
  5
31
102
{ACAD_REACTORS
330
2A
102
}
330
2A
100
AcDbProxyObject
 90
      499
 91
      501
 93
      500
310
424CD108121A5919195B90640502408333333333333E3BF0000000000000FB01079024090700405020000000000001110200405405064090740C02480A0340
1001
ACAD
1000
AcDbSavedByObjectVersion
1070
     0
  0
ACAD_PROXY_OBJECT
  5
30
102
{ACAD_REACTORS
330
2A
102
}
330
2A
100
AcDbProxyObject
 90
      499
 91
      501
 93
      436
310
42CCD915DA5C99599C985B595059028333333333333E3BF0000000000000FB0107901411070040501600405405064090741402480A0340
1001
ACAD
1000
AcDbSavedByObjectVersion
1070
     0
  0
ACAD_PROXY_OBJECT
  5
32
102
{ACAD_REACTORS
330
2A
102
}
330
2A
100
AcDbProxyObject
 90
      499
 91
      501
 93
      388
310
4150985CDA58D07406404333333333333E3BF0000000000000FB0107A41107004050150841D405064090741402480A0350
1001
ACAD
1000
AcDbSavedByObjectVersion
1070
     0
  0
ACAD_PROXY_OBJECT
  5
36
102
{ACAD_REACTORS
330
2A
102
}
330
2A
100
AcDbProxyObject
 90
      499
 91
      501
 93
      428
310
42109C9A59DA1D195B90C409028333333333333E3BF0000000000000FB010790141107004050150841D405064090741402480A029950
1001
ACAD
1000
AcDbSavedByObjectVersion
1070
     0
  0
ACAD_PROXY_OBJECT
  5
3A
102
{ACAD_REACTORS
330
2A
102
}
330
2A
100
AcDbProxyObject
 90
      499
 91
      501
 93
      452
310
42D0DBDB1BDC90DA185B99D95104090240C333333333333E3BF0000000000000FB0108901411070040501508421405064090741402480A0350
1001
ACAD
1000
AcDbSavedByObjectVersion
1070
     0
  0
ACAD_PROXY_OBJECT
  5
34
102
{ACAD_REACTORS
330
2A
102
}
330
2A
100
AcDbProxyObject
 90
      499
 91
      501
 93
      500
310
4290DBDB98D95C1D1D585B10940D028333333333333E3BF0000000000000FB0107902409070040501000000000000111010841D405064090740C02480A0340
1001
ACAD
1000
AcDbSavedByObjectVersion
1070
     0
  0
ACAD_PROXY_OBJECT
  5
35
102
{ACAD_REACTORS
330
2A
102
}
330
2A
100
AcDbProxyObject
 90
      499
 91
      501
 93
      412
310
40D11A5B50B409028333333333333E3BF0000000000000FB010790141107004050150841D405064090741402480A02677FFFFFD0
1001
ACAD
1000
AcDbSavedByObjectVersion
1070
     0
  0
ACAD_PROXY_OBJECT
  5
39
102
{ACAD_REACTORS
330
2A
102
}
330
2A
100
AcDbProxyObject
 90
      499
 91
      501
 93
      444
310
42D19858D95C185D1D195C9B90F409028333333333333E3BF0000000000000FB010790141107004050150841D405064090741402480A0350
1001
ACAD
1000
AcDbSavedByObjectVersion
1070
     0
  0
ACAD_PROXY_OBJECT
  5
2B
102
{ACAD_REACTORS
330
2A
102
}
330
2A
100
AcDbProxyObject
 90
      499
 91
      501
 93
      388
310
41119B185D240901404333333333333E3BF0000000000000F9010740A41107004050150841D405064090741402480A1B50
1001
ACAD
1000
AcDbSavedByObjectVersion
1070
     0
  0
ACAD_PROXY_OBJECT
  5
2C
102
{ACAD_REACTORS
330
2A
102
}
330
2A
100
AcDbProxyObject
 90
      499
 91
      501
 93
      476
310
43519B185D15DA5D1A115919D95CD0140901404333333333333E3BF0000000000000F9010740901411070040501600405405064090741402480A1B50
1001
ACAD
1000
AcDbSavedByObjectVersion
1070
     0
  0
ACAD_PROXY_OBJECT
  5
2D
102
{ACAD_REACTORS
330
2A
102
}
330
2A
100
AcDbProxyObject
 90
      499
 91
      501
 93
      412
310
41D1DBDD5C985D5910240902404333333333333E3BF0000000000000F9010740A411070040501641D405064090741402480A1B50
1001
ACAD
1000
AcDbSavedByObjectVersion
1070
     0
  0
ACAD_PROXY_OBJECT
  5
2E
102
{ACAD_REACTORS
330
2A
102
}
330
2A
100
AcDbProxyObject
 90
      499
 91
      501
 93
      500
310
4411DBDD5C985D5915DA5D1A115919D95CD0340902404333333333333E3BF0000000000000F9010740901411070040501600405405064090741402480A1B50
1001
ACAD
1000
AcDbSavedByObjectVersion
1070
     0
  0
ACAD_PROXY_OBJECT
  5
38
102
{ACAD_REACTORS
330
2A
102
}
330
2A
100
AcDbProxyObject
 90
      499
 91
      501
 93
      444
310
42D31A5B995C185D1D195C9B90E409028333333333333E3BF0000000000000FB010790141107004050750841D405064090741402483A0350
1001
ACAD
1000
AcDbSavedByObjectVersion
1070
     0
  0
ACAD_PROXY_OBJECT
  5
33
102
{ACAD_REACTORS
330
2A
102
}
330
2A
100
AcDbProxyObject
 90
      499
 91
      501
 93
      420
310
425499585B1A5CDD1A58D08409028333333333333E3BF0000000000000FB01079019070040501508421405064090741402480A1B40
1001
ACAD
1000
AcDbSavedByObjectVersion
1070
     0
  0
ACAD_PROXY_OBJECT
  5
37
102
{ACAD_REACTORS
330
2A
102
}
330
2A
100
AcDbProxyObject
 90
      499
 91
      501
 93
      412
310
41D51A1A58DAD95B90D409028333333333333E3BF0000000000000FB010790141107004050150C41D405064090741402480A0350
1001
ACAD
1000
AcDbSavedByObjectVersion
1070
     0
  0
XRECORD
  5
11E
102
{ACAD_REACTORS
330
115
102
}
330
115
100
AcDbXrecord
 90
        0
  0
XRECORD
  5
134
102
{ACAD_REACTORS
330
115
102
}
330
115
100
AcDbXrecord
1000
DSTYLE
1002
{
1070
   340
340
11
1002
}
  0
XRECORD
  5
11F
102
{ACAD_REACTORS
330
115
102
}
330
115
100
AcDbXrecord
  1
{A99A41A6-A1FE-4BB5-B904-949C33D0AF41}
  0
XRECORD
  5
118
102
{ACAD_REACTORS
330
115
102
}
330
115
100
AcDbXrecord
  1

  0
XRECORD
  5
11D
102
{ACAD_REACTORS
330
115
102
}
330
115
100
AcDbXrecord
 90
        4
  0
XRECORD
  5
11A
102
{ACAD_REACTORS
330
115
102
}
330
115
100
AcDbXrecord
340
1A
  0
XRECORD
  5
11C
102
{ACAD_REACTORS
330
115
102
}
330
115
100
AcDbXrecord
 90
    10781
  0
XRECORD
  5
11B
102
{ACAD_REACTORS
330
115
102
}
330
115
100
AcDbXrecord
340
19
  0
XRECORD
  5
121
102
{ACAD_REACTORS
330
115
102
}
330
115
100
AcDbXrecord
 40
0.0
  0
XRECORD
  5
124
102
{ACAD_REACTORS
330
115
102
}
330
115
100
AcDbXrecord
340
0
  0
XRECORD
  5
12A
102
{ACAD_REACTORS
330
115
102
}
330
115
100
AcDbXrecord
 10
0.0
 20
0.0
 30
0.0
  0
XRECORD
  5
126
102
{ACAD_REACTORS
330
115
102
}
330
115
100
AcDbXrecord
 10
0.0
 20
0.0
 30
0.0
  0
XRECORD
  5
129
102
{ACAD_REACTORS
330
115
102
}
330
115
100
AcDbXrecord
 10
0.0
 20
0.0
 30
0.0
  0
XRECORD
  5
127
102
{ACAD_REACTORS
330
115
102
}
330
115
100
AcDbXrecord
 10
0.0
 20
0.0
 30
0.0
  0
XRECORD
  5
128
102
{ACAD_REACTORS
330
115
102
}
330
115
100
AcDbXrecord
 10
0.0
 20
0.0
 30
0.0
  0
XRECORD
  5
125
102
{ACAD_REACTORS
330
115
102
}
330
115
100
AcDbXrecord
 10
0.0
 20
0.0
 30
0.0
  0
XRECORD
  5
122
102
{ACAD_REACTORS
330
115
102
}
330
115
100
AcDbXrecord
340
0
  0
XRECORD
  5
123
102
{ACAD_REACTORS
330
115
102
}
330
115
100
AcDbXrecord
 70
     0
  0
XRECORD
  5
119
102
{ACAD_REACTORS
330
115
102
}
330
115
100
AcDbXrecord
  1

  0
XRECORD
  5
116
102
{ACAD_REACTORS
330
115
102
}
330
115
100
AcDbXrecord
 90
        1
  0
XRECORD
  5
117
102
{ACAD_REACTORS
330
115
102
}
330
115
100
AcDbXrecord
 90
       70
  0
XRECORD
  5
12D
102
{ACAD_REACTORS
330
115
102
}
330
115
100
AcDbXrecord
340
0
  0
XRECORD
  5
133
102
{ACAD_REACTORS
330
115
102
}
330
115
100
AcDbXrecord
 10
0.0
 20
0.0
 30
0.0
  0
XRECORD
  5
12F
102
{ACAD_REACTORS
330
115
102
}
330
115
100
AcDbXrecord
 10
0.0
 20
0.0
 30
0.0
  0
XRECORD
  5
132
102
{ACAD_REACTORS
330
115
102
}
330
115
100
AcDbXrecord
 10
0.0
 20
0.0
 30
0.0
  0
XRECORD
  5
130
102
{ACAD_REACTORS
330
115
102
}
330
115
100
AcDbXrecord
 10
0.0
 20
0.0
 30
0.0
  0
XRECORD
  5
131
102
{ACAD_REACTORS
330
115
102
}
330
115
100
AcDbXrecord
 10
0.0
 20
0.0
 30
0.0
  0
XRECORD
  5
12E
102
{ACAD_REACTORS
330
115
102
}
330
115
100
AcDbXrecord
 10
0.0
 20
0.0
 30
0.0
  0
XRECORD
  5
12B
102
{ACAD_REACTORS
330
115
102
}
330
115
100
AcDbXrecord
340
0
  0
XRECORD
  5
12C
102
{ACAD_REACTORS
330
115
102
}
330
115
100
AcDbXrecord
 70
     0
  0
XRECORD
  5
120
102
{ACAD_REACTORS
330
115
102
}
330
115
100
AcDbXrecord
  1
{FAEB1C32-E019-11D5-929B-00C0DF256EC4}
  0
DICTIONARYVAR
  5
138
102
{ACAD_REACTORS
330
135
102
}
330
135
100
DictionaryVariables
280
     0
  1
2
  0
DICTIONARYVAR
  5
139
102
{ACAD_REACTORS
330
135
102
}
330
135
100
DictionaryVariables
280
     0
  1
1
  0
DICTIONARY
  5
13C
330
3D
100
AcDbDictionary
280
     1
  3
ACAD_XREC_ROUNDTRIP
360
13D
  0
DICTIONARY
  5
13A
330
3C
100
AcDbDictionary
280
     1
  3
ACAD_XREC_ROUNDTRIP
360
13B
  0
DICTIONARY
  5
13E
330
3E
100
AcDbDictionary
280
     1
  3
ACAD_XREC_ROUNDTRIP
360
13F
  0
XRECORD
  5
13D
102
{ACAD_REACTORS
330
13C
102
}
330
13C
100
AcDbXrecord
102
MATERIAL
148
0.0
149
0.0
149
0.0
 93
        0
 94
      127
282
     0
 72
     1
 77
     1
171
     1
175
     1
179
     1
273
     0
  0
XRECORD
  5
13B
102
{ACAD_REACTORS
330
13A
102
}
330
13A
100
AcDbXrecord
102
MATERIAL
148
0.0
149
0.0
149
0.0
 93
        0
 94
      127
282
     0
 72
     1
 77
     1
171
     1
175
     1
179
     1
273
     0
  0
XRECORD
  5
13F
102
{ACAD_REACTORS
330
13E
102
}
330
13E
100
AcDbXrecord
102
MATERIAL
148
0.0
149
0.0
149
0.0
 93
        0
 94
      127
282
     0
 72
     1
 77
     1
171
     1
175
     1
179
     1
273
     0
  0
ENDSEC
  0
EOF
