  0
SECTION
  2
HEADER
  9
$ACADVER
  1
AC1015
  9
$ACADMAINTVER
 70
     6
  9
$DWGCODEPAGE
  3
ANSI_1250
  9
$INSBASE
 10
0.0
 20
0.0
 30
0.0
  9
$EXTMIN
 10
-33.5922
 20
-25.2627
 30
0.0
  9
$EXTMAX
 10
33.5922
 20
25.1215
 30
0.0
  9
$LIMMIN
 10
0.0
 20
0.0
  9
$LIMMAX
 10
12.0
 20
9.0
  9
$ORTHOMODE
 70
     0
  9
$REGENMODE
 70
     1
  9
$FILLMODE
 70
     1
  9
$QTEXTMODE
 70
     0
  9
$MIRRTEXT
 70
     1
  9
$LTSCALE
 40
1.0
  9
$ATTMODE
 70
     1
  9
$TEXTSIZE
 40
0.2
  9
$TRACEWID
 40
0.05
  9
$TEXTSTYLE
  7
Standard
  9
$CLAYER
  8
0
  9
$CELTYPE
  6
ByLayer
  9
$CECOLOR
 62
   256
  9
$CELTSCALE
 40
1.0
  9
$DISPSILH
 70
     0
  9
$DIMSCALE
 40
1.0
  9
$DIMASZ
 40
0.18
  9
$DIMEXO
 40
0.0625
  9
$DIMDLI
 40
0.38
  9
$DIMRND
 40
0.0
  9
$DIMDLE
 40
0.0
  9
$DIMEXE
 40
0.18
  9
$DIMTP
 40
0.0
  9
$DIMTM
 40
0.0
  9
$DIMTXT
 40
0.18
  9
$DIMCEN
 40
0.09
  9
$DIMTSZ
 40
0.0
  9
$DIMTOL
 70
     0
  9
$DIMLIM
 70
     0
  9
$DIMTIH
 70
     1
  9
$DIMTOH
 70
     1
  9
$DIMSE1
 70
     0
  9
$DIMSE2
 70
     0
  9
$DIMTAD
 70
     0
  9
$DIMZIN
 70
     0
  9
$DIMBLK
  1

  9
$DIMASO
 70
     1
  9
$DIMSHO
 70
     1
  9
$DIMPOST
  1

  9
$DIMAPOST
  1

  9
$DIMALT
 70
     0
  9
$DIMALTD
 70
     2
  9
$DIMALTF
 40
25.4
  9
$DIMLFAC
 40
1.0
  9
$DIMTOFL
 70
     0
  9
$DIMTVP
 40
0.0
  9
$DIMTIX
 70
     0
  9
$DIMSOXD
 70
     0
  9
$DIMSAH
 70
     0
  9
$DIMBLK1
  1

  9
$DIMBLK2
  1

  9
$DIMSTYLE
  2
Standard
  9
$DIMCLRD
 70
     0
  9
$DIMCLRE
 70
     0
  9
$DIMCLRT
 70
     0
  9
$DIMTFAC
 40
1.0
  9
$DIMGAP
 40
0.09
  9
$DIMJUST
 70
     0
  9
$DIMSD1
 70
     0
  9
$DIMSD2
 70
     0
  9
$DIMTOLJ
 70
     1
  9
$DIMTZIN
 70
     0
  9
$DIMALTZ
 70
     0
  9
$DIMALTTZ
 70
     0
  9
$DIMUPT
 70
     0
  9
$DIMDEC
 70
     4
  9
$DIMTDEC
 70
     4
  9
$DIMALTU
 70
     2
  9
$DIMALTTD
 70
     2
  9
$DIMTXSTY
  7
Standard
  9
$DIMAUNIT
 70
     0
  9
$DIMADEC
 70
     0
  9
$DIMALTRND
 40
0.0
  9
$DIMAZIN
 70
     0
  9
$DIMDSEP
 70
    46
  9
$DIMATFIT
 70
     3
  9
$DIMFRAC
 70
     0
  9
$DIMLDRBLK
  1

  9
$DIMLUNIT
 70
     2
  9
$DIMLWD
 70
    -2
  9
$DIMLWE
 70
    -2
  9
$DIMTMOVE
 70
     0
  9
$LUNITS
 70
     2
  9
$LUPREC
 70
     4
  9
$SKETCHINC
 40
0.1
  9
$FILLETRAD
 40
0.5
  9
$AUNITS
 70
     0
  9
$AUPREC
 70
     0
  9
$MENU
  1
.
  9
$ELEVATION
 40
0.0
  9
$PELEVATION
 40
0.0
  9
$THICKNESS
 40
0.0
  9
$LIMCHECK
 70
     0
  9
$CHAMFERA
 40
0.5
  9
$CHAMFERB
 40
0.5
  9
$CHAMFERC
 40
1.0
  9
$CHAMFERD
 40
0.0
  9
$SKPOLY
 70
     0
  9
$TDCREATE
 40
2458129.438373229
  9
$TDUCREATE
 40
2458129.396706562
  9
$TDUPDATE
 40
2458129.438373241
  9
$TDUUPDATE
 40
2458129.396706574
  9
$TDINDWG
 40
0.0000000116
  9
$TDUSRTIMER
 40
0.0000000116
  9
$USRTIMER
 70
     1
  9
$ANGBASE
 50
0.0
  9
$ANGDIR
 70
     0
  9
$PDMODE
 70
     0
  9
$PDSIZE
 40
0.0
  9
$PLINEWID
 40
0.0
  9
$SPLFRAME
 70
     0
  9
$SPLINETYPE
 70
     6
  9
$SPLINESEGS
 70
     8
  9
$HANDSEED
  5
17A
  9
$SURFTAB1
 70
     6
  9
$SURFTAB2
 70
     6
  9
$SURFTYPE
 70
     6
  9
$SURFU
 70
     6
  9
$SURFV
 70
     6
  9
$UCSBASE
  2

  9
$UCSNAME
  2

  9
$UCSORG
 10
0.0
 20
0.0
 30
0.0
  9
$UCSXDIR
 10
1.0
 20
0.0
 30
0.0
  9
$UCSYDIR
 10
0.0
 20
1.0
 30
0.0
  9
$UCSORTHOREF
  2

  9
$UCSORTHOVIEW
 70
     0
  9
$UCSORGTOP
 10
0.0
 20
0.0
 30
0.0
  9
$UCSORGBOTTOM
 10
0.0
 20
0.0
 30
0.0
  9
$UCSORGLEFT
 10
0.0
 20
0.0
 30
0.0
  9
$UCSORGRIGHT
 10
0.0
 20
0.0
 30
0.0
  9
$UCSORGFRONT
 10
0.0
 20
0.0
 30
0.0
  9
$UCSORGBACK
 10
0.0
 20
0.0
 30
0.0
  9
$PUCSBASE
  2

  9
$PUCSNAME
  2

  9
$PUCSORG
 10
0.0
 20
0.0
 30
0.0
  9
$PUCSXDIR
 10
1.0
 20
0.0
 30
0.0
  9
$PUCSYDIR
 10
0.0
 20
1.0
 30
0.0
  9
$PUCSORTHOREF
  2

  9
$PUCSORTHOVIEW
 70
     0
  9
$PUCSORGTOP
 10
0.0
 20
0.0
 30
0.0
  9
$PUCSORGBOTTOM
 10
0.0
 20
0.0
 30
0.0
  9
$PUCSORGLEFT
 10
0.0
 20
0.0
 30
0.0
  9
$PUCSORGRIGHT
 10
0.0
 20
0.0
 30
0.0
  9
$PUCSORGFRONT
 10
0.0
 20
0.0
 30
0.0
  9
$PUCSORGBACK
 10
0.0
 20
0.0
 30
0.0
  9
$USERI1
 70
     0
  9
$USERI2
 70
     0
  9
$USERI3
 70
     0
  9
$USERI4
 70
     0
  9
$USERI5
 70
     0
  9
$USERR1
 40
0.0
  9
$USERR2
 40
0.0
  9
$USERR3
 40
0.0
  9
$USERR4
 40
0.0
  9
$USERR5
 40
0.0
  9
$WORLDVIEW
 70
     1
  9
$SHADEDGE
 70
     3
  9
$SHADEDIF
 70
    70
  9
$TILEMODE
 70
     1
  9
$MAXACTVP
 70
    64
  9
$PINSBASE
 10
0.0
 20
0.0
 30
0.0
  9
$PLIMCHECK
 70
     0
  9
$PEXTMIN
 10
1.000000000000000E+20
 20
1.000000000000000E+20
 30
1.000000000000000E+20
  9
$PEXTMAX
 10
-1.000000000000000E+20
 20
-1.000000000000000E+20
 30
-1.000000000000000E+20
  9
$PLIMMIN
 10
0.0
 20
0.0
  9
$PLIMMAX
 10
12.0
 20
9.0
  9
$UNITMODE
 70
     0
  9
$VISRETAIN
 70
     1
  9
$PLINEGEN
 70
     0
  9
$PSLTSCALE
 70
     1
  9
$TREEDEPTH
 70
  3020
  9
$CMLSTYLE
  2
Standard
  9
$CMLJUST
 70
     0
  9
$CMLSCALE
 40
1.0
  9
$PROXYGRAPHICS
 70
     1
  9
$MEASUREMENT
 70
     0
  9
$CELWEIGHT
370
    -1
  9
$ENDCAPS
280
     0
  9
$JOINSTYLE
280
     0
  9
$LWDISPLAY
290
     0
  9
$INSUNITS
 70
     4
  9
$HYPERLINKBASE
  1

  9
$STYLESHEET
  1

  9
$XEDIT
290
     1
  9
$CEPSNTYPE
380
     0
  9
$PSTYLEMODE
290
     1
  9
$FINGERPRINTGUID
  2
{A843627E-F6C1-4C2A-A7F7-2E7BD982464C}
  9
$VERSIONGUID
  2
{FAEB1C32-E019-11D5-929B-00C0DF256EC4}
  9
$EXTNAMES
290
     1
  9
$PSVPSCALE
 40
0.0
  9
$OLESTARTUP
290
     0
  0
ENDSEC
  0
SECTION
  2
CLASSES
  0
CLASS
  1
ACDBDICTIONARYWDFLT
  2
AcDbDictionaryWithDefault
  3
ObjectDBX Classes
 90
        0
280
     0
281
     0
  0
CLASS
  1
VISUALSTYLE
  2
AcDbVisualStyle
  3
ObjectDBX Classes
 90
     4095
280
     0
281
     0
  0
CLASS
  1
MATERIAL
  2
AcDbMaterial
  3
ObjectDBX Classes
 90
     1153
280
     0
281
     0
  0
CLASS
  1
SCALE
  2
AcDbScale
  3
ObjectDBX Classes
 90
     1153
280
     0
281
     0
  0
CLASS
  1
DICTIONARYVAR
  2
AcDbDictionaryVar
  3
ObjectDBX Classes
 90
        0
280
     0
281
     0
  0
CLASS
  1
ACDBPLACEHOLDER
  2
AcDbPlaceHolder
  3
ObjectDBX Classes
 90
        0
280
     0
281
     0
  0
CLASS
  1
LAYOUT
  2
AcDbLayout
  3
ObjectDBX Classes
 90
        0
280
     0
281
     0
  0
ENDSEC
  0
SECTION
  2
TABLES
  0
TABLE
  2
VPORT
  5
8
330
0
100
AcDbSymbolTable
 70
     1
  0
VPORT
  5
29
330
8
100
AcDbSymbolTableRecord
100
AcDbViewportTableRecord
  2
*Active
 70
     0
 10
0.0
 20
0.0
 11
1.0
 21
1.0
 12
10.42990654205607
 22
4.5
 13
0.0
 23
0.0
 14
0.5
 24
0.5
 15
0.5
 25
0.5
 16
0.0
 26
0.0
 36
1.0
 17
0.0
 27
0.0
 37
0.0
 40
9.0
 41
1.972972972850329
 42
50.0
 43
0.0
 44
0.0
 50
0.0
 51
0.0
 71
     0
 72
   100
 73
     1
 74
     3
 75
     0
 76
     0
 77
     0
 78
     0
281
     0
 65
     1
110
0.0
120
0.0
130
0.0
111
1.0
121
0.0
131
0.0
112
0.0
122
1.0
132
0.0
 79
     0
146
0.0
  0
ENDTAB
  0
TABLE
  2
LTYPE
  5
5
330
0
100
AcDbSymbolTable
 70
     1
  0
LTYPE
  5
14
330
5
100
AcDbSymbolTableRecord
100
AcDbLinetypeTableRecord
  2
ByBlock
 70
     0
  3

 72
    65
 73
     0
 40
0.0
  0
LTYPE
  5
15
330
5
100
AcDbSymbolTableRecord
100
AcDbLinetypeTableRecord
  2
ByLayer
 70
     0
  3

 72
    65
 73
     0
 40
0.0
  0
LTYPE
  5
16
330
5
100
AcDbSymbolTableRecord
100
AcDbLinetypeTableRecord
  2
Continuous
 70
     0
  3
Solid line
 72
    65
 73
     0
 40
0.0
  0
ENDTAB
  0
TABLE
  2
LAYER
  5
2
330
0
100
AcDbSymbolTable
 70
     2
  0
LAYER
  5
10
330
2
100
AcDbSymbolTableRecord
100
AcDbLayerTableRecord
  2
0
 70
     0
 62
     7
  6
Continuous
370
    -3
390
F
  0
LAYER
  5
40
330
2
100
AcDbSymbolTableRecord
100
AcDbLayerTableRecord
  2
Ilustrace
 70
     0
 62
     7
  6
Continuous
370
    -3
390
F
  0
ENDTAB
  0
TABLE
  2
STYLE
  5
3
330
0
100
AcDbSymbolTable
 70
     3
  0
STYLE
  5
11
330
3
100
AcDbSymbolTableRecord
100
AcDbTextStyleTableRecord
  2
Standard
 70
     0
 40
0.0
 41
1.0
 50
0.0
 71
     0
 42
0.2
  3
txt
  4

  0
STYLE
  5
11B
330
3
100
AcDbSymbolTableRecord
100
AcDbTextStyleTableRecord
  2
0
 70
     0
 40
1.0
 41
1.0
 50
0.0
 71
     0
 42
1.0
  3
Myriad Pro
  4

1001
ACAD
1000
Myriad Pro
1071
       34
  0
STYLE
  5
146
330
3
100
AcDbSymbolTableRecord
100
AcDbTextStyleTableRecord
  2
1
 70
     0
 40
1.0
 41
1.0
 50
0.0
 71
     0
 42
1.0
  3
Myriad Pro
  4

1001
ACAD
1000
Myriad Pro
1071
    60962
  0
ENDTAB
  0
TABLE
  2
VIEW
  5
6
330
0
100
AcDbSymbolTable
 70
     0
  0
ENDTAB
  0
TABLE
  2
UCS
  5
7
330
0
100
AcDbSymbolTable
 70
     0
  0
ENDTAB
  0
TABLE
  2
APPID
  5
9
330
0
100
AcDbSymbolTable
 70
     2
  0
APPID
  5
12
330
9
100
AcDbSymbolTableRecord
100
AcDbRegAppTableRecord
  2
ACAD
 70
     0
  0
APPID
  5
3F
330
9
100
AcDbSymbolTableRecord
100
AcDbRegAppTableRecord
  2
ODA
 70
     0
  0
ENDTAB
  0
TABLE
  2
DIMSTYLE
  5
A
330
0
100
AcDbSymbolTable
 70
     1
100
AcDbDimStyleTable
  0
DIMSTYLE
105
27
330
A
100
AcDbSymbolTableRecord
100
AcDbDimStyleTableRecord
  2
Standard
 70
     0
340
11
  0
ENDTAB
  0
TABLE
  2
BLOCK_RECORD
  5
1
330
0
100
AcDbSymbolTable
 70
     1
  0
BLOCK_RECORD
  5
1F
330
1
100
AcDbSymbolTableRecord
100
AcDbBlockTableRecord
  2
*Model_Space
340
22
  0
BLOCK_RECORD
  5
1B
330
1
100
AcDbSymbolTableRecord
100
AcDbBlockTableRecord
  2
*Paper_Space
340
1E
  0
BLOCK_RECORD
  5
23
330
1
100
AcDbSymbolTableRecord
100
AcDbBlockTableRecord
  2
*Paper_Space0
340
26
  0
ENDTAB
  0
ENDSEC
  0
SECTION
  2
BLOCKS
  0
BLOCK
  5
20
330
1F
100
AcDbEntity
  8
0
100
AcDbBlockBegin
  2
*Model_Space
 70
     0
 10
0.0
 20
0.0
 30
0.0
  3
*Model_Space
  1

  0
ENDBLK
  5
21
330
1F
100
AcDbEntity
  8
0
100
AcDbBlockEnd
  0
BLOCK
  5
1C
330
1B
100
AcDbEntity
 67
     1
  8
0
100
AcDbBlockBegin
  2
*Paper_Space
 70
     0
 10
0.0
 20
0.0
 30
0.0
  3
*Paper_Space
  1

  0
ENDBLK
  5
1D
330
1B
100
AcDbEntity
 67
     1
  8
0
100
AcDbBlockEnd
  0
BLOCK
  5
24
330
23
100
AcDbEntity
  8
0
100
AcDbBlockBegin
  2
*Paper_Space0
 70
     0
 10
0.0
 20
0.0
 30
0.0
  3
*Paper_Space0
  1

  0
ENDBLK
  5
25
330
23
100
AcDbEntity
  8
0
100
AcDbBlockEnd
  0
ENDSEC
  0
SECTION
  2
ENTITIES
  0
SPLINE
  5
41
330
1F
100
AcDbEntity
  8
Ilustrace
 62
   254
100
AcDbSpline
210
0.0
220
0.0
230
1.0
 70
    11
 71
     3
 72
  1468
 73
  1464
 74
     0
 42
0.0000000001
 43
0.0000000001
 40
0.0
 40
0.0
 40
0.0
 40
0.0
 40
0.002724795640327
 40
0.002724795640327
 40
0.002724795640327
 40
0.002724795640327
 40
0.005449591280654
 40
0.005449591280654
 40
0.005449591280654
 40
0.005449591280654
 40
0.0081743869209809
 40
0.0081743869209809
 40
0.0081743869209809
 40
0.0081743869209809
 40
0.0108991825613079
 40
0.0108991825613079
 40
0.0108991825613079
 40
0.0108991825613079
 40
0.0136239782016349
 40
0.0136239782016349
 40
0.0136239782016349
 40
0.0136239782016349
 40
0.0163487738419619
 40
0.0163487738419619
 40
0.0163487738419619
 40
0.0163487738419619
 40
0.0190735694822888
 40
0.0190735694822888
 40
0.0190735694822888
 40
0.0190735694822888
 40
0.0217983651226158
 40
0.0217983651226158
 40
0.0217983651226158
 40
0.0217983651226158
 40
0.0245231607629428
 40
0.0245231607629428
 40
0.0245231607629428
 40
0.0245231607629428
 40
0.0272479564032698
 40
0.0272479564032698
 40
0.0272479564032698
 40
0.0272479564032698
 40
0.0299727520435967
 40
0.0299727520435967
 40
0.0299727520435967
 40
0.0299727520435967
 40
0.0326975476839237
 40
0.0326975476839237
 40
0.0326975476839237
 40
0.0326975476839237
 40
0.0354223433242507
 40
0.0354223433242507
 40
0.0354223433242507
 40
0.0354223433242507
 40
0.0381471389645777
 40
0.0381471389645777
 40
0.0381471389645777
 40
0.0381471389645777
 40
0.0408719346049046
 40
0.0408719346049046
 40
0.0408719346049046
 40
0.0408719346049046
 40
0.0435967302452316
 40
0.0435967302452316
 40
0.0435967302452316
 40
0.0435967302452316
 40
0.0463215258855586
 40
0.0463215258855586
 40
0.0463215258855586
 40
0.0463215258855586
 40
0.0490463215258856
 40
0.0490463215258856
 40
0.0490463215258856
 40
0.0490463215258856
 40
0.0517711171662125
 40
0.0517711171662125
 40
0.0517711171662125
 40
0.0517711171662125
 40
0.0544959128065395
 40
0.0544959128065395
 40
0.0544959128065395
 40
0.0544959128065395
 40
0.0572207084468665
 40
0.0572207084468665
 40
0.0572207084468665
 40
0.0572207084468665
 40
0.0599455040871935
 40
0.0599455040871935
 40
0.0599455040871935
 40
0.0599455040871935
 40
0.0626702997275204
 40
0.0626702997275204
 40
0.0626702997275204
 40
0.0626702997275204
 40
0.0653950953678474
 40
0.0653950953678474
 40
0.0653950953678474
 40
0.0653950953678474
 40
0.0681198910081744
 40
0.0681198910081744
 40
0.0681198910081744
 40
0.0681198910081744
 40
0.0708446866485014
 40
0.0708446866485014
 40
0.0708446866485014
 40
0.0708446866485014
 40
0.0735694822888283
 40
0.0735694822888283
 40
0.0735694822888283
 40
0.0735694822888283
 40
0.0762942779291553
 40
0.0762942779291553
 40
0.0762942779291553
 40
0.0762942779291553
 40
0.0790190735694823
 40
0.0790190735694823
 40
0.0790190735694823
 40
0.0790190735694823
 40
0.0817438692098093
 40
0.0817438692098093
 40
0.0817438692098093
 40
0.0817438692098093
 40
0.0844686648501362
 40
0.0844686648501362
 40
0.0844686648501362
 40
0.0844686648501362
 40
0.0871934604904632
 40
0.0871934604904632
 40
0.0871934604904632
 40
0.0871934604904632
 40
0.0899182561307902
 40
0.0899182561307902
 40
0.0899182561307902
 40
0.0899182561307902
 40
0.0926430517711172
 40
0.0926430517711172
 40
0.0926430517711172
 40
0.0926430517711172
 40
0.0953678474114441
 40
0.0953678474114441
 40
0.0953678474114441
 40
0.0953678474114441
 40
0.0980926430517711
 40
0.0980926430517711
 40
0.0980926430517711
 40
0.0980926430517711
 40
0.1008174386920981
 40
0.1008174386920981
 40
0.1008174386920981
 40
0.1008174386920981
 40
0.1035422343324251
 40
0.1035422343324251
 40
0.1035422343324251
 40
0.1035422343324251
 40
0.106267029972752
 40
0.106267029972752
 40
0.106267029972752
 40
0.106267029972752
 40
0.108991825613079
 40
0.108991825613079
 40
0.108991825613079
 40
0.108991825613079
 40
0.111716621253406
 40
0.111716621253406
 40
0.111716621253406
 40
0.111716621253406
 40
0.114441416893733
 40
0.114441416893733
 40
0.114441416893733
 40
0.114441416893733
 40
0.1171662125340599
 40
0.1171662125340599
 40
0.1171662125340599
 40
0.1171662125340599
 40
0.1198910081743869
 40
0.1198910081743869
 40
0.1198910081743869
 40
0.1198910081743869
 40
0.1226158038147139
 40
0.1226158038147139
 40
0.1226158038147139
 40
0.1226158038147139
 40
0.1253405994550409
 40
0.1253405994550409
 40
0.1253405994550409
 40
0.1253405994550409
 40
0.1280653950953679
 40
0.1280653950953679
 40
0.1280653950953679
 40
0.1280653950953679
 40
0.1307901907356948
 40
0.1307901907356948
 40
0.1307901907356948
 40
0.1307901907356948
 40
0.1335149863760218
 40
0.1335149863760218
 40
0.1335149863760218
 40
0.1335149863760218
 40
0.1362397820163488
 40
0.1362397820163488
 40
0.1362397820163488
 40
0.1362397820163488
 40
0.1389645776566757
 40
0.1389645776566757
 40
0.1389645776566757
 40
0.1389645776566757
 40
0.1416893732970027
 40
0.1416893732970027
 40
0.1416893732970027
 40
0.1416893732970027
 40
0.1444141689373297
 40
0.1444141689373297
 40
0.1444141689373297
 40
0.1444141689373297
 40
0.1471389645776567
 40
0.1471389645776567
 40
0.1471389645776567
 40
0.1471389645776567
 40
0.1498637602179836
 40
0.1498637602179836
 40
0.1498637602179836
 40
0.1498637602179836
 40
0.1525885558583106
 40
0.1525885558583106
 40
0.1525885558583106
 40
0.1525885558583106
 40
0.1553133514986376
 40
0.1553133514986376
 40
0.1553133514986376
 40
0.1553133514986376
 40
0.1580381471389646
 40
0.1580381471389646
 40
0.1580381471389646
 40
0.1580381471389646
 40
0.1607629427792915
 40
0.1607629427792915
 40
0.1607629427792915
 40
0.1607629427792915
 40
0.1634877384196185
 40
0.1634877384196185
 40
0.1634877384196185
 40
0.1634877384196185
 40
0.1662125340599455
 40
0.1662125340599455
 40
0.1662125340599455
 40
0.1662125340599455
 40
0.1689373297002725
 40
0.1689373297002725
 40
0.1689373297002725
 40
0.1689373297002725
 40
0.1716621253405995
 40
0.1716621253405995
 40
0.1716621253405995
 40
0.1716621253405995
 40
0.1743869209809264
 40
0.1743869209809264
 40
0.1743869209809264
 40
0.1743869209809264
 40
0.1771117166212534
 40
0.1771117166212534
 40
0.1771117166212534
 40
0.1771117166212534
 40
0.1798365122615804
 40
0.1798365122615804
 40
0.1798365122615804
 40
0.1798365122615804
 40
0.1825613079019074
 40
0.1825613079019074
 40
0.1825613079019074
 40
0.1825613079019074
 40
0.1852861035422343
 40
0.1852861035422343
 40
0.1852861035422343
 40
0.1852861035422343
 40
0.1880108991825613
 40
0.1880108991825613
 40
0.1880108991825613
 40
0.1880108991825613
 40
0.1907356948228883
 40
0.1907356948228883
 40
0.1907356948228883
 40
0.1907356948228883
 40
0.1934604904632153
 40
0.1934604904632153
 40
0.1934604904632153
 40
0.1934604904632153
 40
0.1961852861035422
 40
0.1961852861035422
 40
0.1961852861035422
 40
0.1961852861035422
 40
0.1989100817438692
 40
0.1989100817438692
 40
0.1989100817438692
 40
0.1989100817438692
 40
0.2016348773841962
 40
0.2016348773841962
 40
0.2016348773841962
 40
0.2016348773841962
 40
0.2043596730245232
 40
0.2043596730245232
 40
0.2043596730245232
 40
0.2043596730245232
 40
0.2070844686648501
 40
0.2070844686648501
 40
0.2070844686648501
 40
0.2070844686648501
 40
0.2098092643051771
 40
0.2098092643051771
 40
0.2098092643051771
 40
0.2098092643051771
 40
0.2125340599455041
 40
0.2125340599455041
 40
0.2125340599455041
 40
0.2125340599455041
 40
0.215258855585831
 40
0.215258855585831
 40
0.215258855585831
 40
0.215258855585831
 40
0.217983651226158
 40
0.217983651226158
 40
0.217983651226158
 40
0.217983651226158
 40
0.220708446866485
 40
0.220708446866485
 40
0.220708446866485
 40
0.220708446866485
 40
0.223433242506812
 40
0.223433242506812
 40
0.223433242506812
 40
0.223433242506812
 40
0.226158038147139
 40
0.226158038147139
 40
0.226158038147139
 40
0.226158038147139
 40
0.2288828337874659
 40
0.2288828337874659
 40
0.2288828337874659
 40
0.2288828337874659
 40
0.2316076294277929
 40
0.2316076294277929
 40
0.2316076294277929
 40
0.2316076294277929
 40
0.2343324250681199
 40
0.2343324250681199
 40
0.2343324250681199
 40
0.2343324250681199
 40
0.2370572207084469
 40
0.2370572207084469
 40
0.2370572207084469
 40
0.2370572207084469
 40
0.2397820163487738
 40
0.2397820163487738
 40
0.2397820163487738
 40
0.2397820163487738
 40
0.2425068119891008
 40
0.2425068119891008
 40
0.2425068119891008
 40
0.2425068119891008
 40
0.2452316076294278
 40
0.2452316076294278
 40
0.2452316076294278
 40
0.2452316076294278
 40
0.2479564032697548
 40
0.2479564032697548
 40
0.2479564032697548
 40
0.2479564032697548
 40
0.2506811989100817
 40
0.2506811989100817
 40
0.2506811989100817
 40
0.2506811989100817
 40
0.2534059945504087
 40
0.2534059945504087
 40
0.2534059945504087
 40
0.2534059945504087
 40
0.2561307901907357
 40
0.2561307901907357
 40
0.2561307901907357
 40
0.2561307901907357
 40
0.2588555858310627
 40
0.2588555858310627
 40
0.2588555858310627
 40
0.2588555858310627
 40
0.2615803814713896
 40
0.2615803814713896
 40
0.2615803814713896
 40
0.2615803814713896
 40
0.2643051771117166
 40
0.2643051771117166
 40
0.2643051771117166
 40
0.2643051771117166
 40
0.2670299727520436
 40
0.2670299727520436
 40
0.2670299727520436
 40
0.2670299727520436
 40
0.2697547683923706
 40
0.2697547683923706
 40
0.2697547683923706
 40
0.2697547683923706
 40
0.2724795640326976
 40
0.2724795640326976
 40
0.2724795640326976
 40
0.2724795640326976
 40
0.2752043596730245
 40
0.2752043596730245
 40
0.2752043596730245
 40
0.2752043596730245
 40
0.2779291553133515
 40
0.2779291553133515
 40
0.2779291553133515
 40
0.2779291553133515
 40
0.2806539509536785
 40
0.2806539509536785
 40
0.2806539509536785
 40
0.2806539509536785
 40
0.2833787465940055
 40
0.2833787465940055
 40
0.2833787465940055
 40
0.2833787465940055
 40
0.2861035422343324
 40
0.2861035422343324
 40
0.2861035422343324
 40
0.2861035422343324
 40
0.2888283378746594
 40
0.2888283378746594
 40
0.2888283378746594
 40
0.2888283378746594
 40
0.2915531335149864
 40
0.2915531335149864
 40
0.2915531335149864
 40
0.2915531335149864
 40
0.2942779291553134
 40
0.2942779291553134
 40
0.2942779291553134
 40
0.2942779291553134
 40
0.2970027247956403
 40
0.2970027247956403
 40
0.2970027247956403
 40
0.2970027247956403
 40
0.2997275204359673
 40
0.2997275204359673
 40
0.2997275204359673
 40
0.2997275204359673
 40
0.3024523160762943
 40
0.3024523160762943
 40
0.3024523160762943
 40
0.3024523160762943
 40
0.3051771117166213
 40
0.3051771117166213
 40
0.3051771117166213
 40
0.3051771117166213
 40
0.3079019073569482
 40
0.3079019073569482
 40
0.3079019073569482
 40
0.3079019073569482
 40
0.3106267029972752
 40
0.3106267029972752
 40
0.3106267029972752
 40
0.3106267029972752
 40
0.3133514986376022
 40
0.3133514986376022
 40
0.3133514986376022
 40
0.3133514986376022
 40
0.3160762942779292
 40
0.3160762942779292
 40
0.3160762942779292
 40
0.3160762942779292
 40
0.3188010899182561
 40
0.3188010899182561
 40
0.3188010899182561
 40
0.3188010899182561
 40
0.3215258855585831
 40
0.3215258855585831
 40
0.3215258855585831
 40
0.3215258855585831
 40
0.3242506811989101
 40
0.3242506811989101
 40
0.3242506811989101
 40
0.3242506811989101
 40
0.3269754768392371
 40
0.3269754768392371
 40
0.3269754768392371
 40
0.3269754768392371
 40
0.329700272479564
 40
0.329700272479564
 40
0.329700272479564
 40
0.329700272479564
 40
0.332425068119891
 40
0.332425068119891
 40
0.332425068119891
 40
0.332425068119891
 40
0.335149863760218
 40
0.335149863760218
 40
0.335149863760218
 40
0.335149863760218
 40
0.337874659400545
 40
0.337874659400545
 40
0.337874659400545
 40
0.337874659400545
 40
0.3405994550408719
 40
0.3405994550408719
 40
0.3405994550408719
 40
0.3405994550408719
 40
0.3433242506811989
 40
0.3433242506811989
 40
0.3433242506811989
 40
0.3433242506811989
 40
0.3460490463215259
 40
0.3460490463215259
 40
0.3460490463215259
 40
0.3460490463215259
 40
0.3487738419618528
 40
0.3487738419618528
 40
0.3487738419618528
 40
0.3487738419618528
 40
0.3514986376021799
 40
0.3514986376021799
 40
0.3514986376021799
 40
0.3514986376021799
 40
0.3542234332425068
 40
0.3542234332425068
 40
0.3542234332425068
 40
0.3542234332425068
 40
0.3569482288828338
 40
0.3569482288828338
 40
0.3569482288828338
 40
0.3569482288828338
 40
0.3596730245231607
 40
0.3596730245231607
 40
0.3596730245231607
 40
0.3596730245231607
 40
0.3623978201634878
 40
0.3623978201634878
 40
0.3623978201634878
 40
0.3623978201634878
 40
0.3651226158038147
 40
0.3651226158038147
 40
0.3651226158038147
 40
0.3651226158038147
 40
0.3678474114441417
 40
0.3678474114441417
 40
0.3678474114441417
 40
0.3678474114441417
 40
0.3705722070844686
 40
0.3705722070844686
 40
0.3705722070844686
 40
0.3705722070844686
 40
0.3732970027247957
 40
0.3732970027247957
 40
0.3732970027247957
 40
0.3732970027247957
 40
0.3760217983651226
 40
0.3760217983651226
 40
0.3760217983651226
 40
0.3760217983651226
 40
0.3787465940054496
 40
0.3787465940054496
 40
0.3787465940054496
 40
0.3787465940054496
 40
0.3814713896457766
 40
0.3814713896457766
 40
0.3814713896457766
 40
0.3814713896457766
 40
0.3841961852861036
 40
0.3841961852861036
 40
0.3841961852861036
 40
0.3841961852861036
 40
0.3869209809264305
 40
0.3869209809264305
 40
0.3869209809264305
 40
0.3869209809264305
 40
0.3896457765667575
 40
0.3896457765667575
 40
0.3896457765667575
 40
0.3896457765667575
 40
0.3923705722070845
 40
0.3923705722070845
 40
0.3923705722070845
 40
0.3923705722070845
 40
0.3950953678474114
 40
0.3950953678474114
 40
0.3950953678474114
 40
0.3950953678474114
 40
0.3978201634877384
 40
0.3978201634877384
 40
0.3978201634877384
 40
0.3978201634877384
 40
0.4005449591280654
 40
0.4005449591280654
 40
0.4005449591280654
 40
0.4005449591280654
 40
0.4032697547683924
 40
0.4032697547683924
 40
0.4032697547683924
 40
0.4032697547683924
 40
0.4059945504087193
 40
0.4059945504087193
 40
0.4059945504087193
 40
0.4059945504087193
 40
0.4087193460490463
 40
0.4087193460490463
 40
0.4087193460490463
 40
0.4087193460490463
 40
0.4114441416893733
 40
0.4114441416893733
 40
0.4114441416893733
 40
0.4114441416893733
 40
0.4141689373297003
 40
0.4141689373297003
 40
0.4141689373297003
 40
0.4141689373297003
 40
0.4168937329700272
 40
0.4168937329700272
 40
0.4168937329700272
 40
0.4168937329700272
 40
0.4196185286103542
 40
0.4196185286103542
 40
0.4196185286103542
 40
0.4196185286103542
 40
0.4223433242506812
 40
0.4223433242506812
 40
0.4223433242506812
 40
0.4223433242506812
 40
0.4250681198910082
 40
0.4250681198910082
 40
0.4250681198910082
 40
0.4250681198910082
 40
0.4277929155313351
 40
0.4277929155313351
 40
0.4277929155313351
 40
0.4277929155313351
 40
0.4305177111716621
 40
0.4305177111716621
 40
0.4305177111716621
 40
0.4305177111716621
 40
0.4332425068119891
 40
0.4332425068119891
 40
0.4332425068119891
 40
0.4332425068119891
 40
0.4359673024523161
 40
0.4359673024523161
 40
0.4359673024523161
 40
0.4359673024523161
 40
0.438692098092643
 40
0.438692098092643
 40
0.438692098092643
 40
0.438692098092643
 40
0.4414168937329701
 40
0.4414168937329701
 40
0.4414168937329701
 40
0.4414168937329701
 40
0.444141689373297
 40
0.444141689373297
 40
0.444141689373297
 40
0.444141689373297
 40
0.446866485013624
 40
0.446866485013624
 40
0.446866485013624
 40
0.446866485013624
 40
0.4495912806539509
 40
0.4495912806539509
 40
0.4495912806539509
 40
0.4495912806539509
 40
0.4523160762942779
 40
0.4523160762942779
 40
0.4523160762942779
 40
0.4523160762942779
 40
0.4550408719346049
 40
0.4550408719346049
 40
0.4550408719346049
 40
0.4550408719346049
 40
0.4577656675749319
 40
0.4577656675749319
 40
0.4577656675749319
 40
0.4577656675749319
 40
0.4604904632152589
 40
0.4604904632152589
 40
0.4604904632152589
 40
0.4604904632152589
 40
0.4632152588555858
 40
0.4632152588555858
 40
0.4632152588555858
 40
0.4632152588555858
 40
0.4659400544959128
 40
0.4659400544959128
 40
0.4659400544959128
 40
0.4659400544959128
 40
0.4686648501362398
 40
0.4686648501362398
 40
0.4686648501362398
 40
0.4686648501362398
 40
0.4713896457765668
 40
0.4713896457765668
 40
0.4713896457765668
 40
0.4713896457765668
 40
0.4741144414168937
 40
0.4741144414168937
 40
0.4741144414168937
 40
0.4741144414168937
 40
0.4768392370572207
 40
0.4768392370572207
 40
0.4768392370572207
 40
0.4768392370572207
 40
0.4795640326975477
 40
0.4795640326975477
 40
0.4795640326975477
 40
0.4795640326975477
 40
0.4822888283378747
 40
0.4822888283378747
 40
0.4822888283378747
 40
0.4822888283378747
 40
0.4850136239782016
 40
0.4850136239782016
 40
0.4850136239782016
 40
0.4850136239782016
 40
0.4877384196185286
 40
0.4877384196185286
 40
0.4877384196185286
 40
0.4877384196185286
 40
0.4904632152588556
 40
0.4904632152588556
 40
0.4904632152588556
 40
0.4904632152588556
 40
0.4931880108991826
 40
0.4931880108991826
 40
0.4931880108991826
 40
0.4931880108991826
 40
0.4959128065395095
 40
0.4959128065395095
 40
0.4959128065395095
 40
0.4959128065395095
 40
0.4986376021798365
 40
0.4986376021798365
 40
0.4986376021798365
 40
0.4986376021798365
 40
0.5013623978201635
 40
0.5013623978201635
 40
0.5013623978201635
 40
0.5013623978201635
 40
0.5040871934604905
 40
0.5040871934604905
 40
0.5040871934604905
 40
0.5040871934604905
 40
0.5068119891008175
 40
0.5068119891008175
 40
0.5068119891008175
 40
0.5068119891008175
 40
0.5095367847411444
 40
0.5095367847411444
 40
0.5095367847411444
 40
0.5095367847411444
 40
0.5122615803814714
 40
0.5122615803814714
 40
0.5122615803814714
 40
0.5122615803814714
 40
0.5149863760217984
 40
0.5149863760217984
 40
0.5149863760217984
 40
0.5149863760217984
 40
0.5177111716621253
 40
0.5177111716621253
 40
0.5177111716621253
 40
0.5177111716621253
 40
0.5204359673024523
 40
0.5204359673024523
 40
0.5204359673024523
 40
0.5204359673024523
 40
0.5231607629427792
 40
0.5231607629427792
 40
0.5231607629427792
 40
0.5231607629427792
 40
0.5258855585831063
 40
0.5258855585831063
 40
0.5258855585831063
 40
0.5258855585831063
 40
0.5286103542234333
 40
0.5286103542234333
 40
0.5286103542234333
 40
0.5286103542234333
 40
0.5313351498637602
 40
0.5313351498637602
 40
0.5313351498637602
 40
0.5313351498637602
 40
0.5340599455040872
 40
0.5340599455040872
 40
0.5340599455040872
 40
0.5340599455040872
 40
0.5367847411444142
 40
0.5367847411444142
 40
0.5367847411444142
 40
0.5367847411444142
 40
0.5395095367847411
 40
0.5395095367847411
 40
0.5395095367847411
 40
0.5395095367847411
 40
0.5422343324250681
 40
0.5422343324250681
 40
0.5422343324250681
 40
0.5422343324250681
 40
0.5449591280653951
 40
0.5449591280653951
 40
0.5449591280653951
 40
0.5449591280653951
 40
0.547683923705722
 40
0.547683923705722
 40
0.547683923705722
 40
0.547683923705722
 40
0.5504087193460491
 40
0.5504087193460491
 40
0.5504087193460491
 40
0.5504087193460491
 40
0.553133514986376
 40
0.553133514986376
 40
0.553133514986376
 40
0.553133514986376
 40
0.555858310626703
 40
0.555858310626703
 40
0.555858310626703
 40
0.555858310626703
 40
0.55858310626703
 40
0.55858310626703
 40
0.55858310626703
 40
0.55858310626703
 40
0.5613079019073569
 40
0.5613079019073569
 40
0.5613079019073569
 40
0.5613079019073569
 40
0.5640326975476839
 40
0.5640326975476839
 40
0.5640326975476839
 40
0.5640326975476839
 40
0.5667574931880109
 40
0.5667574931880109
 40
0.5667574931880109
 40
0.5667574931880109
 40
0.5694822888283378
 40
0.5694822888283378
 40
0.5694822888283378
 40
0.5694822888283378
 40
0.5722070844686649
 40
0.5722070844686649
 40
0.5722070844686649
 40
0.5722070844686649
 40
0.5749318801089919
 40
0.5749318801089919
 40
0.5749318801089919
 40
0.5749318801089919
 40
0.5776566757493188
 40
0.5776566757493188
 40
0.5776566757493188
 40
0.5776566757493188
 40
0.5803814713896458
 40
0.5803814713896458
 40
0.5803814713896458
 40
0.5803814713896458
 40
0.5831062670299727
 40
0.5831062670299727
 40
0.5831062670299727
 40
0.5831062670299727
 40
0.5858310626702997
 40
0.5858310626702997
 40
0.5858310626702997
 40
0.5858310626702997
 40
0.5885558583106267
 40
0.5885558583106267
 40
0.5885558583106267
 40
0.5885558583106267
 40
0.5912806539509536
 40
0.5912806539509536
 40
0.5912806539509536
 40
0.5912806539509536
 40
0.5940054495912807
 40
0.5940054495912807
 40
0.5940054495912807
 40
0.5940054495912807
 40
0.5967302452316077
 40
0.5967302452316077
 40
0.5967302452316077
 40
0.5967302452316077
 40
0.5994550408719346
 40
0.5994550408719346
 40
0.5994550408719346
 40
0.5994550408719346
 40
0.6021798365122616
 40
0.6021798365122616
 40
0.6021798365122616
 40
0.6021798365122616
 40
0.6049046321525886
 40
0.6049046321525886
 40
0.6049046321525886
 40
0.6049046321525886
 40
0.6076294277929155
 40
0.6076294277929155
 40
0.6076294277929155
 40
0.6076294277929155
 40
0.6103542234332425
 40
0.6103542234332425
 40
0.6103542234332425
 40
0.6103542234332425
 40
0.6130790190735694
 40
0.6130790190735694
 40
0.6130790190735694
 40
0.6130790190735694
 40
0.6158038147138964
 40
0.6158038147138964
 40
0.6158038147138964
 40
0.6158038147138964
 40
0.6185286103542235
 40
0.6185286103542235
 40
0.6185286103542235
 40
0.6185286103542235
 40
0.6212534059945504
 40
0.6212534059945504
 40
0.6212534059945504
 40
0.6212534059945504
 40
0.6239782016348774
 40
0.6239782016348774
 40
0.6239782016348774
 40
0.6239782016348774
 40
0.6267029972752044
 40
0.6267029972752044
 40
0.6267029972752044
 40
0.6267029972752044
 40
0.6294277929155313
 40
0.6294277929155313
 40
0.6294277929155313
 40
0.6294277929155313
 40
0.6321525885558583
 40
0.6321525885558583
 40
0.6321525885558583
 40
0.6321525885558583
 40
0.6348773841961853
 40
0.6348773841961853
 40
0.6348773841961853
 40
0.6348773841961853
 40
0.6376021798365122
 40
0.6376021798365122
 40
0.6376021798365122
 40
0.6376021798365122
 40
0.6403269754768393
 40
0.6403269754768393
 40
0.6403269754768393
 40
0.6403269754768393
 40
0.6430517711171662
 40
0.6430517711171662
 40
0.6430517711171662
 40
0.6430517711171662
 40
0.6457765667574932
 40
0.6457765667574932
 40
0.6457765667574932
 40
0.6457765667574932
 40
0.6485013623978202
 40
0.6485013623978202
 40
0.6485013623978202
 40
0.6485013623978202
 40
0.6512261580381471
 40
0.6512261580381471
 40
0.6512261580381471
 40
0.6512261580381471
 40
0.6539509536784741
 40
0.6539509536784741
 40
0.6539509536784741
 40
0.6539509536784741
 40
0.6566757493188011
 40
0.6566757493188011
 40
0.6566757493188011
 40
0.6566757493188011
 40
0.659400544959128
 40
0.659400544959128
 40
0.659400544959128
 40
0.659400544959128
 40
0.662125340599455
 40
0.662125340599455
 40
0.662125340599455
 40
0.662125340599455
 40
0.6648501362397821
 40
0.6648501362397821
 40
0.6648501362397821
 40
0.6648501362397821
 40
0.667574931880109
 40
0.667574931880109
 40
0.667574931880109
 40
0.667574931880109
 40
0.670299727520436
 40
0.670299727520436
 40
0.670299727520436
 40
0.670299727520436
 40
0.6730245231607629
 40
0.6730245231607629
 40
0.6730245231607629
 40
0.6730245231607629
 40
0.6757493188010899
 40
0.6757493188010899
 40
0.6757493188010899
 40
0.6757493188010899
 40
0.6784741144414169
 40
0.6784741144414169
 40
0.6784741144414169
 40
0.6784741144414169
 40
0.6811989100817438
 40
0.6811989100817438
 40
0.6811989100817438
 40
0.6811989100817438
 40
0.6839237057220708
 40
0.6839237057220708
 40
0.6839237057220708
 40
0.6839237057220708
 40
0.6866485013623979
 40
0.6866485013623979
 40
0.6866485013623979
 40
0.6866485013623979
 40
0.6893732970027248
 40
0.6893732970027248
 40
0.6893732970027248
 40
0.6893732970027248
 40
0.6920980926430518
 40
0.6920980926430518
 40
0.6920980926430518
 40
0.6920980926430518
 40
0.6948228882833788
 40
0.6948228882833788
 40
0.6948228882833788
 40
0.6948228882833788
 40
0.6975476839237057
 40
0.6975476839237057
 40
0.6975476839237057
 40
0.6975476839237057
 40
0.7002724795640327
 40
0.7002724795640327
 40
0.7002724795640327
 40
0.7002724795640327
 40
0.7029972752043597
 40
0.7029972752043597
 40
0.7029972752043597
 40
0.7029972752043597
 40
0.7057220708446866
 40
0.7057220708446866
 40
0.7057220708446866
 40
0.7057220708446866
 40
0.7084468664850136
 40
0.7084468664850136
 40
0.7084468664850136
 40
0.7084468664850136
 40
0.7111716621253406
 40
0.7111716621253406
 40
0.7111716621253406
 40
0.7111716621253406
 40
0.7138964577656676
 40
0.7138964577656676
 40
0.7138964577656676
 40
0.7138964577656676
 40
0.7166212534059946
 40
0.7166212534059946
 40
0.7166212534059946
 40
0.7166212534059946
 40
0.7193460490463215
 40
0.7193460490463215
 40
0.7193460490463215
 40
0.7193460490463215
 40
0.7220708446866485
 40
0.7220708446866485
 40
0.7220708446866485
 40
0.7220708446866485
 40
0.7247956403269755
 40
0.7247956403269755
 40
0.7247956403269755
 40
0.7247956403269755
 40
0.7275204359673024
 40
0.7275204359673024
 40
0.7275204359673024
 40
0.7275204359673024
 40
0.7302452316076294
 40
0.7302452316076294
 40
0.7302452316076294
 40
0.7302452316076294
 40
0.7329700272479565
 40
0.7329700272479565
 40
0.7329700272479565
 40
0.7329700272479565
 40
0.7356948228882834
 40
0.7356948228882834
 40
0.7356948228882834
 40
0.7356948228882834
 40
0.7384196185286104
 40
0.7384196185286104
 40
0.7384196185286104
 40
0.7384196185286104
 40
0.7411444141689373
 40
0.7411444141689373
 40
0.7411444141689373
 40
0.7411444141689373
 40
0.7438692098092643
 40
0.7438692098092643
 40
0.7438692098092643
 40
0.7438692098092643
 40
0.7465940054495913
 40
0.7465940054495913
 40
0.7465940054495913
 40
0.7465940054495913
 40
0.7493188010899182
 40
0.7493188010899182
 40
0.7493188010899182
 40
0.7493188010899182
 40
0.7520435967302452
 40
0.7520435967302452
 40
0.7520435967302452
 40
0.7520435967302452
 40
0.7547683923705722
 40
0.7547683923705722
 40
0.7547683923705722
 40
0.7547683923705722
 40
0.7574931880108992
 40
0.7574931880108992
 40
0.7574931880108992
 40
0.7574931880108992
 40
0.7602179836512262
 40
0.7602179836512262
 40
0.7602179836512262
 40
0.7602179836512262
 40
0.7629427792915532
 40
0.7629427792915532
 40
0.7629427792915532
 40
0.7629427792915532
 40
0.7656675749318801
 40
0.7656675749318801
 40
0.7656675749318801
 40
0.7656675749318801
 40
0.7683923705722071
 40
0.7683923705722071
 40
0.7683923705722071
 40
0.7683923705722071
 40
0.771117166212534
 40
0.771117166212534
 40
0.771117166212534
 40
0.771117166212534
 40
0.773841961852861
 40
0.773841961852861
 40
0.773841961852861
 40
0.773841961852861
 40
0.776566757493188
 40
0.776566757493188
 40
0.776566757493188
 40
0.776566757493188
 40
0.779291553133515
 40
0.779291553133515
 40
0.779291553133515
 40
0.779291553133515
 40
0.782016348773842
 40
0.782016348773842
 40
0.782016348773842
 40
0.782016348773842
 40
0.784741144414169
 40
0.784741144414169
 40
0.784741144414169
 40
0.784741144414169
 40
0.7874659400544959
 40
0.7874659400544959
 40
0.7874659400544959
 40
0.7874659400544959
 40
0.7901907356948229
 40
0.7901907356948229
 40
0.7901907356948229
 40
0.7901907356948229
 40
0.7929155313351499
 40
0.7929155313351499
 40
0.7929155313351499
 40
0.7929155313351499
 40
0.7956403269754768
 40
0.7956403269754768
 40
0.7956403269754768
 40
0.7956403269754768
 40
0.7983651226158038
 40
0.7983651226158038
 40
0.7983651226158038
 40
0.7983651226158038
 40
0.8010899182561307
 40
0.8010899182561307
 40
0.8010899182561307
 40
0.8010899182561307
 40
0.8038147138964578
 40
0.8038147138964578
 40
0.8038147138964578
 40
0.8038147138964578
 40
0.8065395095367848
 40
0.8065395095367848
 40
0.8065395095367848
 40
0.8065395095367848
 40
0.8092643051771117
 40
0.8092643051771117
 40
0.8092643051771117
 40
0.8092643051771117
 40
0.8119891008174387
 40
0.8119891008174387
 40
0.8119891008174387
 40
0.8119891008174387
 40
0.8147138964577657
 40
0.8147138964577657
 40
0.8147138964577657
 40
0.8147138964577657
 40
0.8174386920980926
 40
0.8174386920980926
 40
0.8174386920980926
 40
0.8174386920980926
 40
0.8201634877384196
 40
0.8201634877384196
 40
0.8201634877384196
 40
0.8201634877384196
 40
0.8228882833787466
 40
0.8228882833787466
 40
0.8228882833787466
 40
0.8228882833787466
 40
0.8256130790190735
 40
0.8256130790190735
 40
0.8256130790190735
 40
0.8256130790190735
 40
0.8283378746594006
 40
0.8283378746594006
 40
0.8283378746594006
 40
0.8283378746594006
 40
0.8310626702997275
 40
0.8310626702997275
 40
0.8310626702997275
 40
0.8310626702997275
 40
0.8337874659400545
 40
0.8337874659400545
 40
0.8337874659400545
 40
0.8337874659400545
 40
0.8365122615803815
 40
0.8365122615803815
 40
0.8365122615803815
 40
0.8365122615803815
 40
0.8392370572207084
 40
0.8392370572207084
 40
0.8392370572207084
 40
0.8392370572207084
 40
0.8419618528610354
 40
0.8419618528610354
 40
0.8419618528610354
 40
0.8419618528610354
 40
0.8446866485013624
 40
0.8446866485013624
 40
0.8446866485013624
 40
0.8446866485013624
 40
0.8474114441416893
 40
0.8474114441416893
 40
0.8474114441416893
 40
0.8474114441416893
 40
0.8501362397820164
 40
0.8501362397820164
 40
0.8501362397820164
 40
0.8501362397820164
 40
0.8528610354223434
 40
0.8528610354223434
 40
0.8528610354223434
 40
0.8528610354223434
 40
0.8555858310626703
 40
0.8555858310626703
 40
0.8555858310626703
 40
0.8555858310626703
 40
0.8583106267029973
 40
0.8583106267029973
 40
0.8583106267029973
 40
0.8583106267029973
 40
0.8610354223433242
 40
0.8610354223433242
 40
0.8610354223433242
 40
0.8610354223433242
 40
0.8637602179836512
 40
0.8637602179836512
 40
0.8637602179836512
 40
0.8637602179836512
 40
0.8664850136239782
 40
0.8664850136239782
 40
0.8664850136239782
 40
0.8664850136239782
 40
0.8692098092643051
 40
0.8692098092643051
 40
0.8692098092643051
 40
0.8692098092643051
 40
0.8719346049046321
 40
0.8719346049046321
 40
0.8719346049046321
 40
0.8719346049046321
 40
0.8746594005449592
 40
0.8746594005449592
 40
0.8746594005449592
 40
0.8746594005449592
 40
0.8773841961852861
 40
0.8773841961852861
 40
0.8773841961852861
 40
0.8773841961852861
 40
0.8801089918256131
 40
0.8801089918256131
 40
0.8801089918256131
 40
0.8801089918256131
 40
0.8828337874659401
 40
0.8828337874659401
 40
0.8828337874659401
 40
0.8828337874659401
 40
0.885558583106267
 40
0.885558583106267
 40
0.885558583106267
 40
0.885558583106267
 40
0.888283378746594
 40
0.888283378746594
 40
0.888283378746594
 40
0.888283378746594
 40
0.8910081743869209
 40
0.8910081743869209
 40
0.8910081743869209
 40
0.8910081743869209
 40
0.8937329700272479
 40
0.8937329700272479
 40
0.8937329700272479
 40
0.8937329700272479
 40
0.896457765667575
 40
0.896457765667575
 40
0.896457765667575
 40
0.896457765667575
 40
0.8991825613079019
 40
0.8991825613079019
 40
0.8991825613079019
 40
0.8991825613079019
 40
0.9019073569482289
 40
0.9019073569482289
 40
0.9019073569482289
 40
0.9019073569482289
 40
0.9046321525885559
 40
0.9046321525885559
 40
0.9046321525885559
 40
0.9046321525885559
 40
0.9073569482288828
 40
0.9073569482288828
 40
0.9073569482288828
 40
0.9073569482288828
 40
0.9100817438692098
 40
0.9100817438692098
 40
0.9100817438692098
 40
0.9100817438692098
 40
0.9128065395095368
 40
0.9128065395095368
 40
0.9128065395095368
 40
0.9128065395095368
 40
0.9155313351498637
 40
0.9155313351498637
 40
0.9155313351498637
 40
0.9155313351498637
 40
0.9182561307901907
 40
0.9182561307901907
 40
0.9182561307901907
 40
0.9182561307901907
 40
0.9209809264305178
 40
0.9209809264305178
 40
0.9209809264305178
 40
0.9209809264305178
 40
0.9237057220708447
 40
0.9237057220708447
 40
0.9237057220708447
 40
0.9237057220708447
 40
0.9264305177111717
 40
0.9264305177111717
 40
0.9264305177111717
 40
0.9264305177111717
 40
0.9291553133514986
 40
0.9291553133514986
 40
0.9291553133514986
 40
0.9291553133514986
 40
0.9318801089918256
 40
0.9318801089918256
 40
0.9318801089918256
 40
0.9318801089918256
 40
0.9346049046321526
 40
0.9346049046321526
 40
0.9346049046321526
 40
0.9346049046321526
 40
0.9373297002724795
 40
0.9373297002724795
 40
0.9373297002724795
 40
0.9373297002724795
 40
0.9400544959128065
 40
0.9400544959128065
 40
0.9400544959128065
 40
0.9400544959128065
 40
0.9427792915531336
 40
0.9427792915531336
 40
0.9427792915531336
 40
0.9427792915531336
 40
0.9455040871934605
 40
0.9455040871934605
 40
0.9455040871934605
 40
0.9455040871934605
 40
0.9482288828337875
 40
0.9482288828337875
 40
0.9482288828337875
 40
0.9482288828337875
 40
0.9509536784741145
 40
0.9509536784741145
 40
0.9509536784741145
 40
0.9509536784741145
 40
0.9536784741144414
 40
0.9536784741144414
 40
0.9536784741144414
 40
0.9536784741144414
 40
0.9564032697547684
 40
0.9564032697547684
 40
0.9564032697547684
 40
0.9564032697547684
 40
0.9591280653950953
 40
0.9591280653950953
 40
0.9591280653950953
 40
0.9591280653950953
 40
0.9618528610354223
 40
0.9618528610354223
 40
0.9618528610354223
 40
0.9618528610354223
 40
0.9645776566757494
 40
0.9645776566757494
 40
0.9645776566757494
 40
0.9645776566757494
 40
0.9673024523160763
 40
0.9673024523160763
 40
0.9673024523160763
 40
0.9673024523160763
 40
0.9700272479564033
 40
0.9700272479564033
 40
0.9700272479564033
 40
0.9700272479564033
 40
0.9727520435967303
 40
0.9727520435967303
 40
0.9727520435967303
 40
0.9727520435967303
 40
0.9754768392370572
 40
0.9754768392370572
 40
0.9754768392370572
 40
0.9754768392370572
 40
0.9782016348773842
 40
0.9782016348773842
 40
0.9782016348773842
 40
0.9782016348773842
 40
0.9809264305177112
 40
0.9809264305177112
 40
0.9809264305177112
 40
0.9809264305177112
 40
0.9836512261580381
 40
0.9836512261580381
 40
0.9836512261580381
 40
0.9836512261580381
 40
0.9863760217983651
 40
0.9863760217983651
 40
0.9863760217983651
 40
0.9863760217983651
 40
0.989100817438692
 40
0.989100817438692
 40
0.989100817438692
 40
0.989100817438692
 40
0.9918256130790191
 40
0.9918256130790191
 40
0.9918256130790191
 40
0.9918256130790191
 40
0.9945504087193461
 40
0.9945504087193461
 40
0.9945504087193461
 40
0.9945504087193461
 40
1.0
 40
1.0
 40
1.0
 40
1.0
 10
-23.0417
 20
15.7667
 30
0.0
 10
-23.0417
 20
15.7667
 30
0.0
 10
-22.2417
 20
15.7667
 30
0.0
 10
-22.2417
 20
15.7667
 30
0.0
 10
-22.2417
 20
15.7667
 30
0.0
 10
-22.2417
 20
15.7667
 30
0.0
 10
15.5652
 20
15.7667
 30
0.0
 10
15.5652
 20
15.7667
 30
0.0
 10
15.5652
 20
15.7667
 30
0.0
 10
15.9337
 20
15.7667
 30
0.0
 10
16.4997
 20
15.8749
 30
0.0
 10
16.8234
 20
15.5725
 30
0.0
 10
16.8234
 20
15.5725
 30
0.0
 10
17.1918
 20
15.2288
 30
0.0
 10
17.0804
 20
14.8399
 30
0.0
 10
17.0811
 20
14.3375
 30
0.0
 10
17.0811
 20
14.3375
 30
0.0
 10
17.0864
 20
11.4787
 30
0.0
 10
17.0954
 20
8.6192
 30
0.0
 10
17.0954
 20
5.7601
 30
0.0
 10
17.0954
 20
5.7601
 30
0.0
 10
17.0954
 20
5.7601
 30
0.0
 10
17.0954
 20
-23.5548
 30
0.0
 10
17.0954
 20
-23.5548
 30
0.0
 10
17.0954
 20
-23.5548
 30
0.0
 10
17.0954
 20
-23.5548
 30
0.0
 10
17.0954
 20
-24.3546
 30
0.0
 10
17.0954
 20
-24.3546
 30
0.0
 10
17.0954
 20
-24.3546
 30
0.0
 10
17.0938
 20
-24.4447
 30
0.0
 10
17.0605
 20
-24.5558
 30
0.0
 10
17.0254
 20
-24.6343
 30
0.0
 10
17.0254
 20
-24.6343
 30
0.0
 10
16.9517
 20
-24.7988
 30
0.0
 10
16.8095
 20
-24.9476
 30
0.0
 10
16.6449
 20
-25.0228
 30
0.0
 10
16.6449
 20
-25.0228
 30
0.0
 10
16.6216
 20
-25.0332
 30
0.0
 10
16.4922
 20
-25.0839
 30
0.0
 10
16.4582
 20
-25.0849
 30
0.0
 10
16.4582
 20
-25.0849
 30
0.0
 10
16.4582
 20
-25.0849
 30
0.0
 10
15.6585
 20
-25.0862
 30
0.0
 10
15.6585
 20
-25.0862
 30
0.0
 10
15.6585
 20
-25.0862
 30
0.0
 10
15.6585
 20
-25.0862
 30
0.0
 10
8.5798
 20
-25.0989
 30
0.0
 10
8.5798
 20
-25.0989
 30
0.0
 10
8.5798
 20
-25.0989
 30
0.0
 10
8.5798
 20
-25.0989
 30
0.0
 10
9.8155
 20
-20.3066
 30
0.0
 10
9.8155
 20
-20.3066
 30
0.0
 10
9.8155
 20
-20.3066
 30
0.0
 10
9.8155
 20
-20.3066
 30
0.0
 10
12.2161
 20
-20.3066
 30
0.0
 10
12.2161
 20
-20.3066
 30
0.0
 10
12.2161
 20
-20.3066
 30
0.0
 10
12.2161
 20
-20.3066
 30
0.0
 10
12.2161
 20
-17.906
 30
0.0
 10
12.2161
 20
-17.906
 30
0.0
 10
12.2161
 20
-17.906
 30
0.0
 10
12.2161
 20
-17.906
 30
0.0
 10
12.2238
 20
-17.898
 30
0.0
 10
12.2238
 20
-17.898
 30
0.0
 10
12.2238
 20
-17.898
 30
0.0
 10
12.2238
 20
-17.898
 30
0.0
 10
12.2161
 20
-15.5052
 30
0.0
 10
12.2161
 20
-15.5052
 30
0.0
 10
12.2161
 20
-15.5052
 30
0.0
 10
12.2161
 20
-15.5052
 30
0.0
 10
12.2161
 20
-13.1043
 30
0.0
 10
12.2161
 20
-13.1043
 30
0.0
 10
12.2161
 20
-13.1043
 30
0.0
 10
12.2161
 20
-13.1043
 30
0.0
 10
12.2238
 20
-13.0966
 30
0.0
 10
12.2238
 20
-13.0966
 30
0.0
 10
12.2238
 20
-13.0966
 30
0.0
 10
12.2238
 20
-13.0966
 30
0.0
 10
12.2161
 20
-10.7115
 30
0.0
 10
12.2161
 20
-10.7115
 30
0.0
 10
12.2161
 20
-10.7115
 30
0.0
 10
12.2161
 20
-10.7115
 30
0.0
 10
12.2161
 20
-8.3105
 30
0.0
 10
12.2161
 20
-8.3105
 30
0.0
 10
12.2161
 20
-8.3105
 30
0.0
 10
12.2161
 20
-8.3105
 30
0.0
 10
12.2238
 20
-8.3029
 30
0.0
 10
12.2238
 20
-8.3029
 30
0.0
 10
12.2238
 20
-8.3029
 30
0.0
 10
12.2238
 20
-8.3029
 30
0.0
 10
12.2161
 20
-5.9098
 30
0.0
 10
12.2161
 20
-5.9098
 30
0.0
 10
12.2161
 20
-5.9098
 30
0.0
 10
12.2161
 20
-5.9098
 30
0.0
 10
12.2161
 20
-3.5091
 30
0.0
 10
12.2161
 20
-3.5091
 30
0.0
 10
12.2161
 20
-3.5091
 30
0.0
 10
12.2161
 20
-3.5091
 30
0.0
 10
12.2238
 20
-3.5014
 30
0.0
 10
12.2238
 20
-3.5014
 30
0.0
 10
12.2238
 20
-3.5014
 30
0.0
 10
12.2238
 20
-3.5014
 30
0.0
 10
12.2161
 20
-1.1084
 30
0.0
 10
12.2161
 20
-1.1084
 30
0.0
 10
12.2161
 20
-1.1084
 30
0.0
 10
12.2161
 20
-1.1084
 30
0.0
 10
12.2161
 20
1.2925
 30
0.0
 10
12.2161
 20
1.2925
 30
0.0
 10
12.2161
 20
1.2925
 30
0.0
 10
12.2161
 20
1.2925
 30
0.0
 10
12.2238
 20
1.3003
 30
0.0
 10
12.2238
 20
1.3003
 30
0.0
 10
12.2238
 20
1.3003
 30
0.0
 10
12.2238
 20
1.3003
 30
0.0
 10
12.2161
 20
3.6855
 30
0.0
 10
12.2161
 20
3.6855
 30
0.0
 10
12.2161
 20
3.6855
 30
0.0
 10
12.2161
 20
3.6855
 30
0.0
 10
12.2161
 20
6.0861
 30
0.0
 10
12.2161
 20
6.0861
 30
0.0
 10
12.2161
 20
6.0861
 30
0.0
 10
12.2161
 20
6.0861
 30
0.0
 10
12.2238
 20
6.0938
 30
0.0
 10
12.2238
 20
6.0938
 30
0.0
 10
12.2238
 20
6.0938
 30
0.0
 10
12.2238
 20
6.0938
 30
0.0
 10
12.2161
 20
8.4869
 30
0.0
 10
12.2161
 20
8.4869
 30
0.0
 10
12.2161
 20
8.4869
 30
0.0
 10
12.2161
 20
8.4869
 30
0.0
 10
12.2161
 20
10.8876
 30
0.0
 10
12.2161
 20
10.8876
 30
0.0
 10
12.2161
 20
10.8876
 30
0.0
 10
12.2161
 20
10.8876
 30
0.0
 10
12.2238
 20
10.8954
 30
0.0
 10
12.2238
 20
10.8954
 30
0.0
 10
12.2238
 20
10.8954
 30
0.0
 10
12.2238
 20
10.8954
 30
0.0
 10
9.8232
 20
10.8954
 30
0.0
 10
9.8232
 20
10.8954
 30
0.0
 10
9.8232
 20
10.8954
 30
0.0
 10
9.8232
 20
10.8954
 30
0.0
 10
9.8155
 20
8.4869
 30
0.0
 10
9.8155
 20
8.4869
 30
0.0
 10
9.8155
 20
8.4869
 30
0.0
 10
9.8155
 20
8.4869
 30
0.0
 10
12.2161
 20
8.4869
 30
0.0
 10
12.2161
 20
8.4869
 30
0.0
 10
12.2161
 20
8.4869
 30
0.0
 10
12.2161
 20
8.4869
 30
0.0
 10
12.2238
 20
6.0938
 30
0.0
 10
12.2238
 20
6.0938
 30
0.0
 10
12.2238
 20
6.0938
 30
0.0
 10
12.2238
 20
6.0938
 30
0.0
 10
9.8232
 20
6.0938
 30
0.0
 10
9.8232
 20
6.0938
 30
0.0
 10
9.8232
 20
6.0938
 30
0.0
 10
9.8232
 20
6.0938
 30
0.0
 10
9.8155
 20
3.6855
 30
0.0
 10
9.8155
 20
3.6855
 30
0.0
 10
9.8155
 20
3.6855
 30
0.0
 10
9.8155
 20
3.6855
 30
0.0
 10
12.2161
 20
3.6855
 30
0.0
 10
12.2161
 20
3.6855
 30
0.0
 10
12.2161
 20
3.6855
 30
0.0
 10
12.2161
 20
3.6855
 30
0.0
 10
12.2238
 20
1.3003
 30
0.0
 10
12.2238
 20
1.3003
 30
0.0
 10
12.2238
 20
1.3003
 30
0.0
 10
12.2238
 20
1.3003
 30
0.0
 10
9.8232
 20
1.3003
 30
0.0
 10
9.8232
 20
1.3003
 30
0.0
 10
9.8232
 20
1.3003
 30
0.0
 10
9.8232
 20
1.3003
 30
0.0
 10
9.8155
 20
-1.1084
 30
0.0
 10
9.8155
 20
-1.1084
 30
0.0
 10
9.8155
 20
-1.1084
 30
0.0
 10
9.8155
 20
-1.1084
 30
0.0
 10
12.2161
 20
-1.1084
 30
0.0
 10
12.2161
 20
-1.1084
 30
0.0
 10
12.2161
 20
-1.1084
 30
0.0
 10
12.2161
 20
-1.1084
 30
0.0
 10
12.2238
 20
-3.5014
 30
0.0
 10
12.2238
 20
-3.5014
 30
0.0
 10
12.2238
 20
-3.5014
 30
0.0
 10
12.2238
 20
-3.5014
 30
0.0
 10
9.8232
 20
-3.5014
 30
0.0
 10
9.8232
 20
-3.5014
 30
0.0
 10
9.8232
 20
-3.5014
 30
0.0
 10
9.8232
 20
-3.5014
 30
0.0
 10
9.8155
 20
-5.9098
 30
0.0
 10
9.8155
 20
-5.9098
 30
0.0
 10
9.8155
 20
-5.9098
 30
0.0
 10
9.8155
 20
-5.9098
 30
0.0
 10
12.2161
 20
-5.9098
 30
0.0
 10
12.2161
 20
-5.9098
 30
0.0
 10
12.2161
 20
-5.9098
 30
0.0
 10
12.2161
 20
-5.9098
 30
0.0
 10
12.2238
 20
-8.3029
 30
0.0
 10
12.2238
 20
-8.3029
 30
0.0
 10
12.2238
 20
-8.3029
 30
0.0
 10
12.2238
 20
-8.3029
 30
0.0
 10
9.8232
 20
-8.3029
 30
0.0
 10
9.8232
 20
-8.3029
 30
0.0
 10
9.8232
 20
-8.3029
 30
0.0
 10
9.8232
 20
-8.3029
 30
0.0
 10
9.8155
 20
-10.7115
 30
0.0
 10
9.8155
 20
-10.7115
 30
0.0
 10
9.8155
 20
-10.7115
 30
0.0
 10
9.8155
 20
-10.7115
 30
0.0
 10
12.2161
 20
-10.7115
 30
0.0
 10
12.2161
 20
-10.7115
 30
0.0
 10
12.2161
 20
-10.7115
 30
0.0
 10
12.2161
 20
-10.7115
 30
0.0
 10
12.2238
 20
-13.0966
 30
0.0
 10
12.2238
 20
-13.0966
 30
0.0
 10
12.2238
 20
-13.0966
 30
0.0
 10
12.2238
 20
-13.0966
 30
0.0
 10
9.8232
 20
-13.0966
 30
0.0
 10
9.8232
 20
-13.0966
 30
0.0
 10
9.8232
 20
-13.0966
 30
0.0
 10
9.8232
 20
-13.0966
 30
0.0
 10
9.8155
 20
-15.5052
 30
0.0
 10
9.8155
 20
-15.5052
 30
0.0
 10
9.8155
 20
-15.5052
 30
0.0
 10
9.8155
 20
-15.5052
 30
0.0
 10
12.2161
 20
-15.5052
 30
0.0
 10
12.2161
 20
-15.5052
 30
0.0
 10
12.2161
 20
-15.5052
 30
0.0
 10
12.2161
 20
-15.5052
 30
0.0
 10
12.2238
 20
-17.898
 30
0.0
 10
12.2238
 20
-17.898
 30
0.0
 10
12.2238
 20
-17.898
 30
0.0
 10
12.2238
 20
-17.898
 30
0.0
 10
9.8232
 20
-17.898
 30
0.0
 10
9.8232
 20
-17.898
 30
0.0
 10
9.8232
 20
-17.898
 30
0.0
 10
9.8232
 20
-17.898
 30
0.0
 10
7.4225
 20
-17.898
 30
0.0
 10
7.4225
 20
-17.898
 30
0.0
 10
7.4225
 20
-17.898
 30
0.0
 10
7.4225
 20
-17.898
 30
0.0
 10
7.4145
 20
-15.5052
 30
0.0
 10
7.4145
 20
-15.5052
 30
0.0
 10
7.4145
 20
-15.5052
 30
0.0
 10
7.4145
 20
-15.5052
 30
0.0
 10
7.4145
 20
-13.1043
 30
0.0
 10
7.4145
 20
-13.1043
 30
0.0
 10
7.4145
 20
-13.1043
 30
0.0
 10
7.4145
 20
-13.1043
 30
0.0
 10
7.4225
 20
-13.0966
 30
0.0
 10
7.4225
 20
-13.0966
 30
0.0
 10
7.4225
 20
-13.0966
 30
0.0
 10
7.4225
 20
-13.0966
 30
0.0
 10
7.4145
 20
-10.7115
 30
0.0
 10
7.4145
 20
-10.7115
 30
0.0
 10
7.4145
 20
-10.7115
 30
0.0
 10
7.4145
 20
-10.7115
 30
0.0
 10
7.4145
 20
-8.3105
 30
0.0
 10
7.4145
 20
-8.3105
 30
0.0
 10
7.4145
 20
-8.3105
 30
0.0
 10
7.4145
 20
-8.3105
 30
0.0
 10
7.4225
 20
-8.3029
 30
0.0
 10
7.4225
 20
-8.3029
 30
0.0
 10
7.4225
 20
-8.3029
 30
0.0
 10
7.4225
 20
-8.3029
 30
0.0
 10
7.4145
 20
-5.9098
 30
0.0
 10
7.4145
 20
-5.9098
 30
0.0
 10
7.4145
 20
-5.9098
 30
0.0
 10
7.4145
 20
-5.9098
 30
0.0
 10
7.4145
 20
-3.5091
 30
0.0
 10
7.4145
 20
-3.5091
 30
0.0
 10
7.4145
 20
-3.5091
 30
0.0
 10
7.4145
 20
-3.5091
 30
0.0
 10
7.4225
 20
-3.5014
 30
0.0
 10
7.4225
 20
-3.5014
 30
0.0
 10
7.4225
 20
-3.5014
 30
0.0
 10
7.4225
 20
-3.5014
 30
0.0
 10
7.4145
 20
-1.1084
 30
0.0
 10
7.4145
 20
-1.1084
 30
0.0
 10
7.4145
 20
-1.1084
 30
0.0
 10
7.4145
 20
-1.1084
 30
0.0
 10
7.4145
 20
1.2925
 30
0.0
 10
7.4145
 20
1.2925
 30
0.0
 10
7.4145
 20
1.2925
 30
0.0
 10
7.4145
 20
1.2925
 30
0.0
 10
7.4225
 20
1.3003
 30
0.0
 10
7.4225
 20
1.3003
 30
0.0
 10
7.4225
 20
1.3003
 30
0.0
 10
7.4225
 20
1.3003
 30
0.0
 10
7.4145
 20
3.6855
 30
0.0
 10
7.4145
 20
3.6855
 30
0.0
 10
7.4145
 20
3.6855
 30
0.0
 10
7.4145
 20
3.6855
 30
0.0
 10
7.4145
 20
6.0861
 30
0.0
 10
7.4145
 20
6.0861
 30
0.0
 10
7.4145
 20
6.0861
 30
0.0
 10
7.4145
 20
6.0861
 30
0.0
 10
7.4225
 20
6.0938
 30
0.0
 10
7.4225
 20
6.0938
 30
0.0
 10
7.4225
 20
6.0938
 30
0.0
 10
7.4225
 20
6.0938
 30
0.0
 10
7.4145
 20
8.4869
 30
0.0
 10
7.4145
 20
8.4869
 30
0.0
 10
7.4145
 20
8.4869
 30
0.0
 10
7.4145
 20
8.4869
 30
0.0
 10
7.4145
 20
10.8876
 30
0.0
 10
7.4145
 20
10.8876
 30
0.0
 10
7.4145
 20
10.8876
 30
0.0
 10
7.4145
 20
10.8876
 30
0.0
 10
7.4225
 20
10.8954
 30
0.0
 10
7.4225
 20
10.8954
 30
0.0
 10
7.4225
 20
10.8954
 30
0.0
 10
7.4225
 20
10.8954
 30
0.0
 10
5.0215
 20
10.8954
 30
0.0
 10
5.0215
 20
10.8954
 30
0.0
 10
5.0215
 20
10.8954
 30
0.0
 10
5.0215
 20
10.8954
 30
0.0
 10
5.0139
 20
8.4869
 30
0.0
 10
5.0139
 20
8.4869
 30
0.0
 10
5.0139
 20
8.4869
 30
0.0
 10
5.0139
 20
8.4869
 30
0.0
 10
7.4145
 20
8.4869
 30
0.0
 10
7.4145
 20
8.4869
 30
0.0
 10
7.4145
 20
8.4869
 30
0.0
 10
7.4145
 20
8.4869
 30
0.0
 10
7.4225
 20
6.0938
 30
0.0
 10
7.4225
 20
6.0938
 30
0.0
 10
7.4225
 20
6.0938
 30
0.0
 10
7.4225
 20
6.0938
 30
0.0
 10
5.0215
 20
6.0938
 30
0.0
 10
5.0215
 20
6.0938
 30
0.0
 10
5.0215
 20
6.0938
 30
0.0
 10
5.0215
 20
6.0938
 30
0.0
 10
5.0139
 20
3.6855
 30
0.0
 10
5.0139
 20
3.6855
 30
0.0
 10
5.0139
 20
3.6855
 30
0.0
 10
5.0139
 20
3.6855
 30
0.0
 10
7.4145
 20
3.6855
 30
0.0
 10
7.4145
 20
3.6855
 30
0.0
 10
7.4145
 20
3.6855
 30
0.0
 10
7.4145
 20
3.6855
 30
0.0
 10
7.4225
 20
1.3003
 30
0.0
 10
7.4225
 20
1.3003
 30
0.0
 10
7.4225
 20
1.3003
 30
0.0
 10
7.4225
 20
1.3003
 30
0.0
 10
5.0215
 20
1.3003
 30
0.0
 10
5.0215
 20
1.3003
 30
0.0
 10
5.0215
 20
1.3003
 30
0.0
 10
5.0215
 20
1.3003
 30
0.0
 10
5.0139
 20
-1.1084
 30
0.0
 10
5.0139
 20
-1.1084
 30
0.0
 10
5.0139
 20
-1.1084
 30
0.0
 10
5.0139
 20
-1.1084
 30
0.0
 10
7.4145
 20
-1.1084
 30
0.0
 10
7.4145
 20
-1.1084
 30
0.0
 10
7.4145
 20
-1.1084
 30
0.0
 10
7.4145
 20
-1.1084
 30
0.0
 10
7.4225
 20
-3.5014
 30
0.0
 10
7.4225
 20
-3.5014
 30
0.0
 10
7.4225
 20
-3.5014
 30
0.0
 10
7.4225
 20
-3.5014
 30
0.0
 10
5.0215
 20
-3.5014
 30
0.0
 10
5.0215
 20
-3.5014
 30
0.0
 10
5.0215
 20
-3.5014
 30
0.0
 10
5.0215
 20
-3.5014
 30
0.0
 10
5.0139
 20
-5.9098
 30
0.0
 10
5.0139
 20
-5.9098
 30
0.0
 10
5.0139
 20
-5.9098
 30
0.0
 10
5.0139
 20
-5.9098
 30
0.0
 10
7.4145
 20
-5.9098
 30
0.0
 10
7.4145
 20
-5.9098
 30
0.0
 10
7.4145
 20
-5.9098
 30
0.0
 10
7.4145
 20
-5.9098
 30
0.0
 10
7.4225
 20
-8.3029
 30
0.0
 10
7.4225
 20
-8.3029
 30
0.0
 10
7.4225
 20
-8.3029
 30
0.0
 10
7.4225
 20
-8.3029
 30
0.0
 10
5.0215
 20
-8.3029
 30
0.0
 10
5.0215
 20
-8.3029
 30
0.0
 10
5.0215
 20
-8.3029
 30
0.0
 10
5.0215
 20
-8.3029
 30
0.0
 10
5.0139
 20
-10.7115
 30
0.0
 10
5.0139
 20
-10.7115
 30
0.0
 10
5.0139
 20
-10.7115
 30
0.0
 10
5.0139
 20
-10.7115
 30
0.0
 10
7.4145
 20
-10.7115
 30
0.0
 10
7.4145
 20
-10.7115
 30
0.0
 10
7.4145
 20
-10.7115
 30
0.0
 10
7.4145
 20
-10.7115
 30
0.0
 10
7.4225
 20
-13.0966
 30
0.0
 10
7.4225
 20
-13.0966
 30
0.0
 10
7.4225
 20
-13.0966
 30
0.0
 10
7.4225
 20
-13.0966
 30
0.0
 10
5.0215
 20
-13.0966
 30
0.0
 10
5.0215
 20
-13.0966
 30
0.0
 10
5.0215
 20
-13.0966
 30
0.0
 10
5.0215
 20
-13.0966
 30
0.0
 10
5.0139
 20
-15.5052
 30
0.0
 10
5.0139
 20
-15.5052
 30
0.0
 10
5.0139
 20
-15.5052
 30
0.0
 10
5.0139
 20
-15.5052
 30
0.0
 10
7.4145
 20
-15.5052
 30
0.0
 10
7.4145
 20
-15.5052
 30
0.0
 10
7.4145
 20
-15.5052
 30
0.0
 10
7.4145
 20
-15.5052
 30
0.0
 10
7.4225
 20
-17.898
 30
0.0
 10
7.4225
 20
-17.898
 30
0.0
 10
7.4225
 20
-17.898
 30
0.0
 10
7.4225
 20
-17.898
 30
0.0
 10
5.0215
 20
-17.898
 30
0.0
 10
5.0215
 20
-17.898
 30
0.0
 10
5.0215
 20
-17.898
 30
0.0
 10
5.0215
 20
-17.898
 30
0.0
 10
2.6209
 20
-17.898
 30
0.0
 10
2.6209
 20
-17.898
 30
0.0
 10
2.6209
 20
-17.898
 30
0.0
 10
2.6209
 20
-17.898
 30
0.0
 10
2.6131
 20
-15.5052
 30
0.0
 10
2.6131
 20
-15.5052
 30
0.0
 10
2.6131
 20
-15.5052
 30
0.0
 10
2.6131
 20
-15.5052
 30
0.0
 10
2.6131
 20
-13.1043
 30
0.0
 10
2.6131
 20
-13.1043
 30
0.0
 10
2.6131
 20
-13.1043
 30
0.0
 10
2.6131
 20
-13.1043
 30
0.0
 10
2.6209
 20
-13.0966
 30
0.0
 10
2.6209
 20
-13.0966
 30
0.0
 10
2.6209
 20
-13.0966
 30
0.0
 10
2.6209
 20
-13.0966
 30
0.0
 10
2.6131
 20
-10.7115
 30
0.0
 10
2.6131
 20
-10.7115
 30
0.0
 10
2.6131
 20
-10.7115
 30
0.0
 10
2.6131
 20
-10.7115
 30
0.0
 10
2.6131
 20
-8.3105
 30
0.0
 10
2.6131
 20
-8.3105
 30
0.0
 10
2.6131
 20
-8.3105
 30
0.0
 10
2.6131
 20
-8.3105
 30
0.0
 10
2.6209
 20
-8.3029
 30
0.0
 10
2.6209
 20
-8.3029
 30
0.0
 10
2.6209
 20
-8.3029
 30
0.0
 10
2.6209
 20
-8.3029
 30
0.0
 10
2.6131
 20
-5.9098
 30
0.0
 10
2.6131
 20
-5.9098
 30
0.0
 10
2.6131
 20
-5.9098
 30
0.0
 10
2.6131
 20
-5.9098
 30
0.0
 10
2.6131
 20
-3.5091
 30
0.0
 10
2.6131
 20
-3.5091
 30
0.0
 10
2.6131
 20
-3.5091
 30
0.0
 10
2.6131
 20
-3.5091
 30
0.0
 10
2.6209
 20
-3.5014
 30
0.0
 10
2.6209
 20
-3.5014
 30
0.0
 10
2.6209
 20
-3.5014
 30
0.0
 10
2.6209
 20
-3.5014
 30
0.0
 10
2.6131
 20
-1.1084
 30
0.0
 10
2.6131
 20
-1.1084
 30
0.0
 10
2.6131
 20
-1.1084
 30
0.0
 10
2.6131
 20
-1.1084
 30
0.0
 10
2.6131
 20
1.2925
 30
0.0
 10
2.6131
 20
1.2925
 30
0.0
 10
2.6131
 20
1.2925
 30
0.0
 10
2.6131
 20
1.2925
 30
0.0
 10
2.6209
 20
1.3003
 30
0.0
 10
2.6209
 20
1.3003
 30
0.0
 10
2.6209
 20
1.3003
 30
0.0
 10
2.6209
 20
1.3003
 30
0.0
 10
2.6131
 20
3.6855
 30
0.0
 10
2.6131
 20
3.6855
 30
0.0
 10
2.6131
 20
3.6855
 30
0.0
 10
2.6131
 20
3.6855
 30
0.0
 10
2.6131
 20
6.0861
 30
0.0
 10
2.6131
 20
6.0861
 30
0.0
 10
2.6131
 20
6.0861
 30
0.0
 10
2.6131
 20
6.0861
 30
0.0
 10
2.6209
 20
6.0938
 30
0.0
 10
2.6209
 20
6.0938
 30
0.0
 10
2.6209
 20
6.0938
 30
0.0
 10
2.6209
 20
6.0938
 30
0.0
 10
2.6131
 20
8.4869
 30
0.0
 10
2.6131
 20
8.4869
 30
0.0
 10
2.6131
 20
8.4869
 30
0.0
 10
2.6131
 20
8.4869
 30
0.0
 10
2.6131
 20
10.8876
 30
0.0
 10
2.6131
 20
10.8876
 30
0.0
 10
2.6131
 20
10.8876
 30
0.0
 10
2.6131
 20
10.8876
 30
0.0
 10
2.6209
 20
10.8954
 30
0.0
 10
2.6209
 20
10.8954
 30
0.0
 10
2.6209
 20
10.8954
 30
0.0
 10
2.6209
 20
10.8954
 30
0.0
 10
0.2201
 20
10.8954
 30
0.0
 10
0.2201
 20
10.8954
 30
0.0
 10
0.2201
 20
10.8954
 30
0.0
 10
0.2201
 20
10.8954
 30
0.0
 10
0.2122
 20
8.4869
 30
0.0
 10
0.2122
 20
8.4869
 30
0.0
 10
0.2122
 20
8.4869
 30
0.0
 10
0.2122
 20
8.4869
 30
0.0
 10
-2.1806
 20
8.4869
 30
0.0
 10
-2.1806
 20
8.4869
 30
0.0
 10
-2.1806
 20
8.4869
 30
0.0
 10
-2.1806
 20
8.4869
 30
0.0
 10
-2.1806
 20
10.8876
 30
0.0
 10
-2.1806
 20
10.8876
 30
0.0
 10
-2.1806
 20
10.8876
 30
0.0
 10
-2.1806
 20
10.8876
 30
0.0
 10
-2.173
 20
10.8954
 30
0.0
 10
-2.173
 20
10.8954
 30
0.0
 10
-2.173
 20
10.8954
 30
0.0
 10
-2.173
 20
10.8954
 30
0.0
 10
-4.5736
 20
10.8954
 30
0.0
 10
-4.5736
 20
10.8954
 30
0.0
 10
-4.5736
 20
10.8954
 30
0.0
 10
-4.5736
 20
10.8954
 30
0.0
 10
-4.5814
 20
8.4869
 30
0.0
 10
-4.5814
 20
8.4869
 30
0.0
 10
-4.5814
 20
8.4869
 30
0.0
 10
-4.5814
 20
8.4869
 30
0.0
 10
-2.1806
 20
8.4869
 30
0.0
 10
-2.1806
 20
8.4869
 30
0.0
 10
-2.1806
 20
8.4869
 30
0.0
 10
-2.1806
 20
8.4869
 30
0.0
 10
0.2122
 20
8.4869
 30
0.0
 10
0.2122
 20
8.4869
 30
0.0
 10
0.2122
 20
8.4869
 30
0.0
 10
0.2122
 20
8.4869
 30
0.0
 10
2.6131
 20
8.4869
 30
0.0
 10
2.6131
 20
8.4869
 30
0.0
 10
2.6131
 20
8.4869
 30
0.0
 10
2.6131
 20
8.4869
 30
0.0
 10
2.6209
 20
6.0938
 30
0.0
 10
2.6209
 20
6.0938
 30
0.0
 10
2.6209
 20
6.0938
 30
0.0
 10
2.6209
 20
6.0938
 30
0.0
 10
0.2201
 20
6.0938
 30
0.0
 10
0.2201
 20
6.0938
 30
0.0
 10
0.2201
 20
6.0938
 30
0.0
 10
0.2201
 20
6.0938
 30
0.0
 10
0.2122
 20
3.6855
 30
0.0
 10
0.2122
 20
3.6855
 30
0.0
 10
0.2122
 20
3.6855
 30
0.0
 10
0.2122
 20
3.6855
 30
0.0
 10
2.6131
 20
3.6855
 30
0.0
 10
2.6131
 20
3.6855
 30
0.0
 10
2.6131
 20
3.6855
 30
0.0
 10
2.6131
 20
3.6855
 30
0.0
 10
2.6209
 20
1.3003
 30
0.0
 10
2.6209
 20
1.3003
 30
0.0
 10
2.6209
 20
1.3003
 30
0.0
 10
2.6209
 20
1.3003
 30
0.0
 10
0.2201
 20
1.3003
 30
0.0
 10
0.2201
 20
1.3003
 30
0.0
 10
0.2201
 20
1.3003
 30
0.0
 10
0.2201
 20
1.3003
 30
0.0
 10
0.2122
 20
-1.1084
 30
0.0
 10
0.2122
 20
-1.1084
 30
0.0
 10
0.2122
 20
-1.1084
 30
0.0
 10
0.2122
 20
-1.1084
 30
0.0
 10
-2.1806
 20
-1.1084
 30
0.0
 10
-2.1806
 20
-1.1084
 30
0.0
 10
-2.1806
 20
-1.1084
 30
0.0
 10
-2.1806
 20
-1.1084
 30
0.0
 10
-2.1806
 20
1.2925
 30
0.0
 10
-2.1806
 20
1.2925
 30
0.0
 10
-2.1806
 20
1.2925
 30
0.0
 10
-2.1806
 20
1.2925
 30
0.0
 10
-2.173
 20
1.3003
 30
0.0
 10
-2.173
 20
1.3003
 30
0.0
 10
-2.173
 20
1.3003
 30
0.0
 10
-2.173
 20
1.3003
 30
0.0
 10
-2.1806
 20
3.6855
 30
0.0
 10
-2.1806
 20
3.6855
 30
0.0
 10
-2.1806
 20
3.6855
 30
0.0
 10
-2.1806
 20
3.6855
 30
0.0
 10
-2.1806
 20
6.0861
 30
0.0
 10
-2.1806
 20
6.0861
 30
0.0
 10
-2.1806
 20
6.0861
 30
0.0
 10
-2.1806
 20
6.0861
 30
0.0
 10
-2.173
 20
6.0938
 30
0.0
 10
-2.173
 20
6.0938
 30
0.0
 10
-2.173
 20
6.0938
 30
0.0
 10
-2.173
 20
6.0938
 30
0.0
 10
-4.5736
 20
6.0938
 30
0.0
 10
-4.5736
 20
6.0938
 30
0.0
 10
-4.5736
 20
6.0938
 30
0.0
 10
-4.5736
 20
6.0938
 30
0.0
 10
-4.5814
 20
3.6855
 30
0.0
 10
-4.5814
 20
3.6855
 30
0.0
 10
-4.5814
 20
3.6855
 30
0.0
 10
-4.5814
 20
3.6855
 30
0.0
 10
-2.1806
 20
3.6855
 30
0.0
 10
-2.1806
 20
3.6855
 30
0.0
 10
-2.1806
 20
3.6855
 30
0.0
 10
-2.1806
 20
3.6855
 30
0.0
 10
-2.173
 20
1.3003
 30
0.0
 10
-2.173
 20
1.3003
 30
0.0
 10
-2.173
 20
1.3003
 30
0.0
 10
-2.173
 20
1.3003
 30
0.0
 10
-4.5736
 20
1.3003
 30
0.0
 10
-4.5736
 20
1.3003
 30
0.0
 10
-4.5736
 20
1.3003
 30
0.0
 10
-4.5736
 20
1.3003
 30
0.0
 10
-4.5814
 20
-1.1084
 30
0.0
 10
-4.5814
 20
-1.1084
 30
0.0
 10
-4.5814
 20
-1.1084
 30
0.0
 10
-4.5814
 20
-1.1084
 30
0.0
 10
-2.1806
 20
-1.1084
 30
0.0
 10
-2.1806
 20
-1.1084
 30
0.0
 10
-2.1806
 20
-1.1084
 30
0.0
 10
-2.1806
 20
-1.1084
 30
0.0
 10
0.2122
 20
-1.1084
 30
0.0
 10
0.2122
 20
-1.1084
 30
0.0
 10
0.2122
 20
-1.1084
 30
0.0
 10
0.2122
 20
-1.1084
 30
0.0
 10
2.6131
 20
-1.1084
 30
0.0
 10
2.6131
 20
-1.1084
 30
0.0
 10
2.6131
 20
-1.1084
 30
0.0
 10
2.6131
 20
-1.1084
 30
0.0
 10
2.6209
 20
-3.5014
 30
0.0
 10
2.6209
 20
-3.5014
 30
0.0
 10
2.6209
 20
-3.5014
 30
0.0
 10
2.6209
 20
-3.5014
 30
0.0
 10
0.2201
 20
-3.5014
 30
0.0
 10
0.2201
 20
-3.5014
 30
0.0
 10
0.2201
 20
-3.5014
 30
0.0
 10
0.2201
 20
-3.5014
 30
0.0
 10
0.2122
 20
-5.9098
 30
0.0
 10
0.2122
 20
-5.9098
 30
0.0
 10
0.2122
 20
-5.9098
 30
0.0
 10
0.2122
 20
-5.9098
 30
0.0
 10
-2.1806
 20
-5.9098
 30
0.0
 10
-2.1806
 20
-5.9098
 30
0.0
 10
-2.1806
 20
-5.9098
 30
0.0
 10
-2.1806
 20
-5.9098
 30
0.0
 10
-2.1806
 20
-3.5091
 30
0.0
 10
-2.1806
 20
-3.5091
 30
0.0
 10
-2.1806
 20
-3.5091
 30
0.0
 10
-2.1806
 20
-3.5091
 30
0.0
 10
-2.173
 20
-3.5014
 30
0.0
 10
-2.173
 20
-3.5014
 30
0.0
 10
-2.173
 20
-3.5014
 30
0.0
 10
-2.173
 20
-3.5014
 30
0.0
 10
-4.5736
 20
-3.5014
 30
0.0
 10
-4.5736
 20
-3.5014
 30
0.0
 10
-4.5736
 20
-3.5014
 30
0.0
 10
-4.5736
 20
-3.5014
 30
0.0
 10
-4.5814
 20
-5.9098
 30
0.0
 10
-4.5814
 20
-5.9098
 30
0.0
 10
-4.5814
 20
-5.9098
 30
0.0
 10
-4.5814
 20
-5.9098
 30
0.0
 10
-2.1806
 20
-5.9098
 30
0.0
 10
-2.1806
 20
-5.9098
 30
0.0
 10
-2.1806
 20
-5.9098
 30
0.0
 10
-2.1806
 20
-5.9098
 30
0.0
 10
0.2122
 20
-5.9098
 30
0.0
 10
0.2122
 20
-5.9098
 30
0.0
 10
0.2122
 20
-5.9098
 30
0.0
 10
0.2122
 20
-5.9098
 30
0.0
 10
2.6131
 20
-5.9098
 30
0.0
 10
2.6131
 20
-5.9098
 30
0.0
 10
2.6131
 20
-5.9098
 30
0.0
 10
2.6131
 20
-5.9098
 30
0.0
 10
2.6209
 20
-8.3029
 30
0.0
 10
2.6209
 20
-8.3029
 30
0.0
 10
2.6209
 20
-8.3029
 30
0.0
 10
2.6209
 20
-8.3029
 30
0.0
 10
0.2201
 20
-8.3029
 30
0.0
 10
0.2201
 20
-8.3029
 30
0.0
 10
0.2201
 20
-8.3029
 30
0.0
 10
0.2201
 20
-8.3029
 30
0.0
 10
0.2122
 20
-10.7115
 30
0.0
 10
0.2122
 20
-10.7115
 30
0.0
 10
0.2122
 20
-10.7115
 30
0.0
 10
0.2122
 20
-10.7115
 30
0.0
 10
2.6131
 20
-10.7115
 30
0.0
 10
2.6131
 20
-10.7115
 30
0.0
 10
2.6131
 20
-10.7115
 30
0.0
 10
2.6131
 20
-10.7115
 30
0.0
 10
2.6209
 20
-13.0966
 30
0.0
 10
2.6209
 20
-13.0966
 30
0.0
 10
2.6209
 20
-13.0966
 30
0.0
 10
2.6209
 20
-13.0966
 30
0.0
 10
0.2201
 20
-13.0966
 30
0.0
 10
0.2201
 20
-13.0966
 30
0.0
 10
0.2201
 20
-13.0966
 30
0.0
 10
0.2201
 20
-13.0966
 30
0.0
 10
0.2122
 20
-15.5052
 30
0.0
 10
0.2122
 20
-15.5052
 30
0.0
 10
0.2122
 20
-15.5052
 30
0.0
 10
0.2122
 20
-15.5052
 30
0.0
 10
-2.1806
 20
-15.5052
 30
0.0
 10
-2.1806
 20
-15.5052
 30
0.0
 10
-2.1806
 20
-15.5052
 30
0.0
 10
-2.1806
 20
-15.5052
 30
0.0
 10
-2.1806
 20
-13.1043
 30
0.0
 10
-2.1806
 20
-13.1043
 30
0.0
 10
-2.1806
 20
-13.1043
 30
0.0
 10
-2.1806
 20
-13.1043
 30
0.0
 10
-2.173
 20
-13.0966
 30
0.0
 10
-2.173
 20
-13.0966
 30
0.0
 10
-2.173
 20
-13.0966
 30
0.0
 10
-2.173
 20
-13.0966
 30
0.0
 10
-2.1806
 20
-10.7115
 30
0.0
 10
-2.1806
 20
-10.7115
 30
0.0
 10
-2.1806
 20
-10.7115
 30
0.0
 10
-2.1806
 20
-10.7115
 30
0.0
 10
-2.1806
 20
-8.3105
 30
0.0
 10
-2.1806
 20
-8.3105
 30
0.0
 10
-2.1806
 20
-8.3105
 30
0.0
 10
-2.1806
 20
-8.3105
 30
0.0
 10
-2.173
 20
-8.3029
 30
0.0
 10
-2.173
 20
-8.3029
 30
0.0
 10
-2.173
 20
-8.3029
 30
0.0
 10
-2.173
 20
-8.3029
 30
0.0
 10
-4.5736
 20
-8.3029
 30
0.0
 10
-4.5736
 20
-8.3029
 30
0.0
 10
-4.5736
 20
-8.3029
 30
0.0
 10
-4.5736
 20
-8.3029
 30
0.0
 10
-4.5814
 20
-10.7115
 30
0.0
 10
-4.5814
 20
-10.7115
 30
0.0
 10
-4.5814
 20
-10.7115
 30
0.0
 10
-4.5814
 20
-10.7115
 30
0.0
 10
-2.1806
 20
-10.7115
 30
0.0
 10
-2.1806
 20
-10.7115
 30
0.0
 10
-2.1806
 20
-10.7115
 30
0.0
 10
-2.1806
 20
-10.7115
 30
0.0
 10
-2.173
 20
-13.0966
 30
0.0
 10
-2.173
 20
-13.0966
 30
0.0
 10
-2.173
 20
-13.0966
 30
0.0
 10
-2.173
 20
-13.0966
 30
0.0
 10
-4.5736
 20
-13.0966
 30
0.0
 10
-4.5736
 20
-13.0966
 30
0.0
 10
-4.5736
 20
-13.0966
 30
0.0
 10
-4.5736
 20
-13.0966
 30
0.0
 10
-4.5814
 20
-15.5052
 30
0.0
 10
-4.5814
 20
-15.5052
 30
0.0
 10
-4.5814
 20
-15.5052
 30
0.0
 10
-4.5814
 20
-15.5052
 30
0.0
 10
-2.1806
 20
-15.5052
 30
0.0
 10
-2.1806
 20
-15.5052
 30
0.0
 10
-2.1806
 20
-15.5052
 30
0.0
 10
-2.1806
 20
-15.5052
 30
0.0
 10
0.2122
 20
-15.5052
 30
0.0
 10
0.2122
 20
-15.5052
 30
0.0
 10
0.2122
 20
-15.5052
 30
0.0
 10
0.2122
 20
-15.5052
 30
0.0
 10
2.6131
 20
-15.5052
 30
0.0
 10
2.6131
 20
-15.5052
 30
0.0
 10
2.6131
 20
-15.5052
 30
0.0
 10
2.6131
 20
-15.5052
 30
0.0
 10
2.6209
 20
-17.898
 30
0.0
 10
2.6209
 20
-17.898
 30
0.0
 10
2.6209
 20
-17.898
 30
0.0
 10
2.6209
 20
-17.898
 30
0.0
 10
0.2201
 20
-17.898
 30
0.0
 10
0.2201
 20
-17.898
 30
0.0
 10
0.2201
 20
-17.898
 30
0.0
 10
0.2201
 20
-17.898
 30
0.0
 10
0.2122
 20
-20.3066
 30
0.0
 10
0.2122
 20
-20.3066
 30
0.0
 10
0.2122
 20
-20.3066
 30
0.0
 10
0.2122
 20
-20.3066
 30
0.0
 10
-2.1806
 20
-20.3066
 30
0.0
 10
-2.1806
 20
-20.3066
 30
0.0
 10
-2.1806
 20
-20.3066
 30
0.0
 10
-2.1806
 20
-20.3066
 30
0.0
 10
-2.1806
 20
-17.906
 30
0.0
 10
-2.1806
 20
-17.906
 30
0.0
 10
-2.1806
 20
-17.906
 30
0.0
 10
-2.1806
 20
-17.906
 30
0.0
 10
-2.173
 20
-17.898
 30
0.0
 10
-2.173
 20
-17.898
 30
0.0
 10
-2.173
 20
-17.898
 30
0.0
 10
-2.173
 20
-17.898
 30
0.0
 10
-4.5736
 20
-17.898
 30
0.0
 10
-4.5736
 20
-17.898
 30
0.0
 10
-4.5736
 20
-17.898
 30
0.0
 10
-4.5736
 20
-17.898
 30
0.0
 10
-6.9744
 20
-17.898
 30
0.0
 10
-6.9744
 20
-17.898
 30
0.0
 10
-6.9744
 20
-17.898
 30
0.0
 10
-6.9744
 20
-17.898
 30
0.0
 10
-6.9822
 20
-15.5052
 30
0.0
 10
-6.9822
 20
-15.5052
 30
0.0
 10
-6.9822
 20
-15.5052
 30
0.0
 10
-6.9822
 20
-15.5052
 30
0.0
 10
-6.9822
 20
-13.1043
 30
0.0
 10
-6.9822
 20
-13.1043
 30
0.0
 10
-6.9822
 20
-13.1043
 30
0.0
 10
-6.9822
 20
-13.1043
 30
0.0
 10
-6.9744
 20
-13.0966
 30
0.0
 10
-6.9744
 20
-13.0966
 30
0.0
 10
-6.9744
 20
-13.0966
 30
0.0
 10
-6.9744
 20
-13.0966
 30
0.0
 10
-6.9822
 20
-10.7115
 30
0.0
 10
-6.9822
 20
-10.7115
 30
0.0
 10
-6.9822
 20
-10.7115
 30
0.0
 10
-6.9822
 20
-10.7115
 30
0.0
 10
-6.9822
 20
-8.3105
 30
0.0
 10
-6.9822
 20
-8.3105
 30
0.0
 10
-6.9822
 20
-8.3105
 30
0.0
 10
-6.9822
 20
-8.3105
 30
0.0
 10
-6.9744
 20
-8.3029
 30
0.0
 10
-6.9744
 20
-8.3029
 30
0.0
 10
-6.9744
 20
-8.3029
 30
0.0
 10
-6.9744
 20
-8.3029
 30
0.0
 10
-6.9822
 20
-5.9098
 30
0.0
 10
-6.9822
 20
-5.9098
 30
0.0
 10
-6.9822
 20
-5.9098
 30
0.0
 10
-6.9822
 20
-5.9098
 30
0.0
 10
-6.9822
 20
-3.5091
 30
0.0
 10
-6.9822
 20
-3.5091
 30
0.0
 10
-6.9822
 20
-3.5091
 30
0.0
 10
-6.9822
 20
-3.5091
 30
0.0
 10
-6.9744
 20
-3.5014
 30
0.0
 10
-6.9744
 20
-3.5014
 30
0.0
 10
-6.9744
 20
-3.5014
 30
0.0
 10
-6.9744
 20
-3.5014
 30
0.0
 10
-6.9822
 20
-1.1084
 30
0.0
 10
-6.9822
 20
-1.1084
 30
0.0
 10
-6.9822
 20
-1.1084
 30
0.0
 10
-6.9822
 20
-1.1084
 30
0.0
 10
-6.9822
 20
1.2925
 30
0.0
 10
-6.9822
 20
1.2925
 30
0.0
 10
-6.9822
 20
1.2925
 30
0.0
 10
-6.9822
 20
1.2925
 30
0.0
 10
-6.9744
 20
1.3003
 30
0.0
 10
-6.9744
 20
1.3003
 30
0.0
 10
-6.9744
 20
1.3003
 30
0.0
 10
-6.9744
 20
1.3003
 30
0.0
 10
-6.9822
 20
3.6855
 30
0.0
 10
-6.9822
 20
3.6855
 30
0.0
 10
-6.9822
 20
3.6855
 30
0.0
 10
-6.9822
 20
3.6855
 30
0.0
 10
-6.9822
 20
6.0861
 30
0.0
 10
-6.9822
 20
6.0861
 30
0.0
 10
-6.9822
 20
6.0861
 30
0.0
 10
-6.9822
 20
6.0861
 30
0.0
 10
-6.9744
 20
6.0938
 30
0.0
 10
-6.9744
 20
6.0938
 30
0.0
 10
-6.9744
 20
6.0938
 30
0.0
 10
-6.9744
 20
6.0938
 30
0.0
 10
-6.9822
 20
8.4869
 30
0.0
 10
-6.9822
 20
8.4869
 30
0.0
 10
-6.9822
 20
8.4869
 30
0.0
 10
-6.9822
 20
8.4869
 30
0.0
 10
-6.9822
 20
10.8876
 30
0.0
 10
-6.9822
 20
10.8876
 30
0.0
 10
-6.9822
 20
10.8876
 30
0.0
 10
-6.9822
 20
10.8876
 30
0.0
 10
-6.9744
 20
10.8954
 30
0.0
 10
-6.9744
 20
10.8954
 30
0.0
 10
-6.9744
 20
10.8954
 30
0.0
 10
-6.9744
 20
10.8954
 30
0.0
 10
-9.3753
 20
10.8954
 30
0.0
 10
-9.3753
 20
10.8954
 30
0.0
 10
-9.3753
 20
10.8954
 30
0.0
 10
-9.3753
 20
10.8954
 30
0.0
 10
-9.3829
 20
8.4869
 30
0.0
 10
-9.3829
 20
8.4869
 30
0.0
 10
-9.3829
 20
8.4869
 30
0.0
 10
-9.3829
 20
8.4869
 30
0.0
 10
-6.9822
 20
8.4869
 30
0.0
 10
-6.9822
 20
8.4869
 30
0.0
 10
-6.9822
 20
8.4869
 30
0.0
 10
-6.9822
 20
8.4869
 30
0.0
 10
-6.9744
 20
6.0938
 30
0.0
 10
-6.9744
 20
6.0938
 30
0.0
 10
-6.9744
 20
6.0938
 30
0.0
 10
-6.9744
 20
6.0938
 30
0.0
 10
-9.3753
 20
6.0938
 30
0.0
 10
-9.3753
 20
6.0938
 30
0.0
 10
-9.3753
 20
6.0938
 30
0.0
 10
-9.3753
 20
6.0938
 30
0.0
 10
-9.3829
 20
3.6855
 30
0.0
 10
-9.3829
 20
3.6855
 30
0.0
 10
-9.3829
 20
3.6855
 30
0.0
 10
-9.3829
 20
3.6855
 30
0.0
 10
-6.9822
 20
3.6855
 30
0.0
 10
-6.9822
 20
3.6855
 30
0.0
 10
-6.9822
 20
3.6855
 30
0.0
 10
-6.9822
 20
3.6855
 30
0.0
 10
-6.9744
 20
1.3003
 30
0.0
 10
-6.9744
 20
1.3003
 30
0.0
 10
-6.9744
 20
1.3003
 30
0.0
 10
-6.9744
 20
1.3003
 30
0.0
 10
-9.3753
 20
1.3003
 30
0.0
 10
-9.3753
 20
1.3003
 30
0.0
 10
-9.3753
 20
1.3003
 30
0.0
 10
-9.3753
 20
1.3003
 30
0.0
 10
-9.3829
 20
-1.1084
 30
0.0
 10
-9.3829
 20
-1.1084
 30
0.0
 10
-9.3829
 20
-1.1084
 30
0.0
 10
-9.3829
 20
-1.1084
 30
0.0
 10
-6.9822
 20
-1.1084
 30
0.0
 10
-6.9822
 20
-1.1084
 30
0.0
 10
-6.9822
 20
-1.1084
 30
0.0
 10
-6.9822
 20
-1.1084
 30
0.0
 10
-6.9744
 20
-3.5014
 30
0.0
 10
-6.9744
 20
-3.5014
 30
0.0
 10
-6.9744
 20
-3.5014
 30
0.0
 10
-6.9744
 20
-3.5014
 30
0.0
 10
-9.3753
 20
-3.5014
 30
0.0
 10
-9.3753
 20
-3.5014
 30
0.0
 10
-9.3753
 20
-3.5014
 30
0.0
 10
-9.3753
 20
-3.5014
 30
0.0
 10
-9.3829
 20
-5.9098
 30
0.0
 10
-9.3829
 20
-5.9098
 30
0.0
 10
-9.3829
 20
-5.9098
 30
0.0
 10
-9.3829
 20
-5.9098
 30
0.0
 10
-6.9822
 20
-5.9098
 30
0.0
 10
-6.9822
 20
-5.9098
 30
0.0
 10
-6.9822
 20
-5.9098
 30
0.0
 10
-6.9822
 20
-5.9098
 30
0.0
 10
-6.9744
 20
-8.3029
 30
0.0
 10
-6.9744
 20
-8.3029
 30
0.0
 10
-6.9744
 20
-8.3029
 30
0.0
 10
-6.9744
 20
-8.3029
 30
0.0
 10
-9.3753
 20
-8.3029
 30
0.0
 10
-9.3753
 20
-8.3029
 30
0.0
 10
-9.3753
 20
-8.3029
 30
0.0
 10
-9.3753
 20
-8.3029
 30
0.0
 10
-9.3829
 20
-10.7115
 30
0.0
 10
-9.3829
 20
-10.7115
 30
0.0
 10
-9.3829
 20
-10.7115
 30
0.0
 10
-9.3829
 20
-10.7115
 30
0.0
 10
-6.9822
 20
-10.7115
 30
0.0
 10
-6.9822
 20
-10.7115
 30
0.0
 10
-6.9822
 20
-10.7115
 30
0.0
 10
-6.9822
 20
-10.7115
 30
0.0
 10
-6.9744
 20
-13.0966
 30
0.0
 10
-6.9744
 20
-13.0966
 30
0.0
 10
-6.9744
 20
-13.0966
 30
0.0
 10
-6.9744
 20
-13.0966
 30
0.0
 10
-9.3753
 20
-13.0966
 30
0.0
 10
-9.3753
 20
-13.0966
 30
0.0
 10
-9.3753
 20
-13.0966
 30
0.0
 10
-9.3753
 20
-13.0966
 30
0.0
 10
-9.3829
 20
-15.5052
 30
0.0
 10
-9.3829
 20
-15.5052
 30
0.0
 10
-9.3829
 20
-15.5052
 30
0.0
 10
-9.3829
 20
-15.5052
 30
0.0
 10
-6.9822
 20
-15.5052
 30
0.0
 10
-6.9822
 20
-15.5052
 30
0.0
 10
-6.9822
 20
-15.5052
 30
0.0
 10
-6.9822
 20
-15.5052
 30
0.0
 10
-6.9744
 20
-17.898
 30
0.0
 10
-6.9744
 20
-17.898
 30
0.0
 10
-6.9744
 20
-17.898
 30
0.0
 10
-6.9744
 20
-17.898
 30
0.0
 10
-9.3753
 20
-17.898
 30
0.0
 10
-9.3753
 20
-17.898
 30
0.0
 10
-9.3753
 20
-17.898
 30
0.0
 10
-9.3753
 20
-17.898
 30
0.0
 10
-11.7759
 20
-17.898
 30
0.0
 10
-11.7759
 20
-17.898
 30
0.0
 10
-11.7759
 20
-17.898
 30
0.0
 10
-11.7759
 20
-17.898
 30
0.0
 10
-11.7838
 20
-15.5052
 30
0.0
 10
-11.7838
 20
-15.5052
 30
0.0
 10
-11.7838
 20
-15.5052
 30
0.0
 10
-11.7838
 20
-15.5052
 30
0.0
 10
-11.7838
 20
-13.1043
 30
0.0
 10
-11.7838
 20
-13.1043
 30
0.0
 10
-11.7838
 20
-13.1043
 30
0.0
 10
-11.7838
 20
-13.1043
 30
0.0
 10
-11.7759
 20
-13.0966
 30
0.0
 10
-11.7759
 20
-13.0966
 30
0.0
 10
-11.7759
 20
-13.0966
 30
0.0
 10
-11.7759
 20
-13.0966
 30
0.0
 10
-11.7838
 20
-10.7115
 30
0.0
 10
-11.7838
 20
-10.7115
 30
0.0
 10
-11.7838
 20
-10.7115
 30
0.0
 10
-11.7838
 20
-10.7115
 30
0.0
 10
-11.7838
 20
-8.3105
 30
0.0
 10
-11.7838
 20
-8.3105
 30
0.0
 10
-11.7838
 20
-8.3105
 30
0.0
 10
-11.7838
 20
-8.3105
 30
0.0
 10
-11.7759
 20
-8.3029
 30
0.0
 10
-11.7759
 20
-8.3029
 30
0.0
 10
-11.7759
 20
-8.3029
 30
0.0
 10
-11.7759
 20
-8.3029
 30
0.0
 10
-11.7838
 20
-5.9098
 30
0.0
 10
-11.7838
 20
-5.9098
 30
0.0
 10
-11.7838
 20
-5.9098
 30
0.0
 10
-11.7838
 20
-5.9098
 30
0.0
 10
-11.7838
 20
-3.5091
 30
0.0
 10
-11.7838
 20
-3.5091
 30
0.0
 10
-11.7838
 20
-3.5091
 30
0.0
 10
-11.7838
 20
-3.5091
 30
0.0
 10
-11.7759
 20
-3.5014
 30
0.0
 10
-11.7759
 20
-3.5014
 30
0.0
 10
-11.7759
 20
-3.5014
 30
0.0
 10
-11.7759
 20
-3.5014
 30
0.0
 10
-11.7838
 20
-1.1084
 30
0.0
 10
-11.7838
 20
-1.1084
 30
0.0
 10
-11.7838
 20
-1.1084
 30
0.0
 10
-11.7838
 20
-1.1084
 30
0.0
 10
-11.7838
 20
1.2925
 30
0.0
 10
-11.7838
 20
1.2925
 30
0.0
 10
-11.7838
 20
1.2925
 30
0.0
 10
-11.7838
 20
1.2925
 30
0.0
 10
-11.7759
 20
1.3003
 30
0.0
 10
-11.7759
 20
1.3003
 30
0.0
 10
-11.7759
 20
1.3003
 30
0.0
 10
-11.7759
 20
1.3003
 30
0.0
 10
-11.7838
 20
3.6855
 30
0.0
 10
-11.7838
 20
3.6855
 30
0.0
 10
-11.7838
 20
3.6855
 30
0.0
 10
-11.7838
 20
3.6855
 30
0.0
 10
-11.7838
 20
6.0861
 30
0.0
 10
-11.7838
 20
6.0861
 30
0.0
 10
-11.7838
 20
6.0861
 30
0.0
 10
-11.7838
 20
6.0861
 30
0.0
 10
-11.7759
 20
6.0938
 30
0.0
 10
-11.7759
 20
6.0938
 30
0.0
 10
-11.7759
 20
6.0938
 30
0.0
 10
-11.7759
 20
6.0938
 30
0.0
 10
-11.7838
 20
8.4869
 30
0.0
 10
-11.7838
 20
8.4869
 30
0.0
 10
-11.7838
 20
8.4869
 30
0.0
 10
-11.7838
 20
8.4869
 30
0.0
 10
-11.7838
 20
10.8876
 30
0.0
 10
-11.7838
 20
10.8876
 30
0.0
 10
-11.7838
 20
10.8876
 30
0.0
 10
-11.7838
 20
10.8876
 30
0.0
 10
-11.7759
 20
10.8954
 30
0.0
 10
-11.7759
 20
10.8954
 30
0.0
 10
-11.7759
 20
10.8954
 30
0.0
 10
-11.7759
 20
10.8954
 30
0.0
 10
-14.1767
 20
10.8954
 30
0.0
 10
-14.1767
 20
10.8954
 30
0.0
 10
-14.1767
 20
10.8954
 30
0.0
 10
-14.1767
 20
10.8954
 30
0.0
 10
-16.5696
 20
10.8954
 30
0.0
 10
-16.5696
 20
10.8954
 30
0.0
 10
-16.5696
 20
10.8954
 30
0.0
 10
-16.5696
 20
10.8954
 30
0.0
 10
-18.9704
 20
10.8954
 30
0.0
 10
-18.9704
 20
10.8954
 30
0.0
 10
-18.9704
 20
10.8954
 30
0.0
 10
-18.9704
 20
10.8954
 30
0.0
 10
-18.9783
 20
8.4869
 30
0.0
 10
-18.9783
 20
8.4869
 30
0.0
 10
-18.9783
 20
8.4869
 30
0.0
 10
-18.9783
 20
8.4869
 30
0.0
 10
-16.5773
 20
8.4869
 30
0.0
 10
-16.5773
 20
8.4869
 30
0.0
 10
-16.5773
 20
8.4869
 30
0.0
 10
-16.5773
 20
8.4869
 30
0.0
 10
-16.5773
 20
10.8876
 30
0.0
 10
-16.5773
 20
10.8876
 30
0.0
 10
-16.5773
 20
10.8876
 30
0.0
 10
-16.5773
 20
10.8876
 30
0.0
 10
-16.5696
 20
10.8954
 30
0.0
 10
-16.5696
 20
10.8954
 30
0.0
 10
-16.5696
 20
10.8954
 30
0.0
 10
-16.5696
 20
10.8954
 30
0.0
 10
-14.1767
 20
10.8954
 30
0.0
 10
-14.1767
 20
10.8954
 30
0.0
 10
-14.1767
 20
10.8954
 30
0.0
 10
-14.1767
 20
10.8954
 30
0.0
 10
-14.1844
 20
8.4869
 30
0.0
 10
-14.1844
 20
8.4869
 30
0.0
 10
-14.1844
 20
8.4869
 30
0.0
 10
-14.1844
 20
8.4869
 30
0.0
 10
-11.7838
 20
8.4869
 30
0.0
 10
-11.7838
 20
8.4869
 30
0.0
 10
-11.7838
 20
8.4869
 30
0.0
 10
-11.7838
 20
8.4869
 30
0.0
 10
-11.7759
 20
6.0938
 30
0.0
 10
-11.7759
 20
6.0938
 30
0.0
 10
-11.7759
 20
6.0938
 30
0.0
 10
-11.7759
 20
6.0938
 30
0.0
 10
-14.1767
 20
6.0938
 30
0.0
 10
-14.1767
 20
6.0938
 30
0.0
 10
-14.1767
 20
6.0938
 30
0.0
 10
-14.1767
 20
6.0938
 30
0.0
 10
-14.1844
 20
3.6855
 30
0.0
 10
-14.1844
 20
3.6855
 30
0.0
 10
-14.1844
 20
3.6855
 30
0.0
 10
-14.1844
 20
3.6855
 30
0.0
 10
-11.7838
 20
3.6855
 30
0.0
 10
-11.7838
 20
3.6855
 30
0.0
 10
-11.7838
 20
3.6855
 30
0.0
 10
-11.7838
 20
3.6855
 30
0.0
 10
-11.7759
 20
1.3003
 30
0.0
 10
-11.7759
 20
1.3003
 30
0.0
 10
-11.7759
 20
1.3003
 30
0.0
 10
-11.7759
 20
1.3003
 30
0.0
 10
-14.1767
 20
1.3003
 30
0.0
 10
-14.1767
 20
1.3003
 30
0.0
 10
-14.1767
 20
1.3003
 30
0.0
 10
-14.1767
 20
1.3003
 30
0.0
 10
-16.5696
 20
1.3003
 30
0.0
 10
-16.5696
 20
1.3003
 30
0.0
 10
-16.5696
 20
1.3003
 30
0.0
 10
-16.5696
 20
1.3003
 30
0.0
 10
-16.5773
 20
3.6855
 30
0.0
 10
-16.5773
 20
3.6855
 30
0.0
 10
-16.5773
 20
3.6855
 30
0.0
 10
-16.5773
 20
3.6855
 30
0.0
 10
-16.5773
 20
6.0861
 30
0.0
 10
-16.5773
 20
6.0861
 30
0.0
 10
-16.5773
 20
6.0861
 30
0.0
 10
-16.5773
 20
6.0861
 30
0.0
 10
-16.5696
 20
6.0938
 30
0.0
 10
-16.5696
 20
6.0938
 30
0.0
 10
-16.5696
 20
6.0938
 30
0.0
 10
-16.5696
 20
6.0938
 30
0.0
 10
-18.9704
 20
6.0938
 30
0.0
 10
-18.9704
 20
6.0938
 30
0.0
 10
-18.9704
 20
6.0938
 30
0.0
 10
-18.9704
 20
6.0938
 30
0.0
 10
-18.9783
 20
3.6855
 30
0.0
 10
-18.9783
 20
3.6855
 30
0.0
 10
-18.9783
 20
3.6855
 30
0.0
 10
-18.9783
 20
3.6855
 30
0.0
 10
-16.5773
 20
3.6855
 30
0.0
 10
-16.5773
 20
3.6855
 30
0.0
 10
-16.5773
 20
3.6855
 30
0.0
 10
-16.5773
 20
3.6855
 30
0.0
 10
-16.5696
 20
1.3003
 30
0.0
 10
-16.5696
 20
1.3003
 30
0.0
 10
-16.5696
 20
1.3003
 30
0.0
 10
-16.5696
 20
1.3003
 30
0.0
 10
-18.9704
 20
1.3003
 30
0.0
 10
-18.9704
 20
1.3003
 30
0.0
 10
-18.9704
 20
1.3003
 30
0.0
 10
-18.9704
 20
1.3003
 30
0.0
 10
-18.9783
 20
-1.1084
 30
0.0
 10
-18.9783
 20
-1.1084
 30
0.0
 10
-18.9783
 20
-1.1084
 30
0.0
 10
-18.9783
 20
-1.1084
 30
0.0
 10
-16.5773
 20
-1.1084
 30
0.0
 10
-16.5773
 20
-1.1084
 30
0.0
 10
-16.5773
 20
-1.1084
 30
0.0
 10
-16.5773
 20
-1.1084
 30
0.0
 10
-16.5773
 20
1.2925
 30
0.0
 10
-16.5773
 20
1.2925
 30
0.0
 10
-16.5773
 20
1.2925
 30
0.0
 10
-16.5773
 20
1.2925
 30
0.0
 10
-16.5696
 20
1.3003
 30
0.0
 10
-16.5696
 20
1.3003
 30
0.0
 10
-16.5696
 20
1.3003
 30
0.0
 10
-16.5696
 20
1.3003
 30
0.0
 10
-14.1767
 20
1.3003
 30
0.0
 10
-14.1767
 20
1.3003
 30
0.0
 10
-14.1767
 20
1.3003
 30
0.0
 10
-14.1767
 20
1.3003
 30
0.0
 10
-14.1844
 20
-1.1084
 30
0.0
 10
-14.1844
 20
-1.1084
 30
0.0
 10
-14.1844
 20
-1.1084
 30
0.0
 10
-14.1844
 20
-1.1084
 30
0.0
 10
-11.7838
 20
-1.1084
 30
0.0
 10
-11.7838
 20
-1.1084
 30
0.0
 10
-11.7838
 20
-1.1084
 30
0.0
 10
-11.7838
 20
-1.1084
 30
0.0
 10
-11.7759
 20
-3.5014
 30
0.0
 10
-11.7759
 20
-3.5014
 30
0.0
 10
-11.7759
 20
-3.5014
 30
0.0
 10
-11.7759
 20
-3.5014
 30
0.0
 10
-14.1767
 20
-3.5014
 30
0.0
 10
-14.1767
 20
-3.5014
 30
0.0
 10
-14.1767
 20
-3.5014
 30
0.0
 10
-14.1767
 20
-3.5014
 30
0.0
 10
-16.5696
 20
-3.5014
 30
0.0
 10
-16.5696
 20
-3.5014
 30
0.0
 10
-16.5696
 20
-3.5014
 30
0.0
 10
-16.5696
 20
-3.5014
 30
0.0
 10
-18.9704
 20
-3.5014
 30
0.0
 10
-18.9704
 20
-3.5014
 30
0.0
 10
-18.9704
 20
-3.5014
 30
0.0
 10
-18.9704
 20
-3.5014
 30
0.0
 10
-18.9783
 20
-5.9098
 30
0.0
 10
-18.9783
 20
-5.9098
 30
0.0
 10
-18.9783
 20
-5.9098
 30
0.0
 10
-18.9783
 20
-5.9098
 30
0.0
 10
-16.5773
 20
-5.9098
 30
0.0
 10
-16.5773
 20
-5.9098
 30
0.0
 10
-16.5773
 20
-5.9098
 30
0.0
 10
-16.5773
 20
-5.9098
 30
0.0
 10
-16.5773
 20
-3.5091
 30
0.0
 10
-16.5773
 20
-3.5091
 30
0.0
 10
-16.5773
 20
-3.5091
 30
0.0
 10
-16.5773
 20
-3.5091
 30
0.0
 10
-16.5696
 20
-3.5014
 30
0.0
 10
-16.5696
 20
-3.5014
 30
0.0
 10
-16.5696
 20
-3.5014
 30
0.0
 10
-16.5696
 20
-3.5014
 30
0.0
 10
-14.1767
 20
-3.5014
 30
0.0
 10
-14.1767
 20
-3.5014
 30
0.0
 10
-14.1767
 20
-3.5014
 30
0.0
 10
-14.1767
 20
-3.5014
 30
0.0
 10
-14.1844
 20
-5.9098
 30
0.0
 10
-14.1844
 20
-5.9098
 30
0.0
 10
-14.1844
 20
-5.9098
 30
0.0
 10
-14.1844
 20
-5.9098
 30
0.0
 10
-11.7838
 20
-5.9098
 30
0.0
 10
-11.7838
 20
-5.9098
 30
0.0
 10
-11.7838
 20
-5.9098
 30
0.0
 10
-11.7838
 20
-5.9098
 30
0.0
 10
-11.7759
 20
-8.3029
 30
0.0
 10
-11.7759
 20
-8.3029
 30
0.0
 10
-11.7759
 20
-8.3029
 30
0.0
 10
-11.7759
 20
-8.3029
 30
0.0
 10
-14.1767
 20
-8.3029
 30
0.0
 10
-14.1767
 20
-8.3029
 30
0.0
 10
-14.1767
 20
-8.3029
 30
0.0
 10
-14.1767
 20
-8.3029
 30
0.0
 10
-14.1844
 20
-10.7115
 30
0.0
 10
-14.1844
 20
-10.7115
 30
0.0
 10
-14.1844
 20
-10.7115
 30
0.0
 10
-14.1844
 20
-10.7115
 30
0.0
 10
-11.7838
 20
-10.7115
 30
0.0
 10
-11.7838
 20
-10.7115
 30
0.0
 10
-11.7838
 20
-10.7115
 30
0.0
 10
-11.7838
 20
-10.7115
 30
0.0
 10
-11.7759
 20
-13.0966
 30
0.0
 10
-11.7759
 20
-13.0966
 30
0.0
 10
-11.7759
 20
-13.0966
 30
0.0
 10
-11.7759
 20
-13.0966
 30
0.0
 10
-14.1767
 20
-13.0966
 30
0.0
 10
-14.1767
 20
-13.0966
 30
0.0
 10
-14.1767
 20
-13.0966
 30
0.0
 10
-14.1767
 20
-13.0966
 30
0.0
 10
-16.5696
 20
-13.0966
 30
0.0
 10
-16.5696
 20
-13.0966
 30
0.0
 10
-16.5696
 20
-13.0966
 30
0.0
 10
-16.5696
 20
-13.0966
 30
0.0
 10
-16.5773
 20
-10.7115
 30
0.0
 10
-16.5773
 20
-10.7115
 30
0.0
 10
-16.5773
 20
-10.7115
 30
0.0
 10
-16.5773
 20
-10.7115
 30
0.0
 10
-16.5773
 20
-8.3105
 30
0.0
 10
-16.5773
 20
-8.3105
 30
0.0
 10
-16.5773
 20
-8.3105
 30
0.0
 10
-16.5773
 20
-8.3105
 30
0.0
 10
-16.5696
 20
-8.3029
 30
0.0
 10
-16.5696
 20
-8.3029
 30
0.0
 10
-16.5696
 20
-8.3029
 30
0.0
 10
-16.5696
 20
-8.3029
 30
0.0
 10
-18.9704
 20
-8.3029
 30
0.0
 10
-18.9704
 20
-8.3029
 30
0.0
 10
-18.9704
 20
-8.3029
 30
0.0
 10
-18.9704
 20
-8.3029
 30
0.0
 10
-18.9783
 20
-10.7115
 30
0.0
 10
-18.9783
 20
-10.7115
 30
0.0
 10
-18.9783
 20
-10.7115
 30
0.0
 10
-18.9783
 20
-10.7115
 30
0.0
 10
-16.5773
 20
-10.7115
 30
0.0
 10
-16.5773
 20
-10.7115
 30
0.0
 10
-16.5773
 20
-10.7115
 30
0.0
 10
-16.5773
 20
-10.7115
 30
0.0
 10
-16.5696
 20
-13.0966
 30
0.0
 10
-16.5696
 20
-13.0966
 30
0.0
 10
-16.5696
 20
-13.0966
 30
0.0
 10
-16.5696
 20
-13.0966
 30
0.0
 10
-18.9704
 20
-13.0966
 30
0.0
 10
-18.9704
 20
-13.0966
 30
0.0
 10
-18.9704
 20
-13.0966
 30
0.0
 10
-18.9704
 20
-13.0966
 30
0.0
 10
-18.9783
 20
-15.5052
 30
0.0
 10
-18.9783
 20
-15.5052
 30
0.0
 10
-18.9783
 20
-15.5052
 30
0.0
 10
-18.9783
 20
-15.5052
 30
0.0
 10
-16.5773
 20
-15.5052
 30
0.0
 10
-16.5773
 20
-15.5052
 30
0.0
 10
-16.5773
 20
-15.5052
 30
0.0
 10
-16.5773
 20
-15.5052
 30
0.0
 10
-16.5773
 20
-13.1043
 30
0.0
 10
-16.5773
 20
-13.1043
 30
0.0
 10
-16.5773
 20
-13.1043
 30
0.0
 10
-16.5773
 20
-13.1043
 30
0.0
 10
-16.5696
 20
-13.0966
 30
0.0
 10
-16.5696
 20
-13.0966
 30
0.0
 10
-16.5696
 20
-13.0966
 30
0.0
 10
-16.5696
 20
-13.0966
 30
0.0
 10
-14.1767
 20
-13.0966
 30
0.0
 10
-14.1767
 20
-13.0966
 30
0.0
 10
-14.1767
 20
-13.0966
 30
0.0
 10
-14.1767
 20
-13.0966
 30
0.0
 10
-14.1844
 20
-15.5052
 30
0.0
 10
-14.1844
 20
-15.5052
 30
0.0
 10
-14.1844
 20
-15.5052
 30
0.0
 10
-14.1844
 20
-15.5052
 30
0.0
 10
-11.7838
 20
-15.5052
 30
0.0
 10
-11.7838
 20
-15.5052
 30
0.0
 10
-11.7838
 20
-15.5052
 30
0.0
 10
-11.7838
 20
-15.5052
 30
0.0
 10
-11.7759
 20
-17.898
 30
0.0
 10
-11.7759
 20
-17.898
 30
0.0
 10
-11.7759
 20
-17.898
 30
0.0
 10
-11.7759
 20
-17.898
 30
0.0
 10
-14.1767
 20
-17.898
 30
0.0
 10
-14.1767
 20
-17.898
 30
0.0
 10
-14.1767
 20
-17.898
 30
0.0
 10
-14.1767
 20
-17.898
 30
0.0
 10
-16.5696
 20
-17.898
 30
0.0
 10
-16.5696
 20
-17.898
 30
0.0
 10
-16.5696
 20
-17.898
 30
0.0
 10
-16.5696
 20
-17.898
 30
0.0
 10
-18.9704
 20
-17.898
 30
0.0
 10
-18.9704
 20
-17.898
 30
0.0
 10
-18.9704
 20
-17.898
 30
0.0
 10
-18.9704
 20
-17.898
 30
0.0
 10
-18.9783
 20
-20.3066
 30
0.0
 10
-18.9783
 20
-20.3066
 30
0.0
 10
-18.9783
 20
-20.3066
 30
0.0
 10
-18.9783
 20
-20.3066
 30
0.0
 10
-16.5773
 20
-20.3066
 30
0.0
 10
-16.5773
 20
-20.3066
 30
0.0
 10
-16.5773
 20
-20.3066
 30
0.0
 10
-16.5773
 20
-20.3066
 30
0.0
 10
-16.5773
 20
-17.906
 30
0.0
 10
-16.5773
 20
-17.906
 30
0.0
 10
-16.5773
 20
-17.906
 30
0.0
 10
-16.5773
 20
-17.906
 30
0.0
 10
-16.5696
 20
-17.898
 30
0.0
 10
-16.5696
 20
-17.898
 30
0.0
 10
-16.5696
 20
-17.898
 30
0.0
 10
-16.5696
 20
-17.898
 30
0.0
 10
-14.1767
 20
-17.898
 30
0.0
 10
-14.1767
 20
-17.898
 30
0.0
 10
-14.1767
 20
-17.898
 30
0.0
 10
-14.1767
 20
-17.898
 30
0.0
 10
-14.1844
 20
-20.3066
 30
0.0
 10
-14.1844
 20
-20.3066
 30
0.0
 10
-14.1844
 20
-20.3066
 30
0.0
 10
-14.1844
 20
-20.3066
 30
0.0
 10
-11.7838
 20
-20.3066
 30
0.0
 10
-11.7838
 20
-20.3066
 30
0.0
 10
-11.7838
 20
-20.3066
 30
0.0
 10
-11.7838
 20
-20.3066
 30
0.0
 10
-11.7838
 20
-17.906
 30
0.0
 10
-11.7838
 20
-17.906
 30
0.0
 10
-11.7838
 20
-17.906
 30
0.0
 10
-11.7838
 20
-17.906
 30
0.0
 10
-11.7759
 20
-17.898
 30
0.0
 10
-11.7759
 20
-17.898
 30
0.0
 10
-11.7759
 20
-17.898
 30
0.0
 10
-11.7759
 20
-17.898
 30
0.0
 10
-9.3753
 20
-17.898
 30
0.0
 10
-9.3753
 20
-17.898
 30
0.0
 10
-9.3753
 20
-17.898
 30
0.0
 10
-9.3753
 20
-17.898
 30
0.0
 10
-9.3829
 20
-20.3066
 30
0.0
 10
-9.3829
 20
-20.3066
 30
0.0
 10
-9.3829
 20
-20.3066
 30
0.0
 10
-9.3829
 20
-20.3066
 30
0.0
 10
-6.9822
 20
-20.3066
 30
0.0
 10
-6.9822
 20
-20.3066
 30
0.0
 10
-6.9822
 20
-20.3066
 30
0.0
 10
-6.9822
 20
-20.3066
 30
0.0
 10
-6.9822
 20
-17.906
 30
0.0
 10
-6.9822
 20
-17.906
 30
0.0
 10
-6.9822
 20
-17.906
 30
0.0
 10
-6.9822
 20
-17.906
 30
0.0
 10
-6.9744
 20
-17.898
 30
0.0
 10
-6.9744
 20
-17.898
 30
0.0
 10
-6.9744
 20
-17.898
 30
0.0
 10
-6.9744
 20
-17.898
 30
0.0
 10
-4.5736
 20
-17.898
 30
0.0
 10
-4.5736
 20
-17.898
 30
0.0
 10
-4.5736
 20
-17.898
 30
0.0
 10
-4.5736
 20
-17.898
 30
0.0
 10
-4.5814
 20
-20.3066
 30
0.0
 10
-4.5814
 20
-20.3066
 30
0.0
 10
-4.5814
 20
-20.3066
 30
0.0
 10
-4.5814
 20
-20.3066
 30
0.0
 10
-2.1806
 20
-20.3066
 30
0.0
 10
-2.1806
 20
-20.3066
 30
0.0
 10
-2.1806
 20
-20.3066
 30
0.0
 10
-2.1806
 20
-20.3066
 30
0.0
 10
0.2122
 20
-20.3066
 30
0.0
 10
0.2122
 20
-20.3066
 30
0.0
 10
0.2122
 20
-20.3066
 30
0.0
 10
0.2122
 20
-20.3066
 30
0.0
 10
2.6131
 20
-20.3066
 30
0.0
 10
2.6131
 20
-20.3066
 30
0.0
 10
2.6131
 20
-20.3066
 30
0.0
 10
2.6131
 20
-20.3066
 30
0.0
 10
2.6131
 20
-17.906
 30
0.0
 10
2.6131
 20
-17.906
 30
0.0
 10
2.6131
 20
-17.906
 30
0.0
 10
2.6131
 20
-17.906
 30
0.0
 10
2.6209
 20
-17.898
 30
0.0
 10
2.6209
 20
-17.898
 30
0.0
 10
2.6209
 20
-17.898
 30
0.0
 10
2.6209
 20
-17.898
 30
0.0
 10
5.0215
 20
-17.898
 30
0.0
 10
5.0215
 20
-17.898
 30
0.0
 10
5.0215
 20
-17.898
 30
0.0
 10
5.0215
 20
-17.898
 30
0.0
 10
5.0139
 20
-20.3066
 30
0.0
 10
5.0139
 20
-20.3066
 30
0.0
 10
5.0139
 20
-20.3066
 30
0.0
 10
5.0139
 20
-20.3066
 30
0.0
 10
7.4145
 20
-20.3066
 30
0.0
 10
7.4145
 20
-20.3066
 30
0.0
 10
7.4145
 20
-20.3066
 30
0.0
 10
7.4145
 20
-20.3066
 30
0.0
 10
7.4145
 20
-17.906
 30
0.0
 10
7.4145
 20
-17.906
 30
0.0
 10
7.4145
 20
-17.906
 30
0.0
 10
7.4145
 20
-17.906
 30
0.0
 10
7.4225
 20
-17.898
 30
0.0
 10
7.4225
 20
-17.898
 30
0.0
 10
7.4225
 20
-17.898
 30
0.0
 10
7.4225
 20
-17.898
 30
0.0
 10
9.8232
 20
-17.898
 30
0.0
 10
9.8232
 20
-17.898
 30
0.0
 10
9.8232
 20
-17.898
 30
0.0
 10
9.8232
 20
-17.898
 30
0.0
 10
9.8155
 20
-20.3066
 30
0.0
 10
9.8155
 20
-20.3066
 30
0.0
 10
9.8155
 20
-20.3066
 30
0.0
 10
9.8155
 20
-20.3066
 30
0.0
 10
8.5798
 20
-25.0989
 30
0.0
 10
8.5798
 20
-25.0989
 30
0.0
 10
8.5798
 20
-25.0989
 30
0.0
 10
8.5798
 20
-25.0989
 30
0.0
 10
7.7796
 20
-25.1005
 30
0.0
 10
7.7796
 20
-25.1005
 30
0.0
 10
7.7796
 20
-25.1005
 30
0.0
 10
7.7796
 20
-25.1005
 30
0.0
 10
6.9799
 20
-25.1005
 30
0.0
 10
6.9799
 20
-25.1005
 30
0.0
 10
6.9799
 20
-25.1005
 30
0.0
 10
6.9799
 20
-25.1005
 30
0.0
 10
-22.203
 20
-25.1005
 30
0.0
 10
-22.203
 20
-25.1005
 30
0.0
 10
-22.203
 20
-25.1005
 30
0.0
 10
-22.7111
 20
-25.1005
 30
0.0
 10
-23.3225
 20
-25.223
 30
0.0
 10
-23.6477
 20
-24.7351
 30
0.0
 10
-23.6477
 20
-24.7351
 30
0.0
 10
-23.8544
 20
-24.4252
 30
0.0
 10
-23.7572
 20
-24.0128
 30
0.0
 10
-23.758
 20
-23.6712
 30
0.0
 10
-23.758
 20
-23.6712
 30
0.0
 10
-23.758
 20
-23.6712
 30
0.0
 10
-23.7704
 20
-16.7091
 30
0.0
 10
-23.7704
 20
-16.7091
 30
0.0
 10
-23.7704
 20
-16.7091
 30
0.0
 10
-23.7704
 20
-16.7091
 30
0.0
 10
-23.7719
 20
-15.9092
 30
0.0
 10
-23.7719
 20
-15.9092
 30
0.0
 10
-23.7719
 20
-15.9092
 30
0.0
 10
-23.7719
 20
-15.9092
 30
0.0
 10
-23.7719
 20
-15.1093
 30
0.0
 10
-23.7719
 20
-15.1093
 30
0.0
 10
-23.7719
 20
-15.1093
 30
0.0
 10
-23.7719
 20
-15.1093
 30
0.0
 10
-23.7719
 20
14.2365
 30
0.0
 10
-23.7719
 20
14.2365
 30
0.0
 10
-23.7719
 20
14.2365
 30
0.0
 10
-23.7719
 20
14.7297
 30
0.0
 10
-23.8947
 20
15.3613
 30
0.0
 10
-23.3836
 20
15.658
 30
0.0
 10
-23.3836
 20
15.658
 30
0.0
 10
-23.279
 20
15.7188
 30
0.0
 10
-23.1602
 20
15.7497
 30
0.0
 10
-23.0417
 20
15.7667
 30
0.0
  0
SPLINE
  5
42
330
1F
100
AcDbEntity
  8
Ilustrace
 62
   250
370
    30
100
AcDbSpline
210
0.0
220
0.0
230
1.0
 70
    24
 71
     3
 72
     8
 73
     4
 74
     0
 42
0.0000000001
 43
0.0000000001
 40
0.0
 40
0.0
 40
0.0
 40
0.0
 40
1.0
 40
1.0
 40
1.0
 40
1.0
 10
-16.5768
 20
3.6924
 30
0.0
 10
-16.5768
 20
3.6924
 30
0.0
 10
-18.9765
 20
3.6924
 30
0.0
 10
-18.9765
 20
3.6924
 30
0.0
  0
SPLINE
  5
43
330
1F
100
AcDbEntity
  8
Ilustrace
 62
   250
370
    30
100
AcDbSpline
210
0.0
220
0.0
230
1.0
 70
    24
 71
     3
 72
     8
 73
     4
 74
     0
 42
0.0000000001
 43
0.0000000001
 40
0.0
 40
0.0
 40
0.0
 40
0.0
 40
1.0
 40
1.0
 40
1.0
 40
1.0
 10
-18.9765
 20
6.092
 30
0.0
 10
-18.9765
 20
6.092
 30
0.0
 10
-18.9765
 20
3.6924
 30
0.0
 10
-18.9765
 20
3.6924
 30
0.0
  0
SPLINE
  5
44
330
1F
100
AcDbEntity
  8
Ilustrace
 62
   250
370
    30
100
AcDbSpline
210
0.0
220
0.0
230
1.0
 70
    24
 71
     3
 72
     8
 73
     4
 74
     0
 42
0.0000000001
 43
0.0000000001
 40
0.0
 40
0.0
 40
0.0
 40
0.0
 40
1.0
 40
1.0
 40
1.0
 40
1.0
 10
-16.5768
 20
-1.1071
 30
0.0
 10
-16.5768
 20
-1.1071
 30
0.0
 10
-16.5768
 20
1.2925
 30
0.0
 10
-16.5768
 20
1.2925
 30
0.0
  0
SPLINE
  5
45
330
1F
100
AcDbEntity
  8
Ilustrace
 62
   250
370
    30
100
AcDbSpline
210
0.0
220
0.0
230
1.0
 70
    24
 71
     3
 72
     8
 73
     4
 74
     0
 42
0.0000000001
 43
0.0000000001
 40
0.0
 40
0.0
 40
0.0
 40
0.0
 40
1.0
 40
1.0
 40
1.0
 40
1.0
 10
-11.7773
 20
3.6924
 30
0.0
 10
-11.7773
 20
3.6924
 30
0.0
 10
-14.177
 20
3.6924
 30
0.0
 10
-14.177
 20
3.6924
 30
0.0
  0
SPLINE
  5
46
330
1F
100
AcDbEntity
  8
Ilustrace
 62
   250
370
    30
100
AcDbSpline
210
0.0
220
0.0
230
1.0
 70
    24
 71
     3
 72
     8
 73
     4
 74
     0
 42
0.0000000001
 43
0.0000000001
 40
0.0
 40
0.0
 40
0.0
 40
0.0
 40
1.0
 40
1.0
 40
1.0
 40
1.0
 10
-16.5768
 20
6.092
 30
0.0
 10
-16.5768
 20
6.092
 30
0.0
 10
-18.9765
 20
6.092
 30
0.0
 10
-18.9765
 20
6.092
 30
0.0
  0
SPLINE
  5
47
330
1F
100
AcDbEntity
  8
Ilustrace
 62
   250
370
    30
100
AcDbSpline
210
0.0
220
0.0
230
1.0
 70
    24
 71
     3
 72
     8
 73
     4
 74
     0
 42
0.0000000001
 43
0.0000000001
 40
0.0
 40
0.0
 40
0.0
 40
0.0
 40
1.0
 40
1.0
 40
1.0
 40
1.0
 10
-16.5768
 20
6.092
 30
0.0
 10
-16.5768
 20
6.092
 30
0.0
 10
-16.5768
 20
3.6924
 30
0.0
 10
-16.5768
 20
3.6924
 30
0.0
  0
SPLINE
  5
48
330
1F
100
AcDbEntity
  8
Ilustrace
 62
   250
370
    30
100
AcDbSpline
210
0.0
220
0.0
230
1.0
 70
    24
 71
     3
 72
     8
 73
     4
 74
     0
 42
0.0000000001
 43
0.0000000001
 40
0.0
 40
0.0
 40
0.0
 40
0.0
 40
1.0
 40
1.0
 40
1.0
 40
1.0
 10
-18.9765
 20
1.2925
 30
0.0
 10
-18.9765
 20
1.2925
 30
0.0
 10
-18.9765
 20
-1.1071
 30
0.0
 10
-18.9765
 20
-1.1071
 30
0.0
  0
SPLINE
  5
49
330
1F
100
AcDbEntity
  8
Ilustrace
 62
   250
370
    30
100
AcDbSpline
210
0.0
220
0.0
230
1.0
 70
    24
 71
     3
 72
     8
 73
     4
 74
     0
 42
0.0000000001
 43
0.0000000001
 40
0.0
 40
0.0
 40
0.0
 40
0.0
 40
1.0
 40
1.0
 40
1.0
 40
1.0
 10
-18.9765
 20
-3.5068
 30
0.0
 10
-18.9765
 20
-3.5068
 30
0.0
 10
-18.9765
 20
-5.9067
 30
0.0
 10
-18.9765
 20
-5.9067
 30
0.0
  0
SPLINE
  5
4A
330
1F
100
AcDbEntity
  8
Ilustrace
 62
   250
370
    30
100
AcDbSpline
210
0.0
220
0.0
230
1.0
 70
    24
 71
     3
 72
     8
 73
     4
 74
     0
 42
0.0000000001
 43
0.0000000001
 40
0.0
 40
0.0
 40
0.0
 40
0.0
 40
1.0
 40
1.0
 40
1.0
 40
1.0
 10
-16.5768
 20
-10.706
 30
0.0
 10
-16.5768
 20
-10.706
 30
0.0
 10
-16.5768
 20
-8.3063
 30
0.0
 10
-16.5768
 20
-8.3063
 30
0.0
  0
SPLINE
  5
4B
330
1F
100
AcDbEntity
  8
Ilustrace
 62
   250
370
    30
100
AcDbSpline
210
0.0
220
0.0
230
1.0
 70
    24
 71
     3
 72
     8
 73
     4
 74
     0
 42
0.0000000001
 43
0.0000000001
 40
0.0
 40
0.0
 40
0.0
 40
0.0
 40
1.0
 40
1.0
 40
1.0
 40
1.0
 10
-14.177
 20
-5.9067
 30
0.0
 10
-14.177
 20
-5.9067
 30
0.0
 10
-11.7773
 20
-5.9067
 30
0.0
 10
-11.7773
 20
-5.9067
 30
0.0
  0
SPLINE
  5
4C
330
1F
100
AcDbEntity
  8
Ilustrace
 62
   250
370
    30
100
AcDbSpline
210
0.0
220
0.0
230
1.0
 70
    24
 71
     3
 72
     8
 73
     4
 74
     0
 42
0.0000000001
 43
0.0000000001
 40
0.0
 40
0.0
 40
0.0
 40
0.0
 40
1.0
 40
1.0
 40
1.0
 40
1.0
 10
-9.3776
 20
-5.9067
 30
0.0
 10
-9.3776
 20
-5.9067
 30
0.0
 10
-6.9778
 20
-5.9067
 30
0.0
 10
-6.9778
 20
-5.9067
 30
0.0
  0
SPLINE
  5
4D
330
1F
100
AcDbEntity
  8
Ilustrace
 62
   250
370
    30
100
AcDbSpline
210
0.0
220
0.0
230
1.0
 70
    24
 71
     3
 72
     8
 73
     4
 74
     0
 42
0.0000000001
 43
0.0000000001
 40
0.0
 40
0.0
 40
0.0
 40
0.0
 40
1.0
 40
1.0
 40
1.0
 40
1.0
 10
-4.5783
 20
-3.5068
 30
0.0
 10
-4.5783
 20
-3.5068
 30
0.0
 10
-2.1785
 20
-3.5068
 30
0.0
 10
-2.1785
 20
-3.5068
 30
0.0
  0
SPLINE
  5
4E
330
1F
100
AcDbEntity
  8
Ilustrace
 62
   250
370
    30
100
AcDbSpline
210
0.0
220
0.0
230
1.0
 70
    24
 71
     3
 72
     8
 73
     4
 74
     0
 42
0.0000000001
 43
0.0000000001
 40
0.0
 40
0.0
 40
0.0
 40
0.0
 40
1.0
 40
1.0
 40
1.0
 40
1.0
 10
0.2212
 20
-3.5068
 30
0.0
 10
0.2212
 20
-3.5068
 30
0.0
 10
2.6211
 20
-3.5068
 30
0.0
 10
2.6211
 20
-3.5068
 30
0.0
  0
SPLINE
  5
4F
330
1F
100
AcDbEntity
  8
Ilustrace
 62
   250
370
    30
100
AcDbSpline
210
0.0
220
0.0
230
1.0
 70
    24
 71
     3
 72
     8
 73
     4
 74
     0
 42
0.0000000001
 43
0.0000000001
 40
0.0
 40
0.0
 40
0.0
 40
0.0
 40
1.0
 40
1.0
 40
1.0
 40
1.0
 10
5.0208
 20
-5.9067
 30
0.0
 10
5.0208
 20
-5.9067
 30
0.0
 10
7.4203
 20
-5.9067
 30
0.0
 10
7.4203
 20
-5.9067
 30
0.0
  0
SPLINE
  5
50
330
1F
100
AcDbEntity
  8
Ilustrace
 62
   250
370
    30
100
AcDbSpline
210
0.0
220
0.0
230
1.0
 70
    24
 71
     3
 72
     8
 73
     4
 74
     0
 42
0.0000000001
 43
0.0000000001
 40
0.0
 40
0.0
 40
0.0
 40
0.0
 40
1.0
 40
1.0
 40
1.0
 40
1.0
 10
9.82
 20
-8.3063
 30
0.0
 10
9.82
 20
-8.3063
 30
0.0
 10
12.2197
 20
-8.3063
 30
0.0
 10
12.2197
 20
-8.3063
 30
0.0
  0
SPLINE
  5
51
330
1F
100
AcDbEntity
  8
Ilustrace
 62
   250
370
    30
100
AcDbSpline
210
0.0
220
0.0
230
1.0
 70
    24
 71
     3
 72
     8
 73
     4
 74
     0
 42
0.0000000001
 43
0.0000000001
 40
0.0
 40
0.0
 40
0.0
 40
0.0
 40
1.0
 40
1.0
 40
1.0
 40
1.0
 10
9.82
 20
-5.9067
 30
0.0
 10
9.82
 20
-5.9067
 30
0.0
 10
9.82
 20
-3.5068
 30
0.0
 10
9.82
 20
-3.5068
 30
0.0
  0
SPLINE
  5
52
330
1F
100
AcDbEntity
  8
Ilustrace
 62
   250
370
    30
100
AcDbSpline
210
0.0
220
0.0
230
1.0
 70
    24
 71
     3
 72
     8
 73
     4
 74
     0
 42
0.0000000001
 43
0.0000000001
 40
0.0
 40
0.0
 40
0.0
 40
0.0
 40
1.0
 40
1.0
 40
1.0
 40
1.0
 10
12.2197
 20
-1.1071
 30
0.0
 10
12.2197
 20
-1.1071
 30
0.0
 10
12.2197
 20
1.2925
 30
0.0
 10
12.2197
 20
1.2925
 30
0.0
  0
SPLINE
  5
53
330
1F
100
AcDbEntity
  8
Ilustrace
 62
   250
370
    30
100
AcDbSpline
210
0.0
220
0.0
230
1.0
 70
    24
 71
     3
 72
     8
 73
     4
 74
     0
 42
0.0000000001
 43
0.0000000001
 40
0.0
 40
0.0
 40
0.0
 40
0.0
 40
1.0
 40
1.0
 40
1.0
 40
1.0
 10
12.2197
 20
3.6924
 30
0.0
 10
12.2197
 20
3.6924
 30
0.0
 10
12.2197
 20
6.092
 30
0.0
 10
12.2197
 20
6.092
 30
0.0
  0
SPLINE
  5
54
330
1F
100
AcDbEntity
  8
Ilustrace
 62
   250
370
    30
100
AcDbSpline
210
0.0
220
0.0
230
1.0
 70
    24
 71
     3
 72
     8
 73
     4
 74
     0
 42
0.0000000001
 43
0.0000000001
 40
0.0
 40
0.0
 40
0.0
 40
0.0
 40
1.0
 40
1.0
 40
1.0
 40
1.0
 10
12.2197
 20
8.4914
 30
0.0
 10
12.2197
 20
8.4914
 30
0.0
 10
12.2197
 20
10.8913
 30
0.0
 10
12.2197
 20
10.8913
 30
0.0
  0
SPLINE
  5
55
330
1F
100
AcDbEntity
  8
Ilustrace
 62
   250
370
    30
100
AcDbSpline
210
0.0
220
0.0
230
1.0
 70
    24
 71
     3
 72
     8
 73
     4
 74
     0
 42
0.0000000001
 43
0.0000000001
 40
0.0
 40
0.0
 40
0.0
 40
0.0
 40
1.0
 40
1.0
 40
1.0
 40
1.0
 10
12.2197
 20
8.4914
 30
0.0
 10
12.2197
 20
8.4914
 30
0.0
 10
9.82
 20
8.4914
 30
0.0
 10
9.82
 20
8.4914
 30
0.0
  0
SPLINE
  5
56
330
1F
100
AcDbEntity
  8
Ilustrace
 62
   250
370
    30
100
AcDbSpline
210
0.0
220
0.0
230
1.0
 70
    24
 71
     3
 72
     8
 73
     4
 74
     0
 42
0.0000000001
 43
0.0000000001
 40
0.0
 40
0.0
 40
0.0
 40
0.0
 40
1.0
 40
1.0
 40
1.0
 40
1.0
 10
7.4203
 20
8.4914
 30
0.0
 10
7.4203
 20
8.4914
 30
0.0
 10
7.4203
 20
10.8913
 30
0.0
 10
7.4203
 20
10.8913
 30
0.0
  0
SPLINE
  5
57
330
1F
100
AcDbEntity
  8
Ilustrace
 62
   250
370
    30
100
AcDbSpline
210
0.0
220
0.0
230
1.0
 70
    24
 71
     3
 72
     8
 73
     4
 74
     0
 42
0.0000000001
 43
0.0000000001
 40
0.0
 40
0.0
 40
0.0
 40
0.0
 40
1.0
 40
1.0
 40
1.0
 40
1.0
 10
7.4203
 20
8.4914
 30
0.0
 10
7.4203
 20
8.4914
 30
0.0
 10
5.0208
 20
8.4914
 30
0.0
 10
5.0208
 20
8.4914
 30
0.0
  0
SPLINE
  5
58
330
1F
100
AcDbEntity
  8
Ilustrace
 62
   250
370
    30
100
AcDbSpline
210
0.0
220
0.0
230
1.0
 70
    24
 71
     3
 72
     8
 73
     4
 74
     0
 42
0.0000000001
 43
0.0000000001
 40
0.0
 40
0.0
 40
0.0
 40
0.0
 40
1.0
 40
1.0
 40
1.0
 40
1.0
 10
2.6211
 20
8.4914
 30
0.0
 10
2.6211
 20
8.4914
 30
0.0
 10
2.6211
 20
10.8913
 30
0.0
 10
2.6211
 20
10.8913
 30
0.0
  0
SPLINE
  5
59
330
1F
100
AcDbEntity
  8
Ilustrace
 62
   250
370
    30
100
AcDbSpline
210
0.0
220
0.0
230
1.0
 70
    24
 71
     3
 72
     8
 73
     4
 74
     0
 42
0.0000000001
 43
0.0000000001
 40
0.0
 40
0.0
 40
0.0
 40
0.0
 40
1.0
 40
1.0
 40
1.0
 40
1.0
 10
0.2212
 20
10.8913
 30
0.0
 10
0.2212
 20
10.8913
 30
0.0
 10
2.6211
 20
10.8913
 30
0.0
 10
2.6211
 20
10.8913
 30
0.0
  0
SPLINE
  5
5A
330
1F
100
AcDbEntity
  8
Ilustrace
 62
   250
370
    30
100
AcDbSpline
210
0.0
220
0.0
230
1.0
 70
    24
 71
     3
 72
     8
 73
     4
 74
     0
 42
0.0000000001
 43
0.0000000001
 40
0.0
 40
0.0
 40
0.0
 40
0.0
 40
1.0
 40
1.0
 40
1.0
 40
1.0
 10
5.0208
 20
8.4914
 30
0.0
 10
5.0208
 20
8.4914
 30
0.0
 10
5.0208
 20
10.8913
 30
0.0
 10
5.0208
 20
10.8913
 30
0.0
  0
SPLINE
  5
5B
330
1F
100
AcDbEntity
  8
Ilustrace
 62
   250
370
    30
100
AcDbSpline
210
0.0
220
0.0
230
1.0
 70
    24
 71
     3
 72
     8
 73
     4
 74
     0
 42
0.0000000001
 43
0.0000000001
 40
0.0
 40
0.0
 40
0.0
 40
0.0
 40
1.0
 40
1.0
 40
1.0
 40
1.0
 10
7.4203
 20
10.8913
 30
0.0
 10
7.4203
 20
10.8913
 30
0.0
 10
5.0208
 20
10.8913
 30
0.0
 10
5.0208
 20
10.8913
 30
0.0
  0
SPLINE
  5
5C
330
1F
100
AcDbEntity
  8
Ilustrace
 62
   250
370
    30
100
AcDbSpline
210
0.0
220
0.0
230
1.0
 70
    24
 71
     3
 72
     8
 73
     4
 74
     0
 42
0.0000000001
 43
0.0000000001
 40
0.0
 40
0.0
 40
0.0
 40
0.0
 40
1.0
 40
1.0
 40
1.0
 40
1.0
 10
0.2212
 20
8.4914
 30
0.0
 10
0.2212
 20
8.4914
 30
0.0
 10
2.6211
 20
8.4914
 30
0.0
 10
2.6211
 20
8.4914
 30
0.0
  0
SPLINE
  5
5D
330
1F
100
AcDbEntity
  8
Ilustrace
 62
   250
370
    30
100
AcDbSpline
210
0.0
220
0.0
230
1.0
 70
    24
 71
     3
 72
     8
 73
     4
 74
     0
 42
0.0000000001
 43
0.0000000001
 40
0.0
 40
0.0
 40
0.0
 40
0.0
 40
1.0
 40
1.0
 40
1.0
 40
1.0
 10
5.0208
 20
6.092
 30
0.0
 10
5.0208
 20
6.092
 30
0.0
 10
7.4203
 20
6.092
 30
0.0
 10
7.4203
 20
6.092
 30
0.0
  0
SPLINE
  5
5E
330
1F
100
AcDbEntity
  8
Ilustrace
 62
   250
370
    30
100
AcDbSpline
210
0.0
220
0.0
230
1.0
 70
    24
 71
     3
 72
     8
 73
     4
 74
     0
 42
0.0000000001
 43
0.0000000001
 40
0.0
 40
0.0
 40
0.0
 40
0.0
 40
1.0
 40
1.0
 40
1.0
 40
1.0
 10
9.82
 20
3.6924
 30
0.0
 10
9.82
 20
3.6924
 30
0.0
 10
12.2197
 20
3.6924
 30
0.0
 10
12.2197
 20
3.6924
 30
0.0
  0
SPLINE
  5
5F
330
1F
100
AcDbEntity
  8
Ilustrace
 62
   250
370
    30
100
AcDbSpline
210
0.0
220
0.0
230
1.0
 70
    24
 71
     3
 72
     8
 73
     4
 74
     0
 42
0.0000000001
 43
0.0000000001
 40
0.0
 40
0.0
 40
0.0
 40
0.0
 40
1.0
 40
1.0
 40
1.0
 40
1.0
 10
9.82
 20
3.6924
 30
0.0
 10
9.82
 20
3.6924
 30
0.0
 10
9.82
 20
6.092
 30
0.0
 10
9.82
 20
6.092
 30
0.0
  0
SPLINE
  5
60
330
1F
100
AcDbEntity
  8
Ilustrace
 62
   250
370
    30
100
AcDbSpline
210
0.0
220
0.0
230
1.0
 70
    24
 71
     3
 72
     8
 73
     4
 74
     0
 42
0.0000000001
 43
0.0000000001
 40
0.0
 40
0.0
 40
0.0
 40
0.0
 40
1.0
 40
1.0
 40
1.0
 40
1.0
 10
9.82
 20
10.8913
 30
0.0
 10
9.82
 20
10.8913
 30
0.0
 10
9.82
 20
8.4914
 30
0.0
 10
9.82
 20
8.4914
 30
0.0
  0
SPLINE
  5
61
330
1F
100
AcDbEntity
  8
Ilustrace
 62
   250
370
    30
100
AcDbSpline
210
0.0
220
0.0
230
1.0
 70
    24
 71
     3
 72
     8
 73
     4
 74
     0
 42
0.0000000001
 43
0.0000000001
 40
0.0
 40
0.0
 40
0.0
 40
0.0
 40
1.0
 40
1.0
 40
1.0
 40
1.0
 10
7.4203
 20
3.6924
 30
0.0
 10
7.4203
 20
3.6924
 30
0.0
 10
7.4203
 20
6.092
 30
0.0
 10
7.4203
 20
6.092
 30
0.0
  0
SPLINE
  5
62
330
1F
100
AcDbEntity
  8
Ilustrace
 62
   250
370
    30
100
AcDbSpline
210
0.0
220
0.0
230
1.0
 70
    24
 71
     3
 72
     8
 73
     4
 74
     0
 42
0.0000000001
 43
0.0000000001
 40
0.0
 40
0.0
 40
0.0
 40
0.0
 40
1.0
 40
1.0
 40
1.0
 40
1.0
 10
9.82
 20
6.092
 30
0.0
 10
9.82
 20
6.092
 30
0.0
 10
12.2197
 20
6.092
 30
0.0
 10
12.2197
 20
6.092
 30
0.0
  0
SPLINE
  5
63
330
1F
100
AcDbEntity
  8
Ilustrace
 62
   250
370
    30
100
AcDbSpline
210
0.0
220
0.0
230
1.0
 70
    24
 71
     3
 72
     8
 73
     4
 74
     0
 42
0.0000000001
 43
0.0000000001
 40
0.0
 40
0.0
 40
0.0
 40
0.0
 40
1.0
 40
1.0
 40
1.0
 40
1.0
 10
5.0208
 20
3.6924
 30
0.0
 10
5.0208
 20
3.6924
 30
0.0
 10
7.4203
 20
3.6924
 30
0.0
 10
7.4203
 20
3.6924
 30
0.0
  0
SPLINE
  5
64
330
1F
100
AcDbEntity
  8
Ilustrace
 62
   250
370
    30
100
AcDbSpline
210
0.0
220
0.0
230
1.0
 70
    24
 71
     3
 72
     8
 73
     4
 74
     0
 42
0.0000000001
 43
0.0000000001
 40
0.0
 40
0.0
 40
0.0
 40
0.0
 40
1.0
 40
1.0
 40
1.0
 40
1.0
 10
9.82
 20
-1.1071
 30
0.0
 10
9.82
 20
-1.1071
 30
0.0
 10
9.82
 20
1.2925
 30
0.0
 10
9.82
 20
1.2925
 30
0.0
  0
SPLINE
  5
65
330
1F
100
AcDbEntity
  8
Ilustrace
 62
   250
370
    30
100
AcDbSpline
210
0.0
220
0.0
230
1.0
 70
    24
 71
     3
 72
     8
 73
     4
 74
     0
 42
0.0000000001
 43
0.0000000001
 40
0.0
 40
0.0
 40
0.0
 40
0.0
 40
1.0
 40
1.0
 40
1.0
 40
1.0
 10
12.2197
 20
1.2925
 30
0.0
 10
12.2197
 20
1.2925
 30
0.0
 10
9.82
 20
1.2925
 30
0.0
 10
9.82
 20
1.2925
 30
0.0
  0
SPLINE
  5
66
330
1F
100
AcDbEntity
  8
Ilustrace
 62
   250
370
    30
100
AcDbSpline
210
0.0
220
0.0
230
1.0
 70
    24
 71
     3
 72
     8
 73
     4
 74
     0
 42
0.0000000001
 43
0.0000000001
 40
0.0
 40
0.0
 40
0.0
 40
0.0
 40
1.0
 40
1.0
 40
1.0
 40
1.0
 10
5.0208
 20
-1.1071
 30
0.0
 10
5.0208
 20
-1.1071
 30
0.0
 10
7.4203
 20
-1.1071
 30
0.0
 10
7.4203
 20
-1.1071
 30
0.0
  0
SPLINE
  5
67
330
1F
100
AcDbEntity
  8
Ilustrace
 62
   250
370
    30
100
AcDbSpline
210
0.0
220
0.0
230
1.0
 70
    24
 71
     3
 72
     8
 73
     4
 74
     0
 42
0.0000000001
 43
0.0000000001
 40
0.0
 40
0.0
 40
0.0
 40
0.0
 40
1.0
 40
1.0
 40
1.0
 40
1.0
 10
9.82
 20
-3.5068
 30
0.0
 10
9.82
 20
-3.5068
 30
0.0
 10
12.2197
 20
-3.5068
 30
0.0
 10
12.2197
 20
-3.5068
 30
0.0
  0
SPLINE
  5
68
330
1F
100
AcDbEntity
  8
Ilustrace
 62
   250
370
    30
100
AcDbSpline
210
0.0
220
0.0
230
1.0
 70
    24
 71
     3
 72
     8
 73
     4
 74
     0
 42
0.0000000001
 43
0.0000000001
 40
0.0
 40
0.0
 40
0.0
 40
0.0
 40
1.0
 40
1.0
 40
1.0
 40
1.0
 10
12.2197
 20
-1.1071
 30
0.0
 10
12.2197
 20
-1.1071
 30
0.0
 10
9.82
 20
-1.1071
 30
0.0
 10
9.82
 20
-1.1071
 30
0.0
  0
SPLINE
  5
69
330
1F
100
AcDbEntity
  8
Ilustrace
 62
   250
370
    30
100
AcDbSpline
210
0.0
220
0.0
230
1.0
 70
    24
 71
     3
 72
     8
 73
     4
 74
     0
 42
0.0000000001
 43
0.0000000001
 40
0.0
 40
0.0
 40
0.0
 40
0.0
 40
1.0
 40
1.0
 40
1.0
 40
1.0
 10
5.0208
 20
1.2925
 30
0.0
 10
5.0208
 20
1.2925
 30
0.0
 10
7.4203
 20
1.2925
 30
0.0
 10
7.4203
 20
1.2925
 30
0.0
  0
SPLINE
  5
6A
330
1F
100
AcDbEntity
  8
Ilustrace
 62
   250
370
    30
100
AcDbSpline
210
0.0
220
0.0
230
1.0
 70
    24
 71
     3
 72
     8
 73
     4
 74
     0
 42
0.0000000001
 43
0.0000000001
 40
0.0
 40
0.0
 40
0.0
 40
0.0
 40
1.0
 40
1.0
 40
1.0
 40
1.0
 10
7.4203
 20
-1.1071
 30
0.0
 10
7.4203
 20
-1.1071
 30
0.0
 10
7.4203
 20
1.2925
 30
0.0
 10
7.4203
 20
1.2925
 30
0.0
  0
SPLINE
  5
6B
330
1F
100
AcDbEntity
  8
Ilustrace
 62
   250
370
    30
100
AcDbSpline
210
0.0
220
0.0
230
1.0
 70
    24
 71
     3
 72
     8
 73
     4
 74
     0
 42
0.0000000001
 43
0.0000000001
 40
0.0
 40
0.0
 40
0.0
 40
0.0
 40
1.0
 40
1.0
 40
1.0
 40
1.0
 10
5.0208
 20
6.092
 30
0.0
 10
5.0208
 20
6.092
 30
0.0
 10
5.0208
 20
3.6924
 30
0.0
 10
5.0208
 20
3.6924
 30
0.0
  0
SPLINE
  5
6C
330
1F
100
AcDbEntity
  8
Ilustrace
 62
   250
370
    30
100
AcDbSpline
210
0.0
220
0.0
230
1.0
 70
    24
 71
     3
 72
     8
 73
     4
 74
     0
 42
0.0000000001
 43
0.0000000001
 40
0.0
 40
0.0
 40
0.0
 40
0.0
 40
1.0
 40
1.0
 40
1.0
 40
1.0
 10
2.6211
 20
1.2925
 30
0.0
 10
2.6211
 20
1.2925
 30
0.0
 10
2.6211
 20
-1.1071
 30
0.0
 10
2.6211
 20
-1.1071
 30
0.0
  0
SPLINE
  5
6D
330
1F
100
AcDbEntity
  8
Ilustrace
 62
   250
370
    30
100
AcDbSpline
210
0.0
220
0.0
230
1.0
 70
    24
 71
     3
 72
     8
 73
     4
 74
     0
 42
0.0000000001
 43
0.0000000001
 40
0.0
 40
0.0
 40
0.0
 40
0.0
 40
1.0
 40
1.0
 40
1.0
 40
1.0
 10
0.2212
 20
-5.9067
 30
0.0
 10
0.2212
 20
-5.9067
 30
0.0
 10
0.2212
 20
-3.5068
 30
0.0
 10
0.2212
 20
-3.5068
 30
0.0
  0
SPLINE
  5
6E
330
1F
100
AcDbEntity
  8
Ilustrace
 62
   250
370
    30
100
AcDbSpline
210
0.0
220
0.0
230
1.0
 70
    24
 71
     3
 72
     8
 73
     4
 74
     0
 42
0.0000000001
 43
0.0000000001
 40
0.0
 40
0.0
 40
0.0
 40
0.0
 40
1.0
 40
1.0
 40
1.0
 40
1.0
 10
-2.1785
 20
-1.1071
 30
0.0
 10
-2.1785
 20
-1.1071
 30
0.0
 10
-4.5783
 20
-1.1071
 30
0.0
 10
-4.5783
 20
-1.1071
 30
0.0
  0
SPLINE
  5
6F
330
1F
100
AcDbEntity
  8
Ilustrace
 62
   250
370
    30
100
AcDbSpline
210
0.0
220
0.0
230
1.0
 70
    24
 71
     3
 72
     8
 73
     4
 74
     0
 42
0.0000000001
 43
0.0000000001
 40
0.0
 40
0.0
 40
0.0
 40
0.0
 40
1.0
 40
1.0
 40
1.0
 40
1.0
 10
-6.9778
 20
1.2925
 30
0.0
 10
-6.9778
 20
1.2925
 30
0.0
 10
-9.3776
 20
1.2925
 30
0.0
 10
-9.3776
 20
1.2925
 30
0.0
  0
SPLINE
  5
70
330
1F
100
AcDbEntity
  8
Ilustrace
 62
   250
370
    30
100
AcDbSpline
210
0.0
220
0.0
230
1.0
 70
    24
 71
     3
 72
     8
 73
     4
 74
     0
 42
0.0000000001
 43
0.0000000001
 40
0.0
 40
0.0
 40
0.0
 40
0.0
 40
1.0
 40
1.0
 40
1.0
 40
1.0
 10
-14.177
 20
-1.1071
 30
0.0
 10
-14.177
 20
-1.1071
 30
0.0
 10
-11.7773
 20
-1.1071
 30
0.0
 10
-11.7773
 20
-1.1071
 30
0.0
  0
SPLINE
  5
71
330
1F
100
AcDbEntity
  8
Ilustrace
 62
   250
370
    30
100
AcDbSpline
210
0.0
220
0.0
230
1.0
 70
    24
 71
     3
 72
     8
 73
     4
 74
     0
 42
0.0000000001
 43
0.0000000001
 40
0.0
 40
0.0
 40
0.0
 40
0.0
 40
1.0
 40
1.0
 40
1.0
 40
1.0
 10
-9.3776
 20
-3.5068
 30
0.0
 10
-9.3776
 20
-3.5068
 30
0.0
 10
-9.3776
 20
-5.9067
 30
0.0
 10
-9.3776
 20
-5.9067
 30
0.0
  0
SPLINE
  5
72
330
1F
100
AcDbEntity
  8
Ilustrace
 62
   250
370
    30
100
AcDbSpline
210
0.0
220
0.0
230
1.0
 70
    24
 71
     3
 72
     8
 73
     4
 74
     0
 42
0.0000000001
 43
0.0000000001
 40
0.0
 40
0.0
 40
0.0
 40
0.0
 40
1.0
 40
1.0
 40
1.0
 40
1.0
 10
-11.7773
 20
-8.3063
 30
0.0
 10
-11.7773
 20
-8.3063
 30
0.0
 10
-14.177
 20
-8.3063
 30
0.0
 10
-14.177
 20
-8.3063
 30
0.0
  0
SPLINE
  5
73
330
1F
100
AcDbEntity
  8
Ilustrace
 62
   250
370
    30
100
AcDbSpline
210
0.0
220
0.0
230
1.0
 70
    24
 71
     3
 72
     8
 73
     4
 74
     0
 42
0.0000000001
 43
0.0000000001
 40
0.0
 40
0.0
 40
0.0
 40
0.0
 40
1.0
 40
1.0
 40
1.0
 40
1.0
 10
-18.9765
 20
-10.706
 30
0.0
 10
-18.9765
 20
-10.706
 30
0.0
 10
-16.5768
 20
-10.706
 30
0.0
 10
-16.5768
 20
-10.706
 30
0.0
  0
SPLINE
  5
74
330
1F
100
AcDbEntity
  8
Ilustrace
 62
   250
370
    30
100
AcDbSpline
210
0.0
220
0.0
230
1.0
 70
    24
 71
     3
 72
     8
 73
     4
 74
     0
 42
0.0000000001
 43
0.0000000001
 40
0.0
 40
0.0
 40
0.0
 40
0.0
 40
1.0
 40
1.0
 40
1.0
 40
1.0
 10
-14.177
 20
-13.1057
 30
0.0
 10
-14.177
 20
-13.1057
 30
0.0
 10
-14.177
 20
-15.5053
 30
0.0
 10
-14.177
 20
-15.5053
 30
0.0
  0
SPLINE
  5
75
330
1F
100
AcDbEntity
  8
Ilustrace
 62
   250
370
    30
100
AcDbSpline
210
0.0
220
0.0
230
1.0
 70
    24
 71
     3
 72
     8
 73
     4
 74
     0
 42
0.0000000001
 43
0.0000000001
 40
0.0
 40
0.0
 40
0.0
 40
0.0
 40
1.0
 40
1.0
 40
1.0
 40
1.0
 10
-11.7772
 20
-20.305
 30
0.0
 10
-11.7772
 20
-20.305
 30
0.0
 10
-11.7773
 20
-17.9052
 30
0.0
 10
-11.7773
 20
-17.9052
 30
0.0
  0
SPLINE
  5
76
330
1F
100
AcDbEntity
  8
Ilustrace
 62
   250
370
    30
100
AcDbSpline
210
0.0
220
0.0
230
1.0
 70
    24
 71
     3
 72
     8
 73
     4
 74
     0
 42
0.0000000001
 43
0.0000000001
 40
0.0
 40
0.0
 40
0.0
 40
0.0
 40
1.0
 40
1.0
 40
1.0
 40
1.0
 10
-9.3776
 20
-15.5053
 30
0.0
 10
-9.3776
 20
-15.5053
 30
0.0
 10
-6.9778
 20
-15.5053
 30
0.0
 10
-6.9778
 20
-15.5053
 30
0.0
  0
SPLINE
  5
77
330
1F
100
AcDbEntity
  8
Ilustrace
 62
   250
370
    30
100
AcDbSpline
210
0.0
220
0.0
230
1.0
 70
    24
 71
     3
 72
     8
 73
     4
 74
     0
 42
0.0000000001
 43
0.0000000001
 40
0.0
 40
0.0
 40
0.0
 40
0.0
 40
1.0
 40
1.0
 40
1.0
 40
1.0
 10
-4.5783
 20
-17.9052
 30
0.0
 10
-4.5783
 20
-17.9052
 30
0.0
 10
-2.1785
 20
-17.9052
 30
0.0
 10
-2.1785
 20
-17.9052
 30
0.0
  0
SPLINE
  5
78
330
1F
100
AcDbEntity
  8
Ilustrace
 62
   250
370
    30
100
AcDbSpline
210
0.0
220
0.0
230
1.0
 70
    24
 71
     3
 72
     8
 73
     4
 74
     0
 42
0.0000000001
 43
0.0000000001
 40
0.0
 40
0.0
 40
0.0
 40
0.0
 40
1.0
 40
1.0
 40
1.0
 40
1.0
 10
0.2212
 20
-20.305
 30
0.0
 10
0.2212
 20
-20.305
 30
0.0
 10
2.6211
 20
-20.305
 30
0.0
 10
2.6211
 20
-20.305
 30
0.0
  0
SPLINE
  5
79
330
1F
100
AcDbEntity
  8
Ilustrace
 62
   250
370
    30
100
AcDbSpline
210
0.0
220
0.0
230
1.0
 70
    24
 71
     3
 72
     8
 73
     4
 74
     0
 42
0.0000000001
 43
0.0000000001
 40
0.0
 40
0.0
 40
0.0
 40
0.0
 40
1.0
 40
1.0
 40
1.0
 40
1.0
 10
5.0208
 20
-17.9052
 30
0.0
 10
5.0208
 20
-17.9052
 30
0.0
 10
7.4203
 20
-17.9052
 30
0.0
 10
7.4203
 20
-17.9052
 30
0.0
  0
SPLINE
  5
7A
330
1F
100
AcDbEntity
  8
Ilustrace
 62
   250
370
    30
100
AcDbSpline
210
0.0
220
0.0
230
1.0
 70
    24
 71
     3
 72
     8
 73
     4
 74
     0
 42
0.0000000001
 43
0.0000000001
 40
0.0
 40
0.0
 40
0.0
 40
0.0
 40
1.0
 40
1.0
 40
1.0
 40
1.0
 10
9.82
 20
-17.9052
 30
0.0
 10
9.82
 20
-17.9052
 30
0.0
 10
12.2197
 20
-17.9052
 30
0.0
 10
12.2197
 20
-17.9052
 30
0.0
  0
SPLINE
  5
7B
330
1F
100
AcDbEntity
  8
Ilustrace
 62
   250
370
    30
100
AcDbSpline
210
0.0
220
0.0
230
1.0
 70
    24
 71
     3
 72
     8
 73
     4
 74
     0
 42
0.0000000001
 43
0.0000000001
 40
0.0
 40
0.0
 40
0.0
 40
0.0
 40
1.0
 40
1.0
 40
1.0
 40
1.0
 10
9.82
 20
-17.9052
 30
0.0
 10
9.82
 20
-17.9052
 30
0.0
 10
9.82
 20
-20.305
 30
0.0
 10
9.82
 20
-20.305
 30
0.0
  0
SPLINE
  5
7C
330
1F
100
AcDbEntity
  8
Ilustrace
 62
   250
370
    30
100
AcDbSpline
210
0.0
220
0.0
230
1.0
 70
    24
 71
     3
 72
     8
 73
     4
 74
     0
 42
0.0000000001
 43
0.0000000001
 40
0.0
 40
0.0
 40
0.0
 40
0.0
 40
1.0
 40
1.0
 40
1.0
 40
1.0
 10
12.2197
 20
-20.305
 30
0.0
 10
12.2197
 20
-20.305
 30
0.0
 10
9.82
 20
-20.305
 30
0.0
 10
9.82
 20
-20.305
 30
0.0
  0
SPLINE
  5
7D
330
1F
100
AcDbEntity
  8
Ilustrace
 62
   250
370
    30
100
AcDbSpline
210
0.0
220
0.0
230
1.0
 70
    24
 71
     3
 72
     8
 73
     4
 74
     0
 42
0.0000000001
 43
0.0000000001
 40
0.0
 40
0.0
 40
0.0
 40
0.0
 40
1.0
 40
1.0
 40
1.0
 40
1.0
 10
5.0208
 20
-20.305
 30
0.0
 10
5.0208
 20
-20.305
 30
0.0
 10
7.4203
 20
-20.305
 30
0.0
 10
7.4203
 20
-20.305
 30
0.0
  0
SPLINE
  5
7E
330
1F
100
AcDbEntity
  8
Ilustrace
 62
   250
370
    30
100
AcDbSpline
210
0.0
220
0.0
230
1.0
 70
    24
 71
     3
 72
     8
 73
     4
 74
     0
 42
0.0000000001
 43
0.0000000001
 40
0.0
 40
0.0
 40
0.0
 40
0.0
 40
1.0
 40
1.0
 40
1.0
 40
1.0
 10
7.4203
 20
-17.9052
 30
0.0
 10
7.4203
 20
-17.9052
 30
0.0
 10
7.4203
 20
-20.305
 30
0.0
 10
7.4203
 20
-20.305
 30
0.0
  0
SPLINE
  5
7F
330
1F
100
AcDbEntity
  8
Ilustrace
 62
   250
370
    30
100
AcDbSpline
210
0.0
220
0.0
230
1.0
 70
    24
 71
     3
 72
     8
 73
     4
 74
     0
 42
0.0000000001
 43
0.0000000001
 40
0.0
 40
0.0
 40
0.0
 40
0.0
 40
1.0
 40
1.0
 40
1.0
 40
1.0
 10
5.0208
 20
-20.305
 30
0.0
 10
5.0208
 20
-20.305
 30
0.0
 10
5.0208
 20
-17.9052
 30
0.0
 10
5.0208
 20
-17.9052
 30
0.0
  0
SPLINE
  5
80
330
1F
100
AcDbEntity
  8
Ilustrace
 62
   250
370
    30
100
AcDbSpline
210
0.0
220
0.0
230
1.0
 70
    24
 71
     3
 72
     8
 73
     4
 74
     0
 42
0.0000000001
 43
0.0000000001
 40
0.0
 40
0.0
 40
0.0
 40
0.0
 40
1.0
 40
1.0
 40
1.0
 40
1.0
 10
0.2212
 20
-15.5053
 30
0.0
 10
0.2212
 20
-15.5053
 30
0.0
 10
2.6211
 20
-15.5053
 30
0.0
 10
2.6211
 20
-15.5053
 30
0.0
  0
SPLINE
  5
81
330
1F
100
AcDbEntity
  8
Ilustrace
 62
   250
370
    30
100
AcDbSpline
210
0.0
220
0.0
230
1.0
 70
    24
 71
     3
 72
     8
 73
     4
 74
     0
 42
0.0000000001
 43
0.0000000001
 40
0.0
 40
0.0
 40
0.0
 40
0.0
 40
1.0
 40
1.0
 40
1.0
 40
1.0
 10
5.0208
 20
-13.1057
 30
0.0
 10
5.0208
 20
-13.1057
 30
0.0
 10
7.4203
 20
-13.1057
 30
0.0
 10
7.4203
 20
-13.1057
 30
0.0
  0
SPLINE
  5
82
330
1F
100
AcDbEntity
  8
Ilustrace
 62
   250
370
    30
100
AcDbSpline
210
0.0
220
0.0
230
1.0
 70
    24
 71
     3
 72
     8
 73
     4
 74
     0
 42
0.0000000001
 43
0.0000000001
 40
0.0
 40
0.0
 40
0.0
 40
0.0
 40
1.0
 40
1.0
 40
1.0
 40
1.0
 10
9.82
 20
-13.1057
 30
0.0
 10
9.82
 20
-13.1057
 30
0.0
 10
12.2197
 20
-13.1057
 30
0.0
 10
12.2197
 20
-13.1057
 30
0.0
  0
SPLINE
  5
83
330
1F
100
AcDbEntity
  8
Ilustrace
 62
   250
370
    30
100
AcDbSpline
210
0.0
220
0.0
230
1.0
 70
    24
 71
     3
 72
     8
 73
     4
 74
     0
 42
0.0000000001
 43
0.0000000001
 40
0.0
 40
0.0
 40
0.0
 40
0.0
 40
1.0
 40
1.0
 40
1.0
 40
1.0
 10
9.82
 20
-10.706
 30
0.0
 10
9.82
 20
-10.706
 30
0.0
 10
12.2197
 20
-10.706
 30
0.0
 10
12.2197
 20
-10.706
 30
0.0
  0
SPLINE
  5
84
330
1F
100
AcDbEntity
  8
Ilustrace
 62
   250
370
    30
100
AcDbSpline
210
0.0
220
0.0
230
1.0
 70
    24
 71
     3
 72
     8
 73
     4
 74
     0
 42
0.0000000001
 43
0.0000000001
 40
0.0
 40
0.0
 40
0.0
 40
0.0
 40
1.0
 40
1.0
 40
1.0
 40
1.0
 10
9.82
 20
-10.706
 30
0.0
 10
9.82
 20
-10.706
 30
0.0
 10
9.82
 20
-8.3063
 30
0.0
 10
9.82
 20
-8.3063
 30
0.0
  0
SPLINE
  5
85
330
1F
100
AcDbEntity
  8
Ilustrace
 62
   250
370
    30
100
AcDbSpline
210
0.0
220
0.0
230
1.0
 70
    24
 71
     3
 72
     8
 73
     4
 74
     0
 42
0.0000000001
 43
0.0000000001
 40
0.0
 40
0.0
 40
0.0
 40
0.0
 40
1.0
 40
1.0
 40
1.0
 40
1.0
 10
12.2197
 20
-5.9067
 30
0.0
 10
12.2197
 20
-5.9067
 30
0.0
 10
9.82
 20
-5.9067
 30
0.0
 10
9.82
 20
-5.9067
 30
0.0
  0
SPLINE
  5
86
330
1F
100
AcDbEntity
  8
Ilustrace
 62
   250
370
    30
100
AcDbSpline
210
0.0
220
0.0
230
1.0
 70
    24
 71
     3
 72
     8
 73
     4
 74
     0
 42
0.0000000001
 43
0.0000000001
 40
0.0
 40
0.0
 40
0.0
 40
0.0
 40
1.0
 40
1.0
 40
1.0
 40
1.0
 10
5.0208
 20
-3.5068
 30
0.0
 10
5.0208
 20
-3.5068
 30
0.0
 10
7.4203
 20
-3.5068
 30
0.0
 10
7.4203
 20
-3.5068
 30
0.0
  0
SPLINE
  5
87
330
1F
100
AcDbEntity
  8
Ilustrace
 62
   250
370
    30
100
AcDbSpline
210
0.0
220
0.0
230
1.0
 70
    24
 71
     3
 72
     8
 73
     4
 74
     0
 42
0.0000000001
 43
0.0000000001
 40
0.0
 40
0.0
 40
0.0
 40
0.0
 40
1.0
 40
1.0
 40
1.0
 40
1.0
 10
7.4203
 20
-5.9067
 30
0.0
 10
7.4203
 20
-5.9067
 30
0.0
 10
7.4203
 20
-3.5068
 30
0.0
 10
7.4203
 20
-3.5068
 30
0.0
  0
SPLINE
  5
88
330
1F
100
AcDbEntity
  8
Ilustrace
 62
   250
370
    30
100
AcDbSpline
210
0.0
220
0.0
230
1.0
 70
    24
 71
     3
 72
     8
 73
     4
 74
     0
 42
0.0000000001
 43
0.0000000001
 40
0.0
 40
0.0
 40
0.0
 40
0.0
 40
1.0
 40
1.0
 40
1.0
 40
1.0
 10
5.0208
 20
1.2925
 30
0.0
 10
5.0208
 20
1.2925
 30
0.0
 10
5.0208
 20
-1.1071
 30
0.0
 10
5.0208
 20
-1.1071
 30
0.0
  0
SPLINE
  5
89
330
1F
100
AcDbEntity
  8
Ilustrace
 62
   250
370
    30
100
AcDbSpline
210
0.0
220
0.0
230
1.0
 70
    24
 71
     3
 72
     8
 73
     4
 74
     0
 42
0.0000000001
 43
0.0000000001
 40
0.0
 40
0.0
 40
0.0
 40
0.0
 40
1.0
 40
1.0
 40
1.0
 40
1.0
 10
2.6211
 20
-3.5068
 30
0.0
 10
2.6211
 20
-3.5068
 30
0.0
 10
2.6211
 20
-5.9067
 30
0.0
 10
2.6211
 20
-5.9067
 30
0.0
  0
SPLINE
  5
8A
330
1F
100
AcDbEntity
  8
Ilustrace
 62
   250
370
    30
100
AcDbSpline
210
0.0
220
0.0
230
1.0
 70
    24
 71
     3
 72
     8
 73
     4
 74
     0
 42
0.0000000001
 43
0.0000000001
 40
0.0
 40
0.0
 40
0.0
 40
0.0
 40
1.0
 40
1.0
 40
1.0
 40
1.0
 10
0.2212
 20
-8.3063
 30
0.0
 10
0.2212
 20
-8.3063
 30
0.0
 10
2.6211
 20
-8.3063
 30
0.0
 10
2.6211
 20
-8.3063
 30
0.0
  0
SPLINE
  5
8B
330
1F
100
AcDbEntity
  8
Ilustrace
 62
   250
370
    30
100
AcDbSpline
210
0.0
220
0.0
230
1.0
 70
    24
 71
     3
 72
     8
 73
     4
 74
     0
 42
0.0000000001
 43
0.0000000001
 40
0.0
 40
0.0
 40
0.0
 40
0.0
 40
1.0
 40
1.0
 40
1.0
 40
1.0
 10
7.4203
 20
-10.706
 30
0.0
 10
7.4203
 20
-10.706
 30
0.0
 10
5.0208
 20
-10.706
 30
0.0
 10
5.0208
 20
-10.706
 30
0.0
  0
SPLINE
  5
8C
330
1F
100
AcDbEntity
  8
Ilustrace
 62
   250
370
    30
100
AcDbSpline
210
0.0
220
0.0
230
1.0
 70
    24
 71
     3
 72
     8
 73
     4
 74
     0
 42
0.0000000001
 43
0.0000000001
 40
0.0
 40
0.0
 40
0.0
 40
0.0
 40
1.0
 40
1.0
 40
1.0
 40
1.0
 10
2.6211
 20
-13.1057
 30
0.0
 10
2.6211
 20
-13.1057
 30
0.0
 10
2.6211
 20
-15.5053
 30
0.0
 10
2.6211
 20
-15.5053
 30
0.0
  0
SPLINE
  5
8D
330
1F
100
AcDbEntity
  8
Ilustrace
 62
   250
370
    30
100
AcDbSpline
210
0.0
220
0.0
230
1.0
 70
    24
 71
     3
 72
     8
 73
     4
 74
     0
 42
0.0000000001
 43
0.0000000001
 40
0.0
 40
0.0
 40
0.0
 40
0.0
 40
1.0
 40
1.0
 40
1.0
 40
1.0
 10
0.2212
 20
-17.9052
 30
0.0
 10
0.2212
 20
-17.9052
 30
0.0
 10
0.2212
 20
-20.305
 30
0.0
 10
0.2212
 20
-20.305
 30
0.0
  0
SPLINE
  5
8E
330
1F
100
AcDbEntity
  8
Ilustrace
 62
   250
370
    30
100
AcDbSpline
210
0.0
220
0.0
230
1.0
 70
    24
 71
     3
 72
     8
 73
     4
 74
     0
 42
0.0000000001
 43
0.0000000001
 40
0.0
 40
0.0
 40
0.0
 40
0.0
 40
1.0
 40
1.0
 40
1.0
 40
1.0
 10
2.6211
 20
-20.305
 30
0.0
 10
2.6211
 20
-20.305
 30
0.0
 10
2.6211
 20
-17.9052
 30
0.0
 10
2.6211
 20
-17.9052
 30
0.0
  0
SPLINE
  5
8F
330
1F
100
AcDbEntity
  8
Ilustrace
 62
   250
370
    30
100
AcDbSpline
210
0.0
220
0.0
230
1.0
 70
    24
 71
     3
 72
     8
 73
     4
 74
     0
 42
0.0000000001
 43
0.0000000001
 40
0.0
 40
0.0
 40
0.0
 40
0.0
 40
1.0
 40
1.0
 40
1.0
 40
1.0
 10
5.0208
 20
-15.5053
 30
0.0
 10
5.0208
 20
-15.5053
 30
0.0
 10
7.4203
 20
-15.5053
 30
0.0
 10
7.4203
 20
-15.5053
 30
0.0
  0
SPLINE
  5
90
330
1F
100
AcDbEntity
  8
Ilustrace
 62
   250
370
    30
100
AcDbSpline
210
0.0
220
0.0
230
1.0
 70
    24
 71
     3
 72
     8
 73
     4
 74
     0
 42
0.0000000001
 43
0.0000000001
 40
0.0
 40
0.0
 40
0.0
 40
0.0
 40
1.0
 40
1.0
 40
1.0
 40
1.0
 10
9.82
 20
-15.5053
 30
0.0
 10
9.82
 20
-15.5053
 30
0.0
 10
12.2197
 20
-15.5053
 30
0.0
 10
12.2197
 20
-15.5053
 30
0.0
  0
SPLINE
  5
91
330
1F
100
AcDbEntity
  8
Ilustrace
 62
   250
370
    30
100
AcDbSpline
210
0.0
220
0.0
230
1.0
 70
    24
 71
     3
 72
     8
 73
     4
 74
     0
 42
0.0000000001
 43
0.0000000001
 40
0.0
 40
0.0
 40
0.0
 40
0.0
 40
1.0
 40
1.0
 40
1.0
 40
1.0
 10
9.82
 20
-15.5053
 30
0.0
 10
9.82
 20
-15.5053
 30
0.0
 10
9.82
 20
-13.1057
 30
0.0
 10
9.82
 20
-13.1057
 30
0.0
  0
SPLINE
  5
92
330
1F
100
AcDbEntity
  8
Ilustrace
 62
   250
370
    30
100
AcDbSpline
210
0.0
220
0.0
230
1.0
 70
    24
 71
     3
 72
     8
 73
     4
 74
     0
 42
0.0000000001
 43
0.0000000001
 40
0.0
 40
0.0
 40
0.0
 40
0.0
 40
1.0
 40
1.0
 40
1.0
 40
1.0
 10
12.2197
 20
-10.706
 30
0.0
 10
12.2197
 20
-10.706
 30
0.0
 10
12.2197
 20
-8.3063
 30
0.0
 10
12.2197
 20
-8.3063
 30
0.0
  0
SPLINE
  5
93
330
1F
100
AcDbEntity
  8
Ilustrace
 62
   250
370
    30
100
AcDbSpline
210
0.0
220
0.0
230
1.0
 70
    24
 71
     3
 72
     8
 73
     4
 74
     0
 42
0.0000000001
 43
0.0000000001
 40
0.0
 40
0.0
 40
0.0
 40
0.0
 40
1.0
 40
1.0
 40
1.0
 40
1.0
 10
12.2197
 20
-3.5068
 30
0.0
 10
12.2197
 20
-3.5068
 30
0.0
 10
12.2197
 20
-5.9067
 30
0.0
 10
12.2197
 20
-5.9067
 30
0.0
  0
SPLINE
  5
94
330
1F
100
AcDbEntity
  8
Ilustrace
 62
   250
370
    30
100
AcDbSpline
210
0.0
220
0.0
230
1.0
 70
    24
 71
     3
 72
     8
 73
     4
 74
     0
 42
0.0000000001
 43
0.0000000001
 40
0.0
 40
0.0
 40
0.0
 40
0.0
 40
1.0
 40
1.0
 40
1.0
 40
1.0
 10
12.2197
 20
-15.5053
 30
0.0
 10
12.2197
 20
-15.5053
 30
0.0
 10
12.2197
 20
-13.1057
 30
0.0
 10
12.2197
 20
-13.1057
 30
0.0
  0
SPLINE
  5
95
330
1F
100
AcDbEntity
  8
Ilustrace
 62
   250
370
    30
100
AcDbSpline
210
0.0
220
0.0
230
1.0
 70
    24
 71
     3
 72
     8
 73
     4
 74
     0
 42
0.0000000001
 43
0.0000000001
 40
0.0
 40
0.0
 40
0.0
 40
0.0
 40
1.0
 40
1.0
 40
1.0
 40
1.0
 10
12.2197
 20
-20.305
 30
0.0
 10
12.2197
 20
-20.305
 30
0.0
 10
12.2197
 20
-17.9052
 30
0.0
 10
12.2197
 20
-17.9052
 30
0.0
  0
SPLINE
  5
96
330
1F
100
AcDbEntity
  8
Ilustrace
 62
   250
370
    30
100
AcDbSpline
210
0.0
220
0.0
230
1.0
 70
    24
 71
     3
 72
     8
 73
     4
 74
     0
 42
0.0000000001
 43
0.0000000001
 40
0.0
 40
0.0
 40
0.0
 40
0.0
 40
1.0
 40
1.0
 40
1.0
 40
1.0
 10
7.4203
 20
-8.3063
 30
0.0
 10
7.4203
 20
-8.3063
 30
0.0
 10
7.4203
 20
-10.706
 30
0.0
 10
7.4203
 20
-10.706
 30
0.0
  0
SPLINE
  5
97
330
1F
100
AcDbEntity
  8
Ilustrace
 62
   250
370
    30
100
AcDbSpline
210
0.0
220
0.0
230
1.0
 70
    24
 71
     3
 72
     8
 73
     4
 74
     0
 42
0.0000000001
 43
0.0000000001
 40
0.0
 40
0.0
 40
0.0
 40
0.0
 40
1.0
 40
1.0
 40
1.0
 40
1.0
 10
5.0208
 20
-13.1057
 30
0.0
 10
5.0208
 20
-13.1057
 30
0.0
 10
5.0208
 20
-15.5053
 30
0.0
 10
5.0208
 20
-15.5053
 30
0.0
  0
SPLINE
  5
98
330
1F
100
AcDbEntity
  8
Ilustrace
 62
   250
370
    30
100
AcDbSpline
210
0.0
220
0.0
230
1.0
 70
    24
 71
     3
 72
     8
 73
     4
 74
     0
 42
0.0000000001
 43
0.0000000001
 40
0.0
 40
0.0
 40
0.0
 40
0.0
 40
1.0
 40
1.0
 40
1.0
 40
1.0
 10
0.2212
 20
-17.9052
 30
0.0
 10
0.2212
 20
-17.9052
 30
0.0
 10
2.6211
 20
-17.9052
 30
0.0
 10
2.6211
 20
-17.9052
 30
0.0
  0
SPLINE
  5
99
330
1F
100
AcDbEntity
  8
Ilustrace
 62
   250
370
    30
100
AcDbSpline
210
0.0
220
0.0
230
1.0
 70
    24
 71
     3
 72
     8
 73
     4
 74
     0
 42
0.0000000001
 43
0.0000000001
 40
0.0
 40
0.0
 40
0.0
 40
0.0
 40
1.0
 40
1.0
 40
1.0
 40
1.0
 10
0.2212
 20
-15.5053
 30
0.0
 10
0.2212
 20
-15.5053
 30
0.0
 10
0.2212
 20
-13.1057
 30
0.0
 10
0.2212
 20
-13.1057
 30
0.0
  0
SPLINE
  5
9A
330
1F
100
AcDbEntity
  8
Ilustrace
 62
   250
370
    30
100
AcDbSpline
210
0.0
220
0.0
230
1.0
 70
    24
 71
     3
 72
     8
 73
     4
 74
     0
 42
0.0000000001
 43
0.0000000001
 40
0.0
 40
0.0
 40
0.0
 40
0.0
 40
1.0
 40
1.0
 40
1.0
 40
1.0
 10
-2.1785
 20
-10.706
 30
0.0
 10
-2.1785
 20
-10.706
 30
0.0
 10
-2.1785
 20
-8.3063
 30
0.0
 10
-2.1785
 20
-8.3063
 30
0.0
  0
SPLINE
  5
9B
330
1F
100
AcDbEntity
  8
Ilustrace
 62
   250
370
    30
100
AcDbSpline
210
0.0
220
0.0
230
1.0
 70
    24
 71
     3
 72
     8
 73
     4
 74
     0
 42
0.0000000001
 43
0.0000000001
 40
0.0
 40
0.0
 40
0.0
 40
0.0
 40
1.0
 40
1.0
 40
1.0
 40
1.0
 10
-4.5783
 20
-5.9067
 30
0.0
 10
-4.5783
 20
-5.9067
 30
0.0
 10
-4.5783
 20
-3.5068
 30
0.0
 10
-4.5783
 20
-3.5068
 30
0.0
  0
SPLINE
  5
9C
330
1F
100
AcDbEntity
  8
Ilustrace
 62
   250
370
    30
100
AcDbSpline
210
0.0
220
0.0
230
1.0
 70
    24
 71
     3
 72
     8
 73
     4
 74
     0
 42
0.0000000001
 43
0.0000000001
 40
0.0
 40
0.0
 40
0.0
 40
0.0
 40
1.0
 40
1.0
 40
1.0
 40
1.0
 10
-2.1785
 20
1.2925
 30
0.0
 10
-2.1785
 20
1.2925
 30
0.0
 10
-2.1785
 20
-1.1071
 30
0.0
 10
-2.1785
 20
-1.1071
 30
0.0
  0
SPLINE
  5
9D
330
1F
100
AcDbEntity
  8
Ilustrace
 62
   250
370
    30
100
AcDbSpline
210
0.0
220
0.0
230
1.0
 70
    24
 71
     3
 72
     8
 73
     4
 74
     0
 42
0.0000000001
 43
0.0000000001
 40
0.0
 40
0.0
 40
0.0
 40
0.0
 40
1.0
 40
1.0
 40
1.0
 40
1.0
 10
-2.1785
 20
-5.9067
 30
0.0
 10
-2.1785
 20
-5.9067
 30
0.0
 10
-2.1785
 20
-3.5068
 30
0.0
 10
-2.1785
 20
-3.5068
 30
0.0
  0
SPLINE
  5
9E
330
1F
100
AcDbEntity
  8
Ilustrace
 62
   250
370
    30
100
AcDbSpline
210
0.0
220
0.0
230
1.0
 70
    24
 71
     3
 72
     8
 73
     4
 74
     0
 42
0.0000000001
 43
0.0000000001
 40
0.0
 40
0.0
 40
0.0
 40
0.0
 40
1.0
 40
1.0
 40
1.0
 40
1.0
 10
2.6211
 20
-1.1071
 30
0.0
 10
2.6211
 20
-1.1071
 30
0.0
 10
0.2212
 20
-1.1071
 30
0.0
 10
0.2212
 20
-1.1071
 30
0.0
  0
SPLINE
  5
9F
330
1F
100
AcDbEntity
  8
Ilustrace
 62
   250
370
    30
100
AcDbSpline
210
0.0
220
0.0
230
1.0
 70
    24
 71
     3
 72
     8
 73
     4
 74
     0
 42
0.0000000001
 43
0.0000000001
 40
0.0
 40
0.0
 40
0.0
 40
0.0
 40
1.0
 40
1.0
 40
1.0
 40
1.0
 10
-4.5783
 20
1.2925
 30
0.0
 10
-4.5783
 20
1.2925
 30
0.0
 10
-2.1785
 20
1.2925
 30
0.0
 10
-2.1785
 20
1.2925
 30
0.0
  0
SPLINE
  5
A0
330
1F
100
AcDbEntity
  8
Ilustrace
 62
   250
370
    30
100
AcDbSpline
210
0.0
220
0.0
230
1.0
 70
    24
 71
     3
 72
     8
 73
     4
 74
     0
 42
0.0000000001
 43
0.0000000001
 40
0.0
 40
0.0
 40
0.0
 40
0.0
 40
1.0
 40
1.0
 40
1.0
 40
1.0
 10
0.2212
 20
3.6924
 30
0.0
 10
0.2212
 20
3.6924
 30
0.0
 10
2.6211
 20
3.6924
 30
0.0
 10
2.6211
 20
3.6924
 30
0.0
  0
SPLINE
  5
A1
330
1F
100
AcDbEntity
  8
Ilustrace
 62
   250
370
    30
100
AcDbSpline
210
0.0
220
0.0
230
1.0
 70
    24
 71
     3
 72
     8
 73
     4
 74
     0
 42
0.0000000001
 43
0.0000000001
 40
0.0
 40
0.0
 40
0.0
 40
0.0
 40
1.0
 40
1.0
 40
1.0
 40
1.0
 10
0.2212
 20
3.6924
 30
0.0
 10
0.2212
 20
3.6924
 30
0.0
 10
0.2212
 20
6.092
 30
0.0
 10
0.2212
 20
6.092
 30
0.0
  0
SPLINE
  5
A2
330
1F
100
AcDbEntity
  8
Ilustrace
 62
   250
370
    30
100
AcDbSpline
210
0.0
220
0.0
230
1.0
 70
    24
 71
     3
 72
     8
 73
     4
 74
     0
 42
0.0000000001
 43
0.0000000001
 40
0.0
 40
0.0
 40
0.0
 40
0.0
 40
1.0
 40
1.0
 40
1.0
 40
1.0
 10
-2.1785
 20
8.4914
 30
0.0
 10
-2.1785
 20
8.4914
 30
0.0
 10
-2.1785
 20
10.8913
 30
0.0
 10
-2.1785
 20
10.8913
 30
0.0
  0
SPLINE
  5
A3
330
1F
100
AcDbEntity
  8
Ilustrace
 62
   250
370
    30
100
AcDbSpline
210
0.0
220
0.0
230
1.0
 70
    24
 71
     3
 72
     8
 73
     4
 74
     0
 42
0.0000000001
 43
0.0000000001
 40
0.0
 40
0.0
 40
0.0
 40
0.0
 40
1.0
 40
1.0
 40
1.0
 40
1.0
 10
-2.1785
 20
8.4914
 30
0.0
 10
-2.1785
 20
8.4914
 30
0.0
 10
-4.5783
 20
8.4914
 30
0.0
 10
-4.5783
 20
8.4914
 30
0.0
  0
SPLINE
  5
A4
330
1F
100
AcDbEntity
  8
Ilustrace
 62
   250
370
    30
100
AcDbSpline
210
0.0
220
0.0
230
1.0
 70
    24
 71
     3
 72
     8
 73
     4
 74
     0
 42
0.0000000001
 43
0.0000000001
 40
0.0
 40
0.0
 40
0.0
 40
0.0
 40
1.0
 40
1.0
 40
1.0
 40
1.0
 10
-6.9778
 20
8.4914
 30
0.0
 10
-6.9778
 20
8.4914
 30
0.0
 10
-6.9778
 20
10.8913
 30
0.0
 10
-6.9778
 20
10.8913
 30
0.0
  0
SPLINE
  5
A5
330
1F
100
AcDbEntity
  8
Ilustrace
 62
   250
370
    30
100
AcDbSpline
210
0.0
220
0.0
230
1.0
 70
    24
 71
     3
 72
     8
 73
     4
 74
     0
 42
0.0000000001
 43
0.0000000001
 40
0.0
 40
0.0
 40
0.0
 40
0.0
 40
1.0
 40
1.0
 40
1.0
 40
1.0
 10
-9.3776
 20
10.8913
 30
0.0
 10
-9.3776
 20
10.8913
 30
0.0
 10
-6.9778
 20
10.8913
 30
0.0
 10
-6.9778
 20
10.8913
 30
0.0
  0
SPLINE
  5
A6
330
1F
100
AcDbEntity
  8
Ilustrace
 62
   250
370
    30
100
AcDbSpline
210
0.0
220
0.0
230
1.0
 70
    24
 71
     3
 72
     8
 73
     4
 74
     0
 42
0.0000000001
 43
0.0000000001
 40
0.0
 40
0.0
 40
0.0
 40
0.0
 40
1.0
 40
1.0
 40
1.0
 40
1.0
 10
-4.5783
 20
8.4914
 30
0.0
 10
-4.5783
 20
8.4914
 30
0.0
 10
-4.5783
 20
10.8913
 30
0.0
 10
-4.5783
 20
10.8913
 30
0.0
  0
SPLINE
  5
A7
330
1F
100
AcDbEntity
  8
Ilustrace
 62
   250
370
    30
100
AcDbSpline
210
0.0
220
0.0
230
1.0
 70
    24
 71
     3
 72
     8
 73
     4
 74
     0
 42
0.0000000001
 43
0.0000000001
 40
0.0
 40
0.0
 40
0.0
 40
0.0
 40
1.0
 40
1.0
 40
1.0
 40
1.0
 10
-2.1785
 20
10.8913
 30
0.0
 10
-2.1785
 20
10.8913
 30
0.0
 10
-4.5783
 20
10.8913
 30
0.0
 10
-4.5783
 20
10.8913
 30
0.0
  0
SPLINE
  5
A8
330
1F
100
AcDbEntity
  8
Ilustrace
 62
   250
370
    30
100
AcDbSpline
210
0.0
220
0.0
230
1.0
 70
    24
 71
     3
 72
     8
 73
     4
 74
     0
 42
0.0000000001
 43
0.0000000001
 40
0.0
 40
0.0
 40
0.0
 40
0.0
 40
1.0
 40
1.0
 40
1.0
 40
1.0
 10
-9.3776
 20
8.4914
 30
0.0
 10
-9.3776
 20
8.4914
 30
0.0
 10
-6.9778
 20
8.4914
 30
0.0
 10
-6.9778
 20
8.4914
 30
0.0
  0
SPLINE
  5
A9
330
1F
100
AcDbEntity
  8
Ilustrace
 62
   250
370
    30
100
AcDbSpline
210
0.0
220
0.0
230
1.0
 70
    24
 71
     3
 72
     8
 73
     4
 74
     0
 42
0.0000000001
 43
0.0000000001
 40
0.0
 40
0.0
 40
0.0
 40
0.0
 40
1.0
 40
1.0
 40
1.0
 40
1.0
 10
-2.1785
 20
6.092
 30
0.0
 10
-2.1785
 20
6.092
 30
0.0
 10
-4.5783
 20
6.092
 30
0.0
 10
-4.5783
 20
6.092
 30
0.0
  0
SPLINE
  5
AA
330
1F
100
AcDbEntity
  8
Ilustrace
 62
   250
370
    30
100
AcDbSpline
210
0.0
220
0.0
230
1.0
 70
    24
 71
     3
 72
     8
 73
     4
 74
     0
 42
0.0000000001
 43
0.0000000001
 40
0.0
 40
0.0
 40
0.0
 40
0.0
 40
1.0
 40
1.0
 40
1.0
 40
1.0
 10
-9.3776
 20
3.6924
 30
0.0
 10
-9.3776
 20
3.6924
 30
0.0
 10
-6.9778
 20
3.6924
 30
0.0
 10
-6.9778
 20
3.6924
 30
0.0
  0
SPLINE
  5
AB
330
1F
100
AcDbEntity
  8
Ilustrace
 62
   250
370
    30
100
AcDbSpline
210
0.0
220
0.0
230
1.0
 70
    24
 71
     3
 72
     8
 73
     4
 74
     0
 42
0.0000000001
 43
0.0000000001
 40
0.0
 40
0.0
 40
0.0
 40
0.0
 40
1.0
 40
1.0
 40
1.0
 40
1.0
 10
-4.5783
 20
-1.1071
 30
0.0
 10
-4.5783
 20
-1.1071
 30
0.0
 10
-4.5783
 20
1.2925
 30
0.0
 10
-4.5783
 20
1.2925
 30
0.0
  0
SPLINE
  5
AC
330
1F
100
AcDbEntity
  8
Ilustrace
 62
   250
370
    30
100
AcDbSpline
210
0.0
220
0.0
230
1.0
 70
    24
 71
     3
 72
     8
 73
     4
 74
     0
 42
0.0000000001
 43
0.0000000001
 40
0.0
 40
0.0
 40
0.0
 40
0.0
 40
1.0
 40
1.0
 40
1.0
 40
1.0
 10
-2.1785
 20
3.6924
 30
0.0
 10
-2.1785
 20
3.6924
 30
0.0
 10
-2.1785
 20
6.092
 30
0.0
 10
-2.1785
 20
6.092
 30
0.0
  0
SPLINE
  5
AD
330
1F
100
AcDbEntity
  8
Ilustrace
 62
   250
370
    30
100
AcDbSpline
210
0.0
220
0.0
230
1.0
 70
    24
 71
     3
 72
     8
 73
     4
 74
     0
 42
0.0000000001
 43
0.0000000001
 40
0.0
 40
0.0
 40
0.0
 40
0.0
 40
1.0
 40
1.0
 40
1.0
 40
1.0
 10
0.2212
 20
10.8913
 30
0.0
 10
0.2212
 20
10.8913
 30
0.0
 10
0.2212
 20
8.4914
 30
0.0
 10
0.2212
 20
8.4914
 30
0.0
  0
SPLINE
  5
AE
330
1F
100
AcDbEntity
  8
Ilustrace
 62
   250
370
    30
100
AcDbSpline
210
0.0
220
0.0
230
1.0
 70
    24
 71
     3
 72
     8
 73
     4
 74
     0
 42
0.0000000001
 43
0.0000000001
 40
0.0
 40
0.0
 40
0.0
 40
0.0
 40
1.0
 40
1.0
 40
1.0
 40
1.0
 10
2.6211
 20
3.6924
 30
0.0
 10
2.6211
 20
3.6924
 30
0.0
 10
2.6211
 20
6.092
 30
0.0
 10
2.6211
 20
6.092
 30
0.0
  0
SPLINE
  5
AF
330
1F
100
AcDbEntity
  8
Ilustrace
 62
   250
370
    30
100
AcDbSpline
210
0.0
220
0.0
230
1.0
 70
    24
 71
     3
 72
     8
 73
     4
 74
     0
 42
0.0000000001
 43
0.0000000001
 40
0.0
 40
0.0
 40
0.0
 40
0.0
 40
1.0
 40
1.0
 40
1.0
 40
1.0
 10
0.2212
 20
6.092
 30
0.0
 10
0.2212
 20
6.092
 30
0.0
 10
2.6211
 20
6.092
 30
0.0
 10
2.6211
 20
6.092
 30
0.0
  0
SPLINE
  5
B0
330
1F
100
AcDbEntity
  8
Ilustrace
 62
   250
370
    30
100
AcDbSpline
210
0.0
220
0.0
230
1.0
 70
    24
 71
     3
 72
     8
 73
     4
 74
     0
 42
0.0000000001
 43
0.0000000001
 40
0.0
 40
0.0
 40
0.0
 40
0.0
 40
1.0
 40
1.0
 40
1.0
 40
1.0
 10
-4.5783
 20
3.6924
 30
0.0
 10
-4.5783
 20
3.6924
 30
0.0
 10
-2.1785
 20
3.6924
 30
0.0
 10
-2.1785
 20
3.6924
 30
0.0
  0
SPLINE
  5
B1
330
1F
100
AcDbEntity
  8
Ilustrace
 62
   250
370
    30
100
AcDbSpline
210
0.0
220
0.0
230
1.0
 70
    24
 71
     3
 72
     8
 73
     4
 74
     0
 42
0.0000000001
 43
0.0000000001
 40
0.0
 40
0.0
 40
0.0
 40
0.0
 40
1.0
 40
1.0
 40
1.0
 40
1.0
 10
2.6211
 20
1.2925
 30
0.0
 10
2.6211
 20
1.2925
 30
0.0
 10
0.2212
 20
1.2925
 30
0.0
 10
0.2212
 20
1.2925
 30
0.0
  0
SPLINE
  5
B2
330
1F
100
AcDbEntity
  8
Ilustrace
 62
   250
370
    30
100
AcDbSpline
210
0.0
220
0.0
230
1.0
 70
    24
 71
     3
 72
     8
 73
     4
 74
     0
 42
0.0000000001
 43
0.0000000001
 40
0.0
 40
0.0
 40
0.0
 40
0.0
 40
1.0
 40
1.0
 40
1.0
 40
1.0
 10
0.2212
 20
-1.1071
 30
0.0
 10
0.2212
 20
-1.1071
 30
0.0
 10
0.2212
 20
1.2925
 30
0.0
 10
0.2212
 20
1.2925
 30
0.0
  0
SPLINE
  5
B3
330
1F
100
AcDbEntity
  8
Ilustrace
 62
   250
370
    30
100
AcDbSpline
210
0.0
220
0.0
230
1.0
 70
    24
 71
     3
 72
     8
 73
     4
 74
     0
 42
0.0000000001
 43
0.0000000001
 40
0.0
 40
0.0
 40
0.0
 40
0.0
 40
1.0
 40
1.0
 40
1.0
 40
1.0
 10
-4.5783
 20
3.6924
 30
0.0
 10
-4.5783
 20
3.6924
 30
0.0
 10
-4.5783
 20
6.092
 30
0.0
 10
-4.5783
 20
6.092
 30
0.0
  0
SPLINE
  5
B4
330
1F
100
AcDbEntity
  8
Ilustrace
 62
   250
370
    30
100
AcDbSpline
210
0.0
220
0.0
230
1.0
 70
    24
 71
     3
 72
     8
 73
     4
 74
     0
 42
0.0000000001
 43
0.0000000001
 40
0.0
 40
0.0
 40
0.0
 40
0.0
 40
1.0
 40
1.0
 40
1.0
 40
1.0
 10
-6.9778
 20
6.092
 30
0.0
 10
-6.9778
 20
6.092
 30
0.0
 10
-9.3776
 20
6.092
 30
0.0
 10
-9.3776
 20
6.092
 30
0.0
  0
SPLINE
  5
B5
330
1F
100
AcDbEntity
  8
Ilustrace
 62
   250
370
    30
100
AcDbSpline
210
0.0
220
0.0
230
1.0
 70
    24
 71
     3
 72
     8
 73
     4
 74
     0
 42
0.0000000001
 43
0.0000000001
 40
0.0
 40
0.0
 40
0.0
 40
0.0
 40
1.0
 40
1.0
 40
1.0
 40
1.0
 10
-11.7773
 20
8.4914
 30
0.0
 10
-11.7773
 20
8.4914
 30
0.0
 10
-11.7773
 20
10.8913
 30
0.0
 10
-11.7773
 20
10.8913
 30
0.0
  0
SPLINE
  5
B6
330
1F
100
AcDbEntity
  8
Ilustrace
 62
   250
370
    30
100
AcDbSpline
210
0.0
220
0.0
230
1.0
 70
    24
 71
     3
 72
     8
 73
     4
 74
     0
 42
0.0000000001
 43
0.0000000001
 40
0.0
 40
0.0
 40
0.0
 40
0.0
 40
1.0
 40
1.0
 40
1.0
 40
1.0
 10
-11.7773
 20
8.4914
 30
0.0
 10
-11.7773
 20
8.4914
 30
0.0
 10
-14.177
 20
8.4914
 30
0.0
 10
-14.177
 20
8.4914
 30
0.0
  0
SPLINE
  5
B7
330
1F
100
AcDbEntity
  8
Ilustrace
 62
   250
370
    30
100
AcDbSpline
210
0.0
220
0.0
230
1.0
 70
    24
 71
     3
 72
     8
 73
     4
 74
     0
 42
0.0000000001
 43
0.0000000001
 40
0.0
 40
0.0
 40
0.0
 40
0.0
 40
1.0
 40
1.0
 40
1.0
 40
1.0
 10
-18.9765
 20
10.8913
 30
0.0
 10
-18.9765
 20
10.8913
 30
0.0
 10
-16.5768
 20
10.8913
 30
0.0
 10
-16.5768
 20
10.8913
 30
0.0
  0
SPLINE
  5
B8
330
1F
100
AcDbEntity
  8
Ilustrace
 62
   250
370
    30
100
AcDbSpline
210
0.0
220
0.0
230
1.0
 70
    24
 71
     3
 72
     8
 73
     4
 74
     0
 42
0.0000000001
 43
0.0000000001
 40
0.0
 40
0.0
 40
0.0
 40
0.0
 40
1.0
 40
1.0
 40
1.0
 40
1.0
 10
-14.177
 20
8.4914
 30
0.0
 10
-14.177
 20
8.4914
 30
0.0
 10
-14.177
 20
10.8913
 30
0.0
 10
-14.177
 20
10.8913
 30
0.0
  0
SPLINE
  5
B9
330
1F
100
AcDbEntity
  8
Ilustrace
 62
   250
370
    30
100
AcDbSpline
210
0.0
220
0.0
230
1.0
 70
    24
 71
     3
 72
     8
 73
     4
 74
     0
 42
0.0000000001
 43
0.0000000001
 40
0.0
 40
0.0
 40
0.0
 40
0.0
 40
1.0
 40
1.0
 40
1.0
 40
1.0
 10
-11.7773
 20
10.8913
 30
0.0
 10
-11.7773
 20
10.8913
 30
0.0
 10
-14.177
 20
10.8913
 30
0.0
 10
-14.177
 20
10.8913
 30
0.0
  0
SPLINE
  5
BA
330
1F
100
AcDbEntity
  8
Ilustrace
 62
   250
370
    30
100
AcDbSpline
210
0.0
220
0.0
230
1.0
 70
    24
 71
     3
 72
     8
 73
     4
 74
     0
 42
0.0000000001
 43
0.0000000001
 40
0.0
 40
0.0
 40
0.0
 40
0.0
 40
1.0
 40
1.0
 40
1.0
 40
1.0
 10
-16.5768
 20
8.4914
 30
0.0
 10
-16.5768
 20
8.4914
 30
0.0
 10
-18.9765
 20
8.4914
 30
0.0
 10
-18.9765
 20
8.4914
 30
0.0
  0
SPLINE
  5
BB
330
1F
100
AcDbEntity
  8
Ilustrace
 62
   250
370
    30
100
AcDbSpline
210
0.0
220
0.0
230
1.0
 70
    24
 71
     3
 72
     8
 73
     4
 74
     0
 42
0.0000000001
 43
0.0000000001
 40
0.0
 40
0.0
 40
0.0
 40
0.0
 40
1.0
 40
1.0
 40
1.0
 40
1.0
 10
-16.5768
 20
8.4914
 30
0.0
 10
-16.5768
 20
8.4914
 30
0.0
 10
-16.5768
 20
10.8913
 30
0.0
 10
-16.5768
 20
10.8913
 30
0.0
  0
SPLINE
  5
BC
330
1F
100
AcDbEntity
  8
Ilustrace
 62
   250
370
    30
100
AcDbSpline
210
0.0
220
0.0
230
1.0
 70
    24
 71
     3
 72
     8
 73
     4
 74
     0
 42
0.0000000001
 43
0.0000000001
 40
0.0
 40
0.0
 40
0.0
 40
0.0
 40
1.0
 40
1.0
 40
1.0
 40
1.0
 10
-18.9765
 20
10.8913
 30
0.0
 10
-18.9765
 20
10.8913
 30
0.0
 10
-18.9765
 20
8.4914
 30
0.0
 10
-18.9765
 20
8.4914
 30
0.0
  0
SPLINE
  5
BD
330
1F
100
AcDbEntity
  8
Ilustrace
 62
   250
370
    30
100
AcDbSpline
210
0.0
220
0.0
230
1.0
 70
    24
 71
     3
 72
     8
 73
     4
 74
     0
 42
0.0000000001
 43
0.0000000001
 40
0.0
 40
0.0
 40
0.0
 40
0.0
 40
1.0
 40
1.0
 40
1.0
 40
1.0
 10
-14.177
 20
6.092
 30
0.0
 10
-14.177
 20
6.092
 30
0.0
 10
-11.7773
 20
6.092
 30
0.0
 10
-11.7773
 20
6.092
 30
0.0
  0
SPLINE
  5
BE
330
1F
100
AcDbEntity
  8
Ilustrace
 62
   250
370
    30
100
AcDbSpline
210
0.0
220
0.0
230
1.0
 70
    24
 71
     3
 72
     8
 73
     4
 74
     0
 42
0.0000000001
 43
0.0000000001
 40
0.0
 40
0.0
 40
0.0
 40
0.0
 40
1.0
 40
1.0
 40
1.0
 40
1.0
 10
-9.3776
 20
6.092
 30
0.0
 10
-9.3776
 20
6.092
 30
0.0
 10
-9.3776
 20
3.6924
 30
0.0
 10
-9.3776
 20
3.6924
 30
0.0
  0
SPLINE
  5
BF
330
1F
100
AcDbEntity
  8
Ilustrace
 62
   250
370
    30
100
AcDbSpline
210
0.0
220
0.0
230
1.0
 70
    24
 71
     3
 72
     8
 73
     4
 74
     0
 42
0.0000000001
 43
0.0000000001
 40
0.0
 40
0.0
 40
0.0
 40
0.0
 40
1.0
 40
1.0
 40
1.0
 40
1.0
 10
-11.7773
 20
-1.1071
 30
0.0
 10
-11.7773
 20
-1.1071
 30
0.0
 10
-11.7773
 20
1.2925
 30
0.0
 10
-11.7773
 20
1.2925
 30
0.0
  0
SPLINE
  5
C0
330
1F
100
AcDbEntity
  8
Ilustrace
 62
   250
370
    30
100
AcDbSpline
210
0.0
220
0.0
230
1.0
 70
    24
 71
     3
 72
     8
 73
     4
 74
     0
 42
0.0000000001
 43
0.0000000001
 40
0.0
 40
0.0
 40
0.0
 40
0.0
 40
1.0
 40
1.0
 40
1.0
 40
1.0
 10
-14.177
 20
3.6924
 30
0.0
 10
-14.177
 20
3.6924
 30
0.0
 10
-14.177
 20
6.092
 30
0.0
 10
-14.177
 20
6.092
 30
0.0
  0
SPLINE
  5
C1
330
1F
100
AcDbEntity
  8
Ilustrace
 62
   250
370
    30
100
AcDbSpline
210
0.0
220
0.0
230
1.0
 70
    24
 71
     3
 72
     8
 73
     4
 74
     0
 42
0.0000000001
 43
0.0000000001
 40
0.0
 40
0.0
 40
0.0
 40
0.0
 40
1.0
 40
1.0
 40
1.0
 40
1.0
 10
-11.7773
 20
6.092
 30
0.0
 10
-11.7773
 20
6.092
 30
0.0
 10
-11.7773
 20
3.6924
 30
0.0
 10
-11.7773
 20
3.6924
 30
0.0
  0
SPLINE
  5
C2
330
1F
100
AcDbEntity
  8
Ilustrace
 62
   250
370
    30
100
AcDbSpline
210
0.0
220
0.0
230
1.0
 70
    24
 71
     3
 72
     8
 73
     4
 74
     0
 42
0.0000000001
 43
0.0000000001
 40
0.0
 40
0.0
 40
0.0
 40
0.0
 40
1.0
 40
1.0
 40
1.0
 40
1.0
 10
-9.3776
 20
-1.1071
 30
0.0
 10
-9.3776
 20
-1.1071
 30
0.0
 10
-9.3776
 20
1.2925
 30
0.0
 10
-9.3776
 20
1.2925
 30
0.0
  0
SPLINE
  5
C3
330
1F
100
AcDbEntity
  8
Ilustrace
 62
   250
370
    30
100
AcDbSpline
210
0.0
220
0.0
230
1.0
 70
    24
 71
     3
 72
     8
 73
     4
 74
     0
 42
0.0000000001
 43
0.0000000001
 40
0.0
 40
0.0
 40
0.0
 40
0.0
 40
1.0
 40
1.0
 40
1.0
 40
1.0
 10
-6.9778
 20
3.6924
 30
0.0
 10
-6.9778
 20
3.6924
 30
0.0
 10
-6.9778
 20
6.092
 30
0.0
 10
-6.9778
 20
6.092
 30
0.0
  0
SPLINE
  5
C4
330
1F
100
AcDbEntity
  8
Ilustrace
 62
   250
370
    30
100
AcDbSpline
210
0.0
220
0.0
230
1.0
 70
    24
 71
     3
 72
     8
 73
     4
 74
     0
 42
0.0000000001
 43
0.0000000001
 40
0.0
 40
0.0
 40
0.0
 40
0.0
 40
1.0
 40
1.0
 40
1.0
 40
1.0
 10
-9.3776
 20
8.4914
 30
0.0
 10
-9.3776
 20
8.4914
 30
0.0
 10
-9.3776
 20
10.8913
 30
0.0
 10
-9.3776
 20
10.8913
 30
0.0
  0
SPLINE
  5
C5
330
1F
100
AcDbEntity
  8
Ilustrace
 62
   250
370
    30
100
AcDbSpline
210
0.0
220
0.0
230
1.0
 70
    24
 71
     3
 72
     8
 73
     4
 74
     0
 42
0.0000000001
 43
0.0000000001
 40
0.0
 40
0.0
 40
0.0
 40
0.0
 40
1.0
 40
1.0
 40
1.0
 40
1.0
 10
-6.9778
 20
-1.1071
 30
0.0
 10
-6.9778
 20
-1.1071
 30
0.0
 10
-6.9778
 20
1.2925
 30
0.0
 10
-6.9778
 20
1.2925
 30
0.0
  0
SPLINE
  5
C6
330
1F
100
AcDbEntity
  8
Ilustrace
 62
   250
370
    30
100
AcDbSpline
210
0.0
220
0.0
230
1.0
 70
    24
 71
     3
 72
     8
 73
     4
 74
     0
 42
0.0000000001
 43
0.0000000001
 40
0.0
 40
0.0
 40
0.0
 40
0.0
 40
1.0
 40
1.0
 40
1.0
 40
1.0
 10
-6.9778
 20
-1.1071
 30
0.0
 10
-6.9778
 20
-1.1071
 30
0.0
 10
-9.3776
 20
-1.1071
 30
0.0
 10
-9.3776
 20
-1.1071
 30
0.0
  0
SPLINE
  5
C7
330
1F
100
AcDbEntity
  8
Ilustrace
 62
   250
370
    30
100
AcDbSpline
210
0.0
220
0.0
230
1.0
 70
    24
 71
     3
 72
     8
 73
     4
 74
     0
 42
0.0000000001
 43
0.0000000001
 40
0.0
 40
0.0
 40
0.0
 40
0.0
 40
1.0
 40
1.0
 40
1.0
 40
1.0
 10
-14.177
 20
-3.5068
 30
0.0
 10
-14.177
 20
-3.5068
 30
0.0
 10
-11.7773
 20
-3.5068
 30
0.0
 10
-11.7773
 20
-3.5068
 30
0.0
  0
SPLINE
  5
C8
330
1F
100
AcDbEntity
  8
Ilustrace
 62
   250
370
    30
100
AcDbSpline
210
0.0
220
0.0
230
1.0
 70
    24
 71
     3
 72
     8
 73
     4
 74
     0
 42
0.0000000001
 43
0.0000000001
 40
0.0
 40
0.0
 40
0.0
 40
0.0
 40
1.0
 40
1.0
 40
1.0
 40
1.0
 10
-6.9778
 20
-3.5068
 30
0.0
 10
-6.9778
 20
-3.5068
 30
0.0
 10
-9.3776
 20
-3.5068
 30
0.0
 10
-9.3776
 20
-3.5068
 30
0.0
  0
SPLINE
  5
C9
330
1F
100
AcDbEntity
  8
Ilustrace
 62
   250
370
    30
100
AcDbSpline
210
0.0
220
0.0
230
1.0
 70
    24
 71
     3
 72
     8
 73
     4
 74
     0
 42
0.0000000001
 43
0.0000000001
 40
0.0
 40
0.0
 40
0.0
 40
0.0
 40
1.0
 40
1.0
 40
1.0
 40
1.0
 10
-11.7773
 20
-3.5068
 30
0.0
 10
-11.7773
 20
-3.5068
 30
0.0
 10
-11.7773
 20
-5.9067
 30
0.0
 10
-11.7773
 20
-5.9067
 30
0.0
  0
SPLINE
  5
CA
330
1F
100
AcDbEntity
  8
Ilustrace
 62
   250
370
    30
100
AcDbSpline
210
0.0
220
0.0
230
1.0
 70
    24
 71
     3
 72
     8
 73
     4
 74
     0
 42
0.0000000001
 43
0.0000000001
 40
0.0
 40
0.0
 40
0.0
 40
0.0
 40
1.0
 40
1.0
 40
1.0
 40
1.0
 10
-9.3776
 20
-8.3063
 30
0.0
 10
-9.3776
 20
-8.3063
 30
0.0
 10
-9.3776
 20
-10.706
 30
0.0
 10
-9.3776
 20
-10.706
 30
0.0
  0
SPLINE
  5
CB
330
1F
100
AcDbEntity
  8
Ilustrace
 62
   250
370
    30
100
AcDbSpline
210
0.0
220
0.0
230
1.0
 70
    24
 71
     3
 72
     8
 73
     4
 74
     0
 42
0.0000000001
 43
0.0000000001
 40
0.0
 40
0.0
 40
0.0
 40
0.0
 40
1.0
 40
1.0
 40
1.0
 40
1.0
 10
-11.7773
 20
-15.5053
 30
0.0
 10
-11.7773
 20
-15.5053
 30
0.0
 10
-11.7773
 20
-13.1057
 30
0.0
 10
-11.7773
 20
-13.1057
 30
0.0
  0
SPLINE
  5
CC
330
1F
100
AcDbEntity
  8
Ilustrace
 62
   250
370
    30
100
AcDbSpline
210
0.0
220
0.0
230
1.0
 70
    24
 71
     3
 72
     8
 73
     4
 74
     0
 42
0.0000000001
 43
0.0000000001
 40
0.0
 40
0.0
 40
0.0
 40
0.0
 40
1.0
 40
1.0
 40
1.0
 40
1.0
 10
-14.177
 20
-10.706
 30
0.0
 10
-14.177
 20
-10.706
 30
0.0
 10
-14.177
 20
-8.3063
 30
0.0
 10
-14.177
 20
-8.3063
 30
0.0
  0
SPLINE
  5
CD
330
1F
100
AcDbEntity
  8
Ilustrace
 62
   250
370
    30
100
AcDbSpline
210
0.0
220
0.0
230
1.0
 70
    24
 71
     3
 72
     8
 73
     4
 74
     0
 42
0.0000000001
 43
0.0000000001
 40
0.0
 40
0.0
 40
0.0
 40
0.0
 40
1.0
 40
1.0
 40
1.0
 40
1.0
 10
-18.9765
 20
-5.9067
 30
0.0
 10
-18.9765
 20
-5.9067
 30
0.0
 10
-16.5768
 20
-5.9067
 30
0.0
 10
-16.5768
 20
-5.9067
 30
0.0
  0
SPLINE
  5
CE
330
1F
100
AcDbEntity
  8
Ilustrace
 62
   250
370
    30
100
AcDbSpline
210
0.0
220
0.0
230
1.0
 70
    24
 71
     3
 72
     8
 73
     4
 74
     0
 42
0.0000000001
 43
0.0000000001
 40
0.0
 40
0.0
 40
0.0
 40
0.0
 40
1.0
 40
1.0
 40
1.0
 40
1.0
 10
-14.177
 20
-3.5068
 30
0.0
 10
-14.177
 20
-3.5068
 30
0.0
 10
-14.177
 20
-5.9067
 30
0.0
 10
-14.177
 20
-5.9067
 30
0.0
  0
SPLINE
  5
CF
330
1F
100
AcDbEntity
  8
Ilustrace
 62
   250
370
    30
100
AcDbSpline
210
0.0
220
0.0
230
1.0
 70
    24
 71
     3
 72
     8
 73
     4
 74
     0
 42
0.0000000001
 43
0.0000000001
 40
0.0
 40
0.0
 40
0.0
 40
0.0
 40
1.0
 40
1.0
 40
1.0
 40
1.0
 10
-11.7773
 20
-8.3063
 30
0.0
 10
-11.7773
 20
-8.3063
 30
0.0
 10
-11.7773
 20
-10.706
 30
0.0
 10
-11.7773
 20
-10.706
 30
0.0
  0
SPLINE
  5
D0
330
1F
100
AcDbEntity
  8
Ilustrace
 62
   250
370
    30
100
AcDbSpline
210
0.0
220
0.0
230
1.0
 70
    24
 71
     3
 72
     8
 73
     4
 74
     0
 42
0.0000000001
 43
0.0000000001
 40
0.0
 40
0.0
 40
0.0
 40
0.0
 40
1.0
 40
1.0
 40
1.0
 40
1.0
 10
-9.3776
 20
-15.5053
 30
0.0
 10
-9.3776
 20
-15.5053
 30
0.0
 10
-9.3776
 20
-13.1057
 30
0.0
 10
-9.3776
 20
-13.1057
 30
0.0
  0
SPLINE
  5
D1
330
1F
100
AcDbEntity
  8
Ilustrace
 62
   250
370
    30
100
AcDbSpline
210
0.0
220
0.0
230
1.0
 70
    24
 71
     3
 72
     8
 73
     4
 74
     0
 42
0.0000000001
 43
0.0000000001
 40
0.0
 40
0.0
 40
0.0
 40
0.0
 40
1.0
 40
1.0
 40
1.0
 40
1.0
 10
-6.9778
 20
-10.706
 30
0.0
 10
-6.9778
 20
-10.706
 30
0.0
 10
-6.9778
 20
-8.3063
 30
0.0
 10
-6.9778
 20
-8.3063
 30
0.0
  0
SPLINE
  5
D2
330
1F
100
AcDbEntity
  8
Ilustrace
 62
   250
370
    30
100
AcDbSpline
210
0.0
220
0.0
230
1.0
 70
    24
 71
     3
 72
     8
 73
     4
 74
     0
 42
0.0000000001
 43
0.0000000001
 40
0.0
 40
0.0
 40
0.0
 40
0.0
 40
1.0
 40
1.0
 40
1.0
 40
1.0
 10
-2.1785
 20
-5.9067
 30
0.0
 10
-2.1785
 20
-5.9067
 30
0.0
 10
-4.5783
 20
-5.9067
 30
0.0
 10
-4.5783
 20
-5.9067
 30
0.0
  0
SPLINE
  5
D3
330
1F
100
AcDbEntity
  8
Ilustrace
 62
   250
370
    30
100
AcDbSpline
210
0.0
220
0.0
230
1.0
 70
    24
 71
     3
 72
     8
 73
     4
 74
     0
 42
0.0000000001
 43
0.0000000001
 40
0.0
 40
0.0
 40
0.0
 40
0.0
 40
1.0
 40
1.0
 40
1.0
 40
1.0
 10
-6.9778
 20
-8.3063
 30
0.0
 10
-6.9778
 20
-8.3063
 30
0.0
 10
-9.3776
 20
-8.3063
 30
0.0
 10
-9.3776
 20
-8.3063
 30
0.0
  0
SPLINE
  5
D4
330
1F
100
AcDbEntity
  8
Ilustrace
 62
   250
370
    30
100
AcDbSpline
210
0.0
220
0.0
230
1.0
 70
    24
 71
     3
 72
     8
 73
     4
 74
     0
 42
0.0000000001
 43
0.0000000001
 40
0.0
 40
0.0
 40
0.0
 40
0.0
 40
1.0
 40
1.0
 40
1.0
 40
1.0
 10
-14.177
 20
-10.706
 30
0.0
 10
-14.177
 20
-10.706
 30
0.0
 10
-11.7773
 20
-10.706
 30
0.0
 10
-11.7773
 20
-10.706
 30
0.0
  0
SPLINE
  5
D5
330
1F
100
AcDbEntity
  8
Ilustrace
 62
   250
370
    30
100
AcDbSpline
210
0.0
220
0.0
230
1.0
 70
    24
 71
     3
 72
     8
 73
     4
 74
     0
 42
0.0000000001
 43
0.0000000001
 40
0.0
 40
0.0
 40
0.0
 40
0.0
 40
1.0
 40
1.0
 40
1.0
 40
1.0
 10
-6.9778
 20
-13.1057
 30
0.0
 10
-6.9778
 20
-13.1057
 30
0.0
 10
-9.3776
 20
-13.1057
 30
0.0
 10
-9.3776
 20
-13.1057
 30
0.0
  0
SPLINE
  5
D6
330
1F
100
AcDbEntity
  8
Ilustrace
 62
   250
370
    30
100
AcDbSpline
210
0.0
220
0.0
230
1.0
 70
    24
 71
     3
 72
     8
 73
     4
 74
     0
 42
0.0000000001
 43
0.0000000001
 40
0.0
 40
0.0
 40
0.0
 40
0.0
 40
1.0
 40
1.0
 40
1.0
 40
1.0
 10
-14.177
 20
-15.5053
 30
0.0
 10
-14.177
 20
-15.5053
 30
0.0
 10
-11.7773
 20
-15.5053
 30
0.0
 10
-11.7773
 20
-15.5053
 30
0.0
  0
SPLINE
  5
D7
330
1F
100
AcDbEntity
  8
Ilustrace
 62
   250
370
    30
100
AcDbSpline
210
0.0
220
0.0
230
1.0
 70
    24
 71
     3
 72
     8
 73
     4
 74
     0
 42
0.0000000001
 43
0.0000000001
 40
0.0
 40
0.0
 40
0.0
 40
0.0
 40
1.0
 40
1.0
 40
1.0
 40
1.0
 10
-9.3776
 20
-20.305
 30
0.0
 10
-9.3776
 20
-20.305
 30
0.0
 10
-9.3776
 20
-17.9052
 30
0.0
 10
-9.3776
 20
-17.9052
 30
0.0
  0
SPLINE
  5
D8
330
1F
100
AcDbEntity
  8
Ilustrace
 62
   250
370
    30
100
AcDbSpline
210
0.0
220
0.0
230
1.0
 70
    24
 71
     3
 72
     8
 73
     4
 74
     0
 42
0.0000000001
 43
0.0000000001
 40
0.0
 40
0.0
 40
0.0
 40
0.0
 40
1.0
 40
1.0
 40
1.0
 40
1.0
 10
-6.9778
 20
-15.5053
 30
0.0
 10
-6.9778
 20
-15.5053
 30
0.0
 10
-6.9778
 20
-13.1057
 30
0.0
 10
-6.9778
 20
-13.1057
 30
0.0
  0
SPLINE
  5
D9
330
1F
100
AcDbEntity
  8
Ilustrace
 62
   250
370
    30
100
AcDbSpline
210
0.0
220
0.0
230
1.0
 70
    24
 71
     3
 72
     8
 73
     4
 74
     0
 42
0.0000000001
 43
0.0000000001
 40
0.0
 40
0.0
 40
0.0
 40
0.0
 40
1.0
 40
1.0
 40
1.0
 40
1.0
 10
-4.5783
 20
-10.706
 30
0.0
 10
-4.5783
 20
-10.706
 30
0.0
 10
-2.1785
 20
-10.706
 30
0.0
 10
-2.1785
 20
-10.706
 30
0.0
  0
SPLINE
  5
DA
330
1F
100
AcDbEntity
  8
Ilustrace
 62
   250
370
    30
100
AcDbSpline
210
0.0
220
0.0
230
1.0
 70
    24
 71
     3
 72
     8
 73
     4
 74
     0
 42
0.0000000001
 43
0.0000000001
 40
0.0
 40
0.0
 40
0.0
 40
0.0
 40
1.0
 40
1.0
 40
1.0
 40
1.0
 10
2.6211
 20
-13.1057
 30
0.0
 10
2.6211
 20
-13.1057
 30
0.0
 10
0.2212
 20
-13.1057
 30
0.0
 10
0.2212
 20
-13.1057
 30
0.0
  0
SPLINE
  5
DB
330
1F
100
AcDbEntity
  8
Ilustrace
 62
   250
370
    30
100
AcDbSpline
210
0.0
220
0.0
230
1.0
 70
    24
 71
     3
 72
     8
 73
     4
 74
     0
 42
0.0000000001
 43
0.0000000001
 40
0.0
 40
0.0
 40
0.0
 40
0.0
 40
1.0
 40
1.0
 40
1.0
 40
1.0
 10
-2.1785
 20
-15.5053
 30
0.0
 10
-2.1785
 20
-15.5053
 30
0.0
 10
-4.5783
 20
-15.5053
 30
0.0
 10
-4.5783
 20
-15.5053
 30
0.0
  0
SPLINE
  5
DC
330
1F
100
AcDbEntity
  8
Ilustrace
 62
   250
370
    30
100
AcDbSpline
210
0.0
220
0.0
230
1.0
 70
    24
 71
     3
 72
     8
 73
     4
 74
     0
 42
0.0000000001
 43
0.0000000001
 40
0.0
 40
0.0
 40
0.0
 40
0.0
 40
1.0
 40
1.0
 40
1.0
 40
1.0
 10
-6.9778
 20
-17.9052
 30
0.0
 10
-6.9778
 20
-17.9052
 30
0.0
 10
-9.3776
 20
-17.9052
 30
0.0
 10
-9.3776
 20
-17.9052
 30
0.0
  0
SPLINE
  5
DD
330
1F
100
AcDbEntity
  8
Ilustrace
 62
   250
370
    30
100
AcDbSpline
210
0.0
220
0.0
230
1.0
 70
    24
 71
     3
 72
     8
 73
     4
 74
     0
 42
0.0000000001
 43
0.0000000001
 40
0.0
 40
0.0
 40
0.0
 40
0.0
 40
1.0
 40
1.0
 40
1.0
 40
1.0
 10
-14.177
 20
-20.305
 30
0.0
 10
-14.177
 20
-20.305
 30
0.0
 10
-11.7772
 20
-20.305
 30
0.0
 10
-11.7772
 20
-20.305
 30
0.0
  0
SPLINE
  5
DE
330
1F
100
AcDbEntity
  8
Ilustrace
 62
   250
370
    30
100
AcDbSpline
210
0.0
220
0.0
230
1.0
 70
    24
 71
     3
 72
     8
 73
     4
 74
     0
 42
0.0000000001
 43
0.0000000001
 40
0.0
 40
0.0
 40
0.0
 40
0.0
 40
1.0
 40
1.0
 40
1.0
 40
1.0
 10
-6.9778
 20
-20.305
 30
0.0
 10
-6.9778
 20
-20.305
 30
0.0
 10
-9.3776
 20
-20.305
 30
0.0
 10
-9.3776
 20
-20.305
 30
0.0
  0
SPLINE
  5
DF
330
1F
100
AcDbEntity
  8
Ilustrace
 62
   250
370
    30
100
AcDbSpline
210
0.0
220
0.0
230
1.0
 70
    24
 71
     3
 72
     8
 73
     4
 74
     0
 42
0.0000000001
 43
0.0000000001
 40
0.0
 40
0.0
 40
0.0
 40
0.0
 40
1.0
 40
1.0
 40
1.0
 40
1.0
 10
-11.7773
 20
-17.9052
 30
0.0
 10
-11.7773
 20
-17.9052
 30
0.0
 10
-14.177
 20
-17.9052
 30
0.0
 10
-14.177
 20
-17.9052
 30
0.0
  0
SPLINE
  5
E0
330
1F
100
AcDbEntity
  8
Ilustrace
 62
   250
370
    30
100
AcDbSpline
210
0.0
220
0.0
230
1.0
 70
    24
 71
     3
 72
     8
 73
     4
 74
     0
 42
0.0000000001
 43
0.0000000001
 40
0.0
 40
0.0
 40
0.0
 40
0.0
 40
1.0
 40
1.0
 40
1.0
 40
1.0
 10
-16.5768
 20
-15.5053
 30
0.0
 10
-16.5768
 20
-15.5053
 30
0.0
 10
-16.5768
 20
-13.1057
 30
0.0
 10
-16.5768
 20
-13.1057
 30
0.0
  0
SPLINE
  5
E1
330
1F
100
AcDbEntity
  8
Ilustrace
 62
   250
370
    30
100
AcDbSpline
210
0.0
220
0.0
230
1.0
 70
    24
 71
     3
 72
     8
 73
     4
 74
     0
 42
0.0000000001
 43
0.0000000001
 40
0.0
 40
0.0
 40
0.0
 40
0.0
 40
1.0
 40
1.0
 40
1.0
 40
1.0
 10
-18.9765
 20
-8.3063
 30
0.0
 10
-18.9765
 20
-8.3063
 30
0.0
 10
-18.9765
 20
-10.706
 30
0.0
 10
-18.9765
 20
-10.706
 30
0.0
  0
SPLINE
  5
E2
330
1F
100
AcDbEntity
  8
Ilustrace
 62
   250
370
    30
100
AcDbSpline
210
0.0
220
0.0
230
1.0
 70
    24
 71
     3
 72
     8
 73
     4
 74
     0
 42
0.0000000001
 43
0.0000000001
 40
0.0
 40
0.0
 40
0.0
 40
0.0
 40
1.0
 40
1.0
 40
1.0
 40
1.0
 10
-18.9765
 20
-13.1057
 30
0.0
 10
-18.9765
 20
-13.1057
 30
0.0
 10
-18.9765
 20
-15.5053
 30
0.0
 10
-18.9765
 20
-15.5053
 30
0.0
  0
SPLINE
  5
E3
330
1F
100
AcDbEntity
  8
Ilustrace
 62
   250
370
    30
100
AcDbSpline
210
0.0
220
0.0
230
1.0
 70
    24
 71
     3
 72
     8
 73
     4
 74
     0
 42
0.0000000001
 43
0.0000000001
 40
0.0
 40
0.0
 40
0.0
 40
0.0
 40
1.0
 40
1.0
 40
1.0
 40
1.0
 10
-16.5768
 20
-17.9052
 30
0.0
 10
-16.5768
 20
-17.9052
 30
0.0
 10
-18.9765
 20
-17.9052
 30
0.0
 10
-18.9765
 20
-17.9052
 30
0.0
  0
SPLINE
  5
E4
330
1F
100
AcDbEntity
  8
Ilustrace
 62
   250
370
    30
100
AcDbSpline
210
0.0
220
0.0
230
1.0
 70
    24
 71
     3
 72
     8
 73
     4
 74
     0
 42
0.0000000001
 43
0.0000000001
 40
0.0
 40
0.0
 40
0.0
 40
0.0
 40
1.0
 40
1.0
 40
1.0
 40
1.0
 10
-16.5768
 20
-17.9052
 30
0.0
 10
-16.5768
 20
-17.9052
 30
0.0
 10
-16.5768
 20
-20.305
 30
0.0
 10
-16.5768
 20
-20.305
 30
0.0
  0
SPLINE
  5
E5
330
1F
100
AcDbEntity
  8
Ilustrace
 62
   250
370
    30
100
AcDbSpline
210
0.0
220
0.0
230
1.0
 70
    24
 71
     3
 72
     8
 73
     4
 74
     0
 42
0.0000000001
 43
0.0000000001
 40
0.0
 40
0.0
 40
0.0
 40
0.0
 40
1.0
 40
1.0
 40
1.0
 40
1.0
 10
-18.9765
 20
-20.305
 30
0.0
 10
-18.9765
 20
-20.305
 30
0.0
 10
-18.9765
 20
-17.9052
 30
0.0
 10
-18.9765
 20
-17.9052
 30
0.0
  0
SPLINE
  5
E6
330
1F
100
AcDbEntity
  8
Ilustrace
 62
   250
370
    30
100
AcDbSpline
210
0.0
220
0.0
230
1.0
 70
    24
 71
     3
 72
     8
 73
     4
 74
     0
 42
0.0000000001
 43
0.0000000001
 40
0.0
 40
0.0
 40
0.0
 40
0.0
 40
1.0
 40
1.0
 40
1.0
 40
1.0
 10
-16.5768
 20
-15.5053
 30
0.0
 10
-16.5768
 20
-15.5053
 30
0.0
 10
-18.9765
 20
-15.5053
 30
0.0
 10
-18.9765
 20
-15.5053
 30
0.0
  0
SPLINE
  5
E7
330
1F
100
AcDbEntity
  8
Ilustrace
 62
   250
370
    30
100
AcDbSpline
210
0.0
220
0.0
230
1.0
 70
    24
 71
     3
 72
     8
 73
     4
 74
     0
 42
0.0000000001
 43
0.0000000001
 40
0.0
 40
0.0
 40
0.0
 40
0.0
 40
1.0
 40
1.0
 40
1.0
 40
1.0
 10
-18.9765
 20
-13.1057
 30
0.0
 10
-18.9765
 20
-13.1057
 30
0.0
 10
-16.5768
 20
-13.1057
 30
0.0
 10
-16.5768
 20
-13.1057
 30
0.0
  0
SPLINE
  5
E8
330
1F
100
AcDbEntity
  8
Ilustrace
 62
   250
370
    30
100
AcDbSpline
210
0.0
220
0.0
230
1.0
 70
    24
 71
     3
 72
     8
 73
     4
 74
     0
 42
0.0000000001
 43
0.0000000001
 40
0.0
 40
0.0
 40
0.0
 40
0.0
 40
1.0
 40
1.0
 40
1.0
 40
1.0
 10
-11.7773
 20
-13.1057
 30
0.0
 10
-11.7773
 20
-13.1057
 30
0.0
 10
-14.177
 20
-13.1057
 30
0.0
 10
-14.177
 20
-13.1057
 30
0.0
  0
SPLINE
  5
E9
330
1F
100
AcDbEntity
  8
Ilustrace
 62
   250
370
    30
100
AcDbSpline
210
0.0
220
0.0
230
1.0
 70
    24
 71
     3
 72
     8
 73
     4
 74
     0
 42
0.0000000001
 43
0.0000000001
 40
0.0
 40
0.0
 40
0.0
 40
0.0
 40
1.0
 40
1.0
 40
1.0
 40
1.0
 10
-6.9778
 20
-10.706
 30
0.0
 10
-6.9778
 20
-10.706
 30
0.0
 10
-9.3776
 20
-10.706
 30
0.0
 10
-9.3776
 20
-10.706
 30
0.0
  0
SPLINE
  5
EA
330
1F
100
AcDbEntity
  8
Ilustrace
 62
   250
370
    30
100
AcDbSpline
210
0.0
220
0.0
230
1.0
 70
    24
 71
     3
 72
     8
 73
     4
 74
     0
 42
0.0000000001
 43
0.0000000001
 40
0.0
 40
0.0
 40
0.0
 40
0.0
 40
1.0
 40
1.0
 40
1.0
 40
1.0
 10
-4.5783
 20
-8.3063
 30
0.0
 10
-4.5783
 20
-8.3063
 30
0.0
 10
-2.1785
 20
-8.3063
 30
0.0
 10
-2.1785
 20
-8.3063
 30
0.0
  0
SPLINE
  5
EB
330
1F
100
AcDbEntity
  8
Ilustrace
 62
   250
370
    30
100
AcDbSpline
210
0.0
220
0.0
230
1.0
 70
    24
 71
     3
 72
     8
 73
     4
 74
     0
 42
0.0000000001
 43
0.0000000001
 40
0.0
 40
0.0
 40
0.0
 40
0.0
 40
1.0
 40
1.0
 40
1.0
 40
1.0
 10
2.6211
 20
-5.9067
 30
0.0
 10
2.6211
 20
-5.9067
 30
0.0
 10
0.2212
 20
-5.9067
 30
0.0
 10
0.2212
 20
-5.9067
 30
0.0
  0
SPLINE
  5
EC
330
1F
100
AcDbEntity
  8
Ilustrace
 62
   250
370
    30
100
AcDbSpline
210
0.0
220
0.0
230
1.0
 70
    24
 71
     3
 72
     8
 73
     4
 74
     0
 42
0.0000000001
 43
0.0000000001
 40
0.0
 40
0.0
 40
0.0
 40
0.0
 40
1.0
 40
1.0
 40
1.0
 40
1.0
 10
0.2212
 20
-8.3063
 30
0.0
 10
0.2212
 20
-8.3063
 30
0.0
 10
0.2212
 20
-10.706
 30
0.0
 10
0.2212
 20
-10.706
 30
0.0
  0
SPLINE
  5
ED
330
1F
100
AcDbEntity
  8
Ilustrace
 62
   250
370
    30
100
AcDbSpline
210
0.0
220
0.0
230
1.0
 70
    24
 71
     3
 72
     8
 73
     4
 74
     0
 42
0.0000000001
 43
0.0000000001
 40
0.0
 40
0.0
 40
0.0
 40
0.0
 40
1.0
 40
1.0
 40
1.0
 40
1.0
 10
-2.1785
 20
-13.1057
 30
0.0
 10
-2.1785
 20
-13.1057
 30
0.0
 10
-2.1785
 20
-15.5053
 30
0.0
 10
-2.1785
 20
-15.5053
 30
0.0
  0
SPLINE
  5
EE
330
1F
100
AcDbEntity
  8
Ilustrace
 62
   250
370
    30
100
AcDbSpline
210
0.0
220
0.0
230
1.0
 70
    24
 71
     3
 72
     8
 73
     4
 74
     0
 42
0.0000000001
 43
0.0000000001
 40
0.0
 40
0.0
 40
0.0
 40
0.0
 40
1.0
 40
1.0
 40
1.0
 40
1.0
 10
-2.1785
 20
-17.9052
 30
0.0
 10
-2.1785
 20
-17.9052
 30
0.0
 10
-2.1785
 20
-20.305
 30
0.0
 10
-2.1785
 20
-20.305
 30
0.0
  0
SPLINE
  5
EF
330
1F
100
AcDbEntity
  8
Ilustrace
 62
   250
370
    30
100
AcDbSpline
210
0.0
220
0.0
230
1.0
 70
    24
 71
     3
 72
     8
 73
     4
 74
     0
 42
0.0000000001
 43
0.0000000001
 40
0.0
 40
0.0
 40
0.0
 40
0.0
 40
1.0
 40
1.0
 40
1.0
 40
1.0
 10
-4.5783
 20
-17.9052
 30
0.0
 10
-4.5783
 20
-17.9052
 30
0.0
 10
-4.5783
 20
-20.305
 30
0.0
 10
-4.5783
 20
-20.305
 30
0.0
  0
SPLINE
  5
F0
330
1F
100
AcDbEntity
  8
Ilustrace
 62
   250
370
    30
100
AcDbSpline
210
0.0
220
0.0
230
1.0
 70
    24
 71
     3
 72
     8
 73
     4
 74
     0
 42
0.0000000001
 43
0.0000000001
 40
0.0
 40
0.0
 40
0.0
 40
0.0
 40
1.0
 40
1.0
 40
1.0
 40
1.0
 10
-2.1785
 20
-20.305
 30
0.0
 10
-2.1785
 20
-20.305
 30
0.0
 10
-4.5783
 20
-20.305
 30
0.0
 10
-4.5783
 20
-20.305
 30
0.0
  0
SPLINE
  5
F1
330
1F
100
AcDbEntity
  8
Ilustrace
 62
   250
370
    30
100
AcDbSpline
210
0.0
220
0.0
230
1.0
 70
    24
 71
     3
 72
     8
 73
     4
 74
     0
 42
0.0000000001
 43
0.0000000001
 40
0.0
 40
0.0
 40
0.0
 40
0.0
 40
1.0
 40
1.0
 40
1.0
 40
1.0
 10
-6.9778
 20
-17.9052
 30
0.0
 10
-6.9778
 20
-17.9052
 30
0.0
 10
-6.9778
 20
-20.305
 30
0.0
 10
-6.9778
 20
-20.305
 30
0.0
  0
SPLINE
  5
F2
330
1F
100
AcDbEntity
  8
Ilustrace
 62
   250
370
    30
100
AcDbSpline
210
0.0
220
0.0
230
1.0
 70
    24
 71
     3
 72
     8
 73
     4
 74
     0
 42
0.0000000001
 43
0.0000000001
 40
0.0
 40
0.0
 40
0.0
 40
0.0
 40
1.0
 40
1.0
 40
1.0
 40
1.0
 10
-4.5783
 20
-15.5053
 30
0.0
 10
-4.5783
 20
-15.5053
 30
0.0
 10
-4.5783
 20
-13.1057
 30
0.0
 10
-4.5783
 20
-13.1057
 30
0.0
  0
SPLINE
  5
F3
330
1F
100
AcDbEntity
  8
Ilustrace
 62
   250
370
    30
100
AcDbSpline
210
0.0
220
0.0
230
1.0
 70
    24
 71
     3
 72
     8
 73
     4
 74
     0
 42
0.0000000001
 43
0.0000000001
 40
0.0
 40
0.0
 40
0.0
 40
0.0
 40
1.0
 40
1.0
 40
1.0
 40
1.0
 10
-4.5783
 20
-8.3063
 30
0.0
 10
-4.5783
 20
-8.3063
 30
0.0
 10
-4.5783
 20
-10.706
 30
0.0
 10
-4.5783
 20
-10.706
 30
0.0
  0
SPLINE
  5
F4
330
1F
100
AcDbEntity
  8
Ilustrace
 62
   250
370
    30
100
AcDbSpline
210
0.0
220
0.0
230
1.0
 70
    24
 71
     3
 72
     8
 73
     4
 74
     0
 42
0.0000000001
 43
0.0000000001
 40
0.0
 40
0.0
 40
0.0
 40
0.0
 40
1.0
 40
1.0
 40
1.0
 40
1.0
 10
-4.5783
 20
-13.1057
 30
0.0
 10
-4.5783
 20
-13.1057
 30
0.0
 10
-2.1785
 20
-13.1057
 30
0.0
 10
-2.1785
 20
-13.1057
 30
0.0
  0
SPLINE
  5
F5
330
1F
100
AcDbEntity
  8
Ilustrace
 62
   250
370
    30
100
AcDbSpline
210
0.0
220
0.0
230
1.0
 70
    24
 71
     3
 72
     8
 73
     4
 74
     0
 42
0.0000000001
 43
0.0000000001
 40
0.0
 40
0.0
 40
0.0
 40
0.0
 40
1.0
 40
1.0
 40
1.0
 40
1.0
 10
2.6211
 20
-10.706
 30
0.0
 10
2.6211
 20
-10.706
 30
0.0
 10
0.2212
 20
-10.706
 30
0.0
 10
0.2212
 20
-10.706
 30
0.0
  0
SPLINE
  5
F6
330
1F
100
AcDbEntity
  8
Ilustrace
 62
   250
370
    30
100
AcDbSpline
210
0.0
220
0.0
230
1.0
 70
    24
 71
     3
 72
     8
 73
     4
 74
     0
 42
0.0000000001
 43
0.0000000001
 40
0.0
 40
0.0
 40
0.0
 40
0.0
 40
1.0
 40
1.0
 40
1.0
 40
1.0
 10
2.6211
 20
-10.706
 30
0.0
 10
2.6211
 20
-10.706
 30
0.0
 10
2.6211
 20
-8.3063
 30
0.0
 10
2.6211
 20
-8.3063
 30
0.0
  0
SPLINE
  5
F7
330
1F
100
AcDbEntity
  8
Ilustrace
 62
   250
370
    30
100
AcDbSpline
210
0.0
220
0.0
230
1.0
 70
    24
 71
     3
 72
     8
 73
     4
 74
     0
 42
0.0000000001
 43
0.0000000001
 40
0.0
 40
0.0
 40
0.0
 40
0.0
 40
1.0
 40
1.0
 40
1.0
 40
1.0
 10
5.0208
 20
-3.5068
 30
0.0
 10
5.0208
 20
-3.5068
 30
0.0
 10
5.0208
 20
-5.9067
 30
0.0
 10
5.0208
 20
-5.9067
 30
0.0
  0
SPLINE
  5
F8
330
1F
100
AcDbEntity
  8
Ilustrace
 62
   250
370
    30
100
AcDbSpline
210
0.0
220
0.0
230
1.0
 70
    24
 71
     3
 72
     8
 73
     4
 74
     0
 42
0.0000000001
 43
0.0000000001
 40
0.0
 40
0.0
 40
0.0
 40
0.0
 40
1.0
 40
1.0
 40
1.0
 40
1.0
 10
5.0208
 20
-8.3063
 30
0.0
 10
5.0208
 20
-8.3063
 30
0.0
 10
7.4203
 20
-8.3063
 30
0.0
 10
7.4203
 20
-8.3063
 30
0.0
  0
SPLINE
  5
F9
330
1F
100
AcDbEntity
  8
Ilustrace
 62
   250
370
    30
100
AcDbSpline
210
0.0
220
0.0
230
1.0
 70
    24
 71
     3
 72
     8
 73
     4
 74
     0
 42
0.0000000001
 43
0.0000000001
 40
0.0
 40
0.0
 40
0.0
 40
0.0
 40
1.0
 40
1.0
 40
1.0
 40
1.0
 10
5.0208
 20
-8.3063
 30
0.0
 10
5.0208
 20
-8.3063
 30
0.0
 10
5.0208
 20
-10.706
 30
0.0
 10
5.0208
 20
-10.706
 30
0.0
  0
SPLINE
  5
FA
330
1F
100
AcDbEntity
  8
Ilustrace
 62
   250
370
    30
100
AcDbSpline
210
0.0
220
0.0
230
1.0
 70
    24
 71
     3
 72
     8
 73
     4
 74
     0
 42
0.0000000001
 43
0.0000000001
 40
0.0
 40
0.0
 40
0.0
 40
0.0
 40
1.0
 40
1.0
 40
1.0
 40
1.0
 10
7.4203
 20
-15.5053
 30
0.0
 10
7.4203
 20
-15.5053
 30
0.0
 10
7.4203
 20
-13.1057
 30
0.0
 10
7.4203
 20
-13.1057
 30
0.0
  0
SPLINE
  5
FB
330
1F
100
AcDbEntity
  8
Ilustrace
 62
   250
370
    30
100
AcDbSpline
210
0.0
220
0.0
230
1.0
 70
    24
 71
     3
 72
     8
 73
     4
 74
     0
 42
0.0000000001
 43
0.0000000001
 40
0.0
 40
0.0
 40
0.0
 40
0.0
 40
1.0
 40
1.0
 40
1.0
 40
1.0
 10
-6.9778
 20
-5.9067
 30
0.0
 10
-6.9778
 20
-5.9067
 30
0.0
 10
-6.9778
 20
-3.5068
 30
0.0
 10
-6.9778
 20
-3.5068
 30
0.0
  0
SPLINE
  5
FC
330
1F
100
AcDbEntity
  8
Ilustrace
 62
   250
370
    30
100
AcDbSpline
210
0.0
220
0.0
230
1.0
 70
    24
 71
     3
 72
     8
 73
     4
 74
     0
 42
0.0000000001
 43
0.0000000001
 40
0.0
 40
0.0
 40
0.0
 40
0.0
 40
1.0
 40
1.0
 40
1.0
 40
1.0
 10
-14.177
 20
-17.9052
 30
0.0
 10
-14.177
 20
-17.9052
 30
0.0
 10
-14.177
 20
-20.305
 30
0.0
 10
-14.177
 20
-20.305
 30
0.0
  0
SPLINE
  5
FD
330
1F
100
AcDbEntity
  8
Ilustrace
 62
   250
370
    30
100
AcDbSpline
210
0.0
220
0.0
230
1.0
 70
    24
 71
     3
 72
     8
 73
     4
 74
     0
 42
0.0000000001
 43
0.0000000001
 40
0.0
 40
0.0
 40
0.0
 40
0.0
 40
1.0
 40
1.0
 40
1.0
 40
1.0
 10
-18.9765
 20
-20.305
 30
0.0
 10
-18.9765
 20
-20.305
 30
0.0
 10
-16.5768
 20
-20.305
 30
0.0
 10
-16.5768
 20
-20.305
 30
0.0
  0
SPLINE
  5
FE
330
1F
100
AcDbEntity
  8
Ilustrace
 62
   250
370
    30
100
AcDbSpline
210
0.0
220
0.0
230
1.0
 70
    24
 71
     3
 72
     8
 73
     4
 74
     0
 42
0.0000000001
 43
0.0000000001
 40
0.0
 40
0.0
 40
0.0
 40
0.0
 40
1.0
 40
1.0
 40
1.0
 40
1.0
 10
-18.9765
 20
-8.3063
 30
0.0
 10
-18.9765
 20
-8.3063
 30
0.0
 10
-16.5768
 20
-8.3063
 30
0.0
 10
-16.5768
 20
-8.3063
 30
0.0
  0
SPLINE
  5
FF
330
1F
100
AcDbEntity
  8
Ilustrace
 62
   250
370
    30
100
AcDbSpline
210
0.0
220
0.0
230
1.0
 70
    24
 71
     3
 72
     8
 73
     4
 74
     0
 42
0.0000000001
 43
0.0000000001
 40
0.0
 40
0.0
 40
0.0
 40
0.0
 40
1.0
 40
1.0
 40
1.0
 40
1.0
 10
-16.5768
 20
-5.9067
 30
0.0
 10
-16.5768
 20
-5.9067
 30
0.0
 10
-16.5768
 20
-3.5068
 30
0.0
 10
-16.5768
 20
-3.5068
 30
0.0
  0
SPLINE
  5
100
330
1F
100
AcDbEntity
  8
Ilustrace
 62
   250
370
    30
100
AcDbSpline
210
0.0
220
0.0
230
1.0
 70
    24
 71
     3
 72
     8
 73
     4
 74
     0
 42
0.0000000001
 43
0.0000000001
 40
0.0
 40
0.0
 40
0.0
 40
0.0
 40
1.0
 40
1.0
 40
1.0
 40
1.0
 10
-14.177
 20
1.2925
 30
0.0
 10
-14.177
 20
1.2925
 30
0.0
 10
-14.177
 20
-1.1071
 30
0.0
 10
-14.177
 20
-1.1071
 30
0.0
  0
SPLINE
  5
101
330
1F
100
AcDbEntity
  8
Ilustrace
 62
   250
370
    30
100
AcDbSpline
210
0.0
220
0.0
230
1.0
 70
    24
 71
     3
 72
     8
 73
     4
 74
     0
 42
0.0000000001
 43
0.0000000001
 40
0.0
 40
0.0
 40
0.0
 40
0.0
 40
1.0
 40
1.0
 40
1.0
 40
1.0
 10
-16.5768
 20
-3.5068
 30
0.0
 10
-16.5768
 20
-3.5068
 30
0.0
 10
-18.9765
 20
-3.5068
 30
0.0
 10
-18.9765
 20
-3.5068
 30
0.0
  0
SPLINE
  5
102
330
1F
100
AcDbEntity
  8
Ilustrace
 62
   250
370
    30
100
AcDbSpline
210
0.0
220
0.0
230
1.0
 70
    24
 71
     3
 72
     8
 73
     4
 74
     0
 42
0.0000000001
 43
0.0000000001
 40
0.0
 40
0.0
 40
0.0
 40
0.0
 40
1.0
 40
1.0
 40
1.0
 40
1.0
 10
-18.9765
 20
-1.1071
 30
0.0
 10
-18.9765
 20
-1.1071
 30
0.0
 10
-16.5768
 20
-1.1071
 30
0.0
 10
-16.5768
 20
-1.1071
 30
0.0
  0
SPLINE
  5
103
330
1F
100
AcDbEntity
  8
Ilustrace
 62
   250
370
    30
100
AcDbSpline
210
0.0
220
0.0
230
1.0
 70
    24
 71
     3
 72
     8
 73
     4
 74
     0
 42
0.0000000001
 43
0.0000000001
 40
0.0
 40
0.0
 40
0.0
 40
0.0
 40
1.0
 40
1.0
 40
1.0
 40
1.0
 10
-11.7773
 20
1.2925
 30
0.0
 10
-11.7773
 20
1.2925
 30
0.0
 10
-14.177
 20
1.2925
 30
0.0
 10
-14.177
 20
1.2925
 30
0.0
  0
SPLINE
  5
104
330
1F
100
AcDbEntity
  8
Ilustrace
 62
   250
370
    30
100
AcDbSpline
210
0.0
220
0.0
230
1.0
 70
    24
 71
     3
 72
     8
 73
     4
 74
     0
 42
0.0000000001
 43
0.0000000001
 40
0.0
 40
0.0
 40
0.0
 40
0.0
 40
1.0
 40
1.0
 40
1.0
 40
1.0
 10
-16.5768
 20
1.2925
 30
0.0
 10
-16.5768
 20
1.2925
 30
0.0
 10
-18.9765
 20
1.2925
 30
0.0
 10
-18.9765
 20
1.2925
 30
0.0
  0
SPLINE
  5
105
330
1F
100
AcDbEntity
  8
Ilustrace
 62
   250
370
    30
100
AcDbSpline
210
0.0
220
0.0
230
1.0
 70
    24
 71
     3
 72
     8
 73
     4
 74
     0
 42
0.0000000001
 43
0.0000000001
 40
0.0
 40
0.0
 40
0.0
 40
0.0
 40
1.0
 40
1.0
 40
1.0
 40
1.0
 10
9.82
 20
10.8913
 30
0.0
 10
9.82
 20
10.8913
 30
0.0
 10
12.2197
 20
10.8913
 30
0.0
 10
12.2197
 20
10.8913
 30
0.0
  0
SPLINE
  5
106
330
1F
100
AcDbEntity
  8
Ilustrace
 62
   250
370
    30
100
AcDbSpline
210
0.0
220
0.0
230
1.0
 70
     8
 71
     3
 72
     8
 73
     4
 74
     0
 42
0.0000000001
 43
0.0000000001
 40
0.0
 40
0.0
 40
0.0
 40
0.0
 40
1.0
 40
1.0
 40
1.0
 40
1.0
 10
16.6899
 20
15.6675
 30
0.0
 10
17.2418
 20
15.4387
 30
0.0
 10
17.0993
 20
14.5764
 30
0.0
 10
17.0993
 20
14.1707
 30
0.0
  0
SPLINE
  5
107
330
1F
100
AcDbEntity
  8
Ilustrace
 62
   250
370
    30
100
AcDbSpline
210
0.0
220
0.0
230
1.0
 70
    24
 71
     3
 72
     8
 73
     4
 74
     0
 42
0.0000000001
 43
0.0000000001
 40
0.0
 40
0.0
 40
0.0
 40
0.0
 40
1.0
 40
1.0
 40
1.0
 40
1.0
 10
17.0993
 20
14.1707
 30
0.0
 10
17.0993
 20
14.1707
 30
0.0
 10
17.0993
 20
-23.5045
 30
0.0
 10
17.0993
 20
-23.5045
 30
0.0
  0
SPLINE
  5
108
330
1F
100
AcDbEntity
  8
Ilustrace
 62
   250
370
    30
100
AcDbSpline
210
0.0
220
0.0
230
1.0
 70
     8
 71
     3
 72
    16
 73
    12
 74
     0
 42
0.0000000001
 43
0.0000000001
 40
0.0
 40
0.0
 40
0.0
 40
0.0
 40
0.25
 40
0.25
 40
0.25
 40
0.25
 40
0.5
 40
0.5
 40
0.5
 40
0.5
 40
1.0
 40
1.0
 40
1.0
 40
1.0
 10
17.0993
 20
-23.5045
 30
0.0
 10
17.0993
 20
-23.9735
 30
0.0
 10
17.2246
 20
-24.5896
 30
0.0
 10
16.7981
 20
-24.9299
 30
0.0
 10
16.7981
 20
-24.9299
 30
0.0
 10
16.728
 20
-24.9859
 30
0.0
 10
16.6483
 20
-25.0299
 30
0.0
 10
16.5636
 20
-25.0594
 30
0.0
 10
16.5636
 20
-25.0594
 30
0.0
 10
16.4761
 20
-25.09
 30
0.0
 10
16.391
 20
-25.0993
 30
0.0
 10
16.2992
 20
-25.1044
 30
0.0
  0
SPLINE
  5
109
330
1F
100
AcDbEntity
  8
Ilustrace
 62
   250
370
    30
100
AcDbSpline
210
0.0
220
0.0
230
1.0
 70
    24
 71
     3
 72
    12
 73
     8
 74
     0
 42
0.0000000001
 43
0.0000000001
 40
0.0
 40
0.0
 40
0.0
 40
0.0
 40
0.3333333333333333
 40
0.3333333333333333
 40
0.3333333333333333
 40
0.3333333333333333
 40
1.0
 40
1.0
 40
1.0
 40
1.0
 10
16.2992
 20
-25.1044
 30
0.0
 10
16.2992
 20
-25.1044
 30
0.0
 10
15.4993
 20
-25.1044
 30
0.0
 10
15.4993
 20
-25.1044
 30
0.0
 10
15.4993
 20
-25.1044
 30
0.0
 10
15.4993
 20
-25.1044
 30
0.0
 10
-22.1761
 20
-25.1044
 30
0.0
 10
-22.1761
 20
-25.1044
 30
0.0
  0
SPLINE
  5
10A
330
1F
100
AcDbEntity
  8
Ilustrace
 62
   250
370
    30
100
AcDbSpline
210
0.0
220
0.0
230
1.0
 70
     8
 71
     3
 72
    16
 73
    12
 74
     0
 42
0.0000000001
 43
0.0000000001
 40
0.0
 40
0.0
 40
0.0
 40
0.0
 40
0.25
 40
0.25
 40
0.25
 40
0.25
 40
0.5
 40
0.5
 40
0.5
 40
0.5
 40
1.0
 40
1.0
 40
1.0
 40
1.0
 10
-22.1761
 20
-25.1044
 30
0.0
 10
-22.6449
 20
-25.1044
 30
0.0
 10
-23.2613
 20
-25.2298
 30
0.0
 10
-23.6014
 20
-24.803
 30
0.0
 10
-23.6014
 20
-24.803
 30
0.0
 10
-23.6575
 20
-24.733
 30
0.0
 10
-23.7013
 20
-24.6535
 30
0.0
 10
-23.731
 20
-24.5687
 30
0.0
 10
-23.731
 20
-24.5687
 30
0.0
 10
-23.7607
 20
-24.4837
 30
0.0
 10
-23.7755
 20
-24.3944
 30
0.0
 10
-23.7758
 20
-24.3044
 30
0.0
  0
SPLINE
  5
10B
330
1F
100
AcDbEntity
  8
Ilustrace
 62
   250
370
    30
100
AcDbSpline
210
0.0
220
0.0
230
1.0
 70
    24
 71
     3
 72
    12
 73
     8
 74
     0
 42
0.0000000001
 43
0.0000000001
 40
0.0
 40
0.0
 40
0.0
 40
0.0
 40
0.3333333333333333
 40
0.3333333333333333
 40
0.3333333333333333
 40
0.3333333333333333
 40
1.0
 40
1.0
 40
1.0
 40
1.0
 10
-23.7758
 20
-24.3044
 30
0.0
 10
-23.7758
 20
-24.3044
 30
0.0
 10
-23.7758
 20
-23.5045
 30
0.0
 10
-23.7758
 20
-23.5045
 30
0.0
 10
-23.7758
 20
-23.5045
 30
0.0
 10
-23.7758
 20
-23.5045
 30
0.0
 10
-23.7758
 20
14.1707
 30
0.0
 10
-23.7758
 20
14.1707
 30
0.0
  0
SPLINE
  5
10C
330
1F
100
AcDbEntity
  8
Ilustrace
 62
   250
370
    30
100
AcDbSpline
210
0.0
220
0.0
230
1.0
 70
     8
 71
     3
 72
    12
 73
     8
 74
     0
 42
0.0000000001
 43
0.0000000001
 40
0.0
 40
0.0
 40
0.0
 40
0.0
 40
0.3333333333333333
 40
0.3333333333333333
 40
0.3333333333333333
 40
0.3333333333333333
 40
1.0
 40
1.0
 40
1.0
 40
1.0
 10
-23.7758
 20
14.1707
 30
0.0
 10
-23.7758
 20
14.6025
 30
0.0
 10
-23.8925
 20
15.1853
 30
0.0
 10
-23.5418
 20
15.5364
 30
0.0
 10
-23.5418
 20
15.5364
 30
0.0
 10
-23.1907
 20
15.8874
 30
0.0
 10
-22.6077
 20
15.7707
 30
0.0
 10
-22.1761
 20
15.7707
 30
0.0
  0
SPLINE
  5
10D
330
1F
100
AcDbEntity
  8
Ilustrace
 62
   250
370
    30
100
AcDbSpline
210
0.0
220
0.0
230
1.0
 70
    24
 71
     3
 72
     8
 73
     4
 74
     0
 42
0.0000000001
 43
0.0000000001
 40
0.0
 40
0.0
 40
0.0
 40
0.0
 40
1.0
 40
1.0
 40
1.0
 40
1.0
 10
-22.1761
 20
15.7707
 30
0.0
 10
-22.1761
 20
15.7707
 30
0.0
 10
15.4993
 20
15.7707
 30
0.0
 10
15.4993
 20
15.7707
 30
0.0
  0
SPLINE
  5
10E
330
1F
100
AcDbEntity
  8
Ilustrace
 62
   250
370
    30
100
AcDbSpline
210
0.0
220
0.0
230
1.0
 70
     8
 71
     3
 72
     8
 73
     4
 74
     0
 42
0.0000000001
 43
0.0000000001
 40
0.0
 40
0.0
 40
0.0
 40
0.0
 40
1.0
 40
1.0
 40
1.0
 40
1.0
 10
15.4993
 20
15.7707
 30
0.0
 10
16.0117
 20
15.7707
 30
0.0
 10
16.6834
 20
15.9054
 30
0.0
 10
16.9921
 20
15.3707
 30
0.0
  0
SPLINE
  5
10F
330
1F
100
AcDbEntity
  8
Ilustrace
 62
   250
370
    30
100
AcDbSpline
210
0.0
220
0.0
230
1.0
 70
    24
 71
     3
 72
     8
 73
     4
 74
     0
 42
0.0000000001
 43
0.0000000001
 40
0.0
 40
0.0
 40
0.0
 40
0.0
 40
1.0
 40
1.0
 40
1.0
 40
1.0
 10
16.9921
 20
15.3707
 30
0.0
 10
16.9921
 20
15.3707
 30
0.0
 10
17.0728
 20
15.1703
 30
0.0
 10
17.0728
 20
15.1703
 30
0.0
  0
SPLINE
  5
110
330
1F
100
AcDbEntity
  8
Ilustrace
 62
   254
100
AcDbSpline
210
0.0
220
0.0
230
1.0
 70
    11
 71
     3
 72
    48
 73
    44
 74
     0
 42
0.0000000001
 43
0.0000000001
 40
0.0
 40
0.0
 40
0.0
 40
0.0
 40
0.0833333333333333
 40
0.0833333333333333
 40
0.0833333333333333
 40
0.0833333333333333
 40
0.1666666666666667
 40
0.1666666666666667
 40
0.1666666666666667
 40
0.1666666666666667
 40
0.25
 40
0.25
 40
0.25
 40
0.25
 40
0.3333333333333333
 40
0.3333333333333333
 40
0.3333333333333333
 40
0.3333333333333333
 40
0.4166666666666667
 40
0.4166666666666667
 40
0.4166666666666667
 40
0.4166666666666667
 40
0.5
 40
0.5
 40
0.5
 40
0.5
 40
0.5833333333333334
 40
0.5833333333333334
 40
0.5833333333333334
 40
0.5833333333333334
 40
0.6666666666666666
 40
0.6666666666666666
 40
0.6666666666666666
 40
0.6666666666666666
 40
0.75
 40
0.75
 40
0.75
 40
0.75
 40
0.8333333333333334
 40
0.8333333333333334
 40
0.8333333333333334
 40
0.8333333333333334
 40
1.0
 40
1.0
 40
1.0
 40
1.0
 10
29.6509
 20
15.6849
 30
0.0
 10
29.6509
 20
15.6849
 30
0.0
 10
30.9518
 20
15.7511
 30
0.0
 10
30.9518
 20
15.7511
 30
0.0
 10
30.9518
 20
15.7511
 30
0.0
 10
30.9518
 20
15.7511
 30
0.0
 10
31.2439
 20
15.5693
 30
0.0
 10
31.2439
 20
15.5693
 30
0.0
 10
31.2439
 20
15.5693
 30
0.0
 10
31.2439
 20
15.5693
 30
0.0
 10
31.4479
 20
15.4095
 30
0.0
 10
31.4479
 20
15.4095
 30
0.0
 10
31.4479
 20
15.4095
 30
0.0
 10
31.4479
 20
15.4095
 30
0.0
 10
31.5802
 20
15.211
 30
0.0
 10
31.5802
 20
15.211
 30
0.0
 10
31.5802
 20
15.211
 30
0.0
 10
31.5802
 20
15.211
 30
0.0
 10
31.6518
 20
14.9905
 30
0.0
 10
31.6518
 20
14.9905
 30
0.0
 10
31.6518
 20
14.9905
 30
0.0
 10
31.6518
 20
14.9905
 30
0.0
 10
31.6354
 20
-24.3228
 30
0.0
 10
31.6354
 20
-24.3228
 30
0.0
 10
31.6354
 20
-24.3228
 30
0.0
 10
31.6354
 20
-24.3228
 30
0.0
 10
31.6023
 20
-24.5654
 30
0.0
 10
31.6023
 20
-24.5654
 30
0.0
 10
31.6023
 20
-24.5654
 30
0.0
 10
31.6023
 20
-24.5654
 30
0.0
 10
31.3047
 20
-24.8741
 30
0.0
 10
31.3047
 20
-24.8741
 30
0.0
 10
31.3047
 20
-24.8741
 30
0.0
 10
31.3047
 20
-24.8741
 30
0.0
 10
31.0291
 20
-25.0284
 30
0.0
 10
31.0291
 20
-25.0284
 30
0.0
 10
31.0291
 20
-25.0284
 30
0.0
 10
31.0291
 20
-25.0284
 30
0.0
 10
29.7282
 20
-25.0174
 30
0.0
 10
29.7282
 20
-25.0174
 30
0.0
 10
29.7282
 20
-25.0174
 30
0.0
 10
29.7282
 20
-25.0174
 30
0.0
 10
29.6509
 20
15.6849
 30
0.0
 10
29.6509
 20
15.6849
 30
0.0
  0
SPLINE
  5
111
330
1F
100
AcDbEntity
  8
Ilustrace
 62
   250
370
    70
100
AcDbSpline
210
0.0
220
0.0
230
1.0
 70
    24
 71
     3
 72
     8
 73
     4
 74
     0
 42
0.0000000001
 43
0.0000000001
 40
0.0
 40
0.0
 40
0.0
 40
0.0
 40
1.0
 40
1.0
 40
1.0
 40
1.0
 10
29.6734
 20
-25.0162
 30
0.0
 10
29.6734
 20
-25.0162
 30
0.0
 10
30.871
 20
-25.0162
 30
0.0
 10
30.871
 20
-25.0162
 30
0.0
  0
SPLINE
  5
112
330
1F
100
AcDbEntity
  8
Ilustrace
 62
   250
370
    70
100
AcDbSpline
210
0.0
220
0.0
230
1.0
 70
    24
 71
     3
 72
     8
 73
     4
 74
     0
 42
0.0000000001
 43
0.0000000001
 40
0.0
 40
0.0
 40
0.0
 40
0.0
 40
1.0
 40
1.0
 40
1.0
 40
1.0
 10
29.6734
 20
-25.0162
 30
0.0
 10
29.6734
 20
-25.0162
 30
0.0
 10
29.6734
 20
13.3041
 30
0.0
 10
29.6734
 20
13.3041
 30
0.0
  0
SPLINE
  5
113
330
1F
100
AcDbEntity
  8
Ilustrace
 62
   250
370
     9
100
AcDbSpline
210
0.0
220
0.0
230
1.0
 70
    24
 71
     3
 72
     8
 73
     4
 74
     0
 42
0.0000000001
 43
0.0000000001
 40
0.0
 40
0.0
 40
0.0
 40
0.0
 40
1.0
 40
1.0
 40
1.0
 40
1.0
 10
31.67
 20
-24.2178
 30
0.0
 10
31.67
 20
-24.2178
 30
0.0
 10
31.67
 20
14.9106
 30
0.0
 10
31.67
 20
14.9106
 30
0.0
  0
SPLINE
  5
114
330
1F
100
AcDbEntity
  8
Ilustrace
 62
   250
370
    70
100
AcDbSpline
210
0.0
220
0.0
230
1.0
 70
     8
 71
     3
 72
     8
 73
     4
 74
     0
 42
0.0000000001
 43
0.0000000001
 40
0.0
 40
0.0
 40
0.0
 40
0.0
 40
1.0
 40
1.0
 40
1.0
 40
1.0
 10
30.871
 20
-25.0162
 30
0.0
 10
31.3119
 20
-25.0162
 30
0.0
 10
31.6694
 20
-24.6587
 30
0.0
 10
31.6694
 20
-24.2178
 30
0.0
  0
SPLINE
  5
115
330
1F
100
AcDbEntity
  8
Ilustrace
 62
   250
370
    70
100
AcDbSpline
210
0.0
220
0.0
230
1.0
 70
    24
 71
     3
 72
     8
 73
     4
 74
     0
 42
0.0000000001
 43
0.0000000001
 40
0.0
 40
0.0
 40
0.0
 40
0.0
 40
1.0
 40
1.0
 40
1.0
 40
1.0
 10
29.6734
 20
13.3041
 30
0.0
 10
29.6734
 20
13.3041
 30
0.0
 10
29.6734
 20
15.7013
 30
0.0
 10
29.6734
 20
15.7013
 30
0.0
  0
SPLINE
  5
116
330
1F
100
AcDbEntity
  8
Ilustrace
 62
   250
370
    70
100
AcDbSpline
210
0.0
220
0.0
230
1.0
 70
    24
 71
     3
 72
     8
 73
     4
 74
     0
 42
0.0000000001
 43
0.0000000001
 40
0.0
 40
0.0
 40
0.0
 40
0.0
 40
1.0
 40
1.0
 40
1.0
 40
1.0
 10
29.6734
 20
15.7013
 30
0.0
 10
29.6734
 20
15.7013
 30
0.0
 10
30.871
 20
15.7013
 30
0.0
 10
30.871
 20
15.7013
 30
0.0
  0
SPLINE
  5
117
330
1F
100
AcDbEntity
  8
Ilustrace
 62
   250
370
    70
100
AcDbSpline
210
0.0
220
0.0
230
1.0
 70
     8
 71
     3
 72
     8
 73
     4
 74
     0
 42
0.0000000001
 43
0.0000000001
 40
0.0
 40
0.0
 40
0.0
 40
0.0
 40
1.0
 40
1.0
 40
1.0
 40
1.0
 10
31.6694
 20
14.9029
 30
0.0
 10
31.6694
 20
15.3439
 30
0.0
 10
31.3119
 20
15.7013
 30
0.0
 10
30.871
 20
15.7013
 30
0.0
  0
SPLINE
  5
118
330
1F
100
AcDbEntity
  8
Ilustrace
 62
   250
370
    70
100
AcDbSpline
210
0.0
220
0.0
230
1.0
 70
    24
 71
     3
 72
     8
 73
     4
 74
     0
 42
0.0000000001
 43
0.0000000001
 40
0.0
 40
0.0
 40
0.0
 40
0.0
 40
1.0
 40
1.0
 40
1.0
 40
1.0
 10
-23.7985
 20
15.9508
 30
0.0
 10
-23.7985
 20
15.9508
 30
0.0
 10
-23.7985
 20
22.3284
 30
0.0
 10
-23.7985
 20
22.3284
 30
0.0
  0
SPLINE
  5
119
330
1F
100
AcDbEntity
  8
Ilustrace
 62
   250
370
    80
100
AcDbSpline
210
0.0
220
0.0
230
1.0
 70
    24
 71
     3
 72
     8
 73
     4
 74
     0
 42
0.0000000001
 43
0.0000000001
 40
0.0
 40
0.0
 40
0.0
 40
0.0
 40
1.0
 40
1.0
 40
1.0
 40
1.0
 10
16.9209
 20
16.6532
 30
0.0
 10
16.9209
 20
16.6532
 30
0.0
 10
16.9209
 20
22.4717
 30
0.0
 10
16.9209
 20
22.4717
 30
0.0
  0
SPLINE
  5
11A
330
1F
100
AcDbEntity
  8
Ilustrace
 62
   250
370
    30
100
AcDbSpline
210
0.0
220
0.0
230
1.0
 70
    24
 71
     3
 72
     8
 73
     4
 74
     0
 42
0.0000000001
 43
0.0000000001
 40
0.0
 40
0.0
 40
0.0
 40
0.0
 40
1.0
 40
1.0
 40
1.0
 40
1.0
 10
16.5496
 20
21.7969
 30
0.0
 10
16.5496
 20
21.7969
 30
0.0
 10
-23.3127
 20
21.7969
 30
0.0
 10
-23.3127
 20
21.7969
 30
0.0
  0
TEXT
  5
13E
330
1F
100
AcDbEntity
  8
Ilustrace
 62
   250
100
AcDbText
 10
-5.2839
 20
22.5565
 30
0.0
 40
2.79396
  1
102
 51
-0.0000015352345087
  7
0
100
AcDbText
  0
SPLINE
  5
13F
330
1F
100
AcDbEntity
  8
Ilustrace
 62
   250
370
    70
100
AcDbSpline
210
0.0
220
0.0
230
1.0
 70
    24
 71
     3
 72
     8
 73
     4
 74
     0
 42
0.0000000001
 43
0.0000000001
 40
0.0
 40
0.0
 40
0.0
 40
0.0
 40
1.0
 40
1.0
 40
1.0
 40
1.0
 10
-24.4215
 20
-25.0258
 30
0.0
 10
-24.4215
 20
-25.0258
 30
0.0
 10
-30.6031
 20
-25.0258
 30
0.0
 10
-30.6031
 20
-25.0258
 30
0.0
  0
SPLINE
  5
140
330
1F
100
AcDbEntity
  8
Ilustrace
 62
   250
370
    80
100
AcDbSpline
210
0.0
220
0.0
230
1.0
 70
    24
 71
     3
 72
     8
 73
     4
 74
     0
 42
0.0000000001
 43
0.0000000001
 40
0.0
 40
0.0
 40
0.0
 40
0.0
 40
1.0
 40
1.0
 40
1.0
 40
1.0
 10
-25.1239
 20
15.6936
 30
0.0
 10
-25.1239
 20
15.6936
 30
0.0
 10
-30.6469
 20
15.6936
 30
0.0
 10
-30.6469
 20
15.6936
 30
0.0
  0
SPLINE
  5
141
330
1F
100
AcDbEntity
  8
Ilustrace
 62
   250
370
    30
100
AcDbSpline
210
0.0
220
0.0
230
1.0
 70
    24
 71
     3
 72
     8
 73
     4
 74
     0
 42
0.0000000001
 43
0.0000000001
 40
0.0
 40
0.0
 40
0.0
 40
0.0
 40
1.0
 40
1.0
 40
1.0
 40
1.0
 10
-30.2676
 20
15.3223
 30
0.0
 10
-30.2676
 20
15.3223
 30
0.0
 10
-30.2676
 20
-24.54
 30
0.0
 10
-30.2676
 20
-24.54
 30
0.0
  0
TEXT
  5
142
330
1F
100
AcDbEntity
  8
Ilustrace
 62
   250
100
AcDbText
 10
-31.02720000000005
 20
-6.511199999999953
 30
0.0
 40
2.79396
  1
102
 50
89.99999999999848
 51
-0.0000015352345087
  7
0
100
AcDbText
  0
SPLINE
  5
143
330
1F
100
AcDbEntity
  8
Ilustrace
 62
   250
370
    70
100
AcDbSpline
210
0.0
220
0.0
230
1.0
 70
    24
 71
     3
 72
     8
 73
     4
 74
     0
 42
0.0000000001
 43
0.0000000001
 40
0.0
 40
0.0
 40
0.0
 40
0.0
 40
1.0
 40
1.0
 40
1.0
 40
1.0
 10
29.6165
 20
15.9765
 30
0.0
 10
29.6165
 20
15.9765
 30
0.0
 10
29.6165
 20
22.6862
 30
0.0
 10
29.6165
 20
22.6862
 30
0.0
  0
SPLINE
  5
144
330
1F
100
AcDbEntity
  8
Ilustrace
 62
   250
370
    70
100
AcDbSpline
210
0.0
220
0.0
230
1.0
 70
    24
 71
     3
 72
     8
 73
     4
 74
     0
 42
0.0000000001
 43
0.0000000001
 40
0.0
 40
0.0
 40
0.0
 40
0.0
 40
1.0
 40
1.0
 40
1.0
 40
1.0
 10
31.7314
 20
15.9159
 30
0.0
 10
31.7314
 20
15.9159
 30
0.0
 10
31.7314
 20
22.8455
 30
0.0
 10
31.7314
 20
22.8455
 30
0.0
  0
SPLINE
  5
145
330
1F
100
AcDbEntity
  8
Ilustrace
 62
   250
370
    40
100
AcDbSpline
210
0.0
220
0.0
230
1.0
 70
    24
 71
     3
 72
     8
 73
     4
 74
     0
 42
0.0000000001
 43
0.0000000001
 40
0.0
 40
0.0
 40
0.0
 40
0.0
 40
1.0
 40
1.0
 40
1.0
 40
1.0
 10
33.5922
 20
21.8226
 30
0.0
 10
33.5922
 20
21.8226
 30
0.0
 10
27.5729
 20
21.8226
 30
0.0
 10
27.5729
 20
21.8226
 30
0.0
  0
TEXT
  5
147
330
1F
100
AcDbEntity
  8
Ilustrace
 62
   250
100
AcDbText
 10
30.009
 20
22.5573
 30
0.0
 40
2.79396
  1
4
 51
-0.0000015352345087
  7
1
100
AcDbText
  0
SPLINE
  5
148
330
1F
100
AcDbEntity
  8
Ilustrace
 62
   250
370
     9
100
AcDbSpline
210
0.0
220
0.0
230
1.0
 70
    11
 71
     3
 72
    32
 73
    28
 74
     0
 42
0.0000000001
 43
0.0000000001
 40
0.0
 40
0.0
 40
0.0
 40
0.0
 40
0.125
 40
0.125
 40
0.125
 40
0.125
 40
0.25
 40
0.25
 40
0.25
 40
0.25
 40
0.375
 40
0.375
 40
0.375
 40
0.375
 40
0.5
 40
0.5
 40
0.5
 40
0.5
 40
0.625
 40
0.625
 40
0.625
 40
0.625
 40
0.75
 40
0.75
 40
0.75
 40
0.75
 40
1.0
 40
1.0
 40
1.0
 40
1.0
 10
15.5944
 20
21.3863
 30
0.0
 10
15.5944
 20
21.3863
 30
0.0
 10
15.5944
 20
21.3863
 30
0.0
 10
15.5944
 20
21.3863
 30
0.0
 10
15.5944
 20
21.3863
 30
0.0
 10
15.5944
 20
21.3863
 30
0.0
 10
15.5944
 20
21.3863
 30
0.0
 10
15.5944
 20
21.3863
 30
0.0
 10
15.5944
 20
21.3863
 30
0.0
 10
15.5944
 20
21.3863
 30
0.0
 10
16.8672
 20
21.8297
 30
0.0
 10
16.8672
 20
21.8297
 30
0.0
 10
16.8672
 20
21.8297
 30
0.0
 10
16.8672
 20
21.8297
 30
0.0
 10
15.5944
 20
22.2731
 30
0.0
 10
15.5944
 20
22.2731
 30
0.0
 10
15.5944
 20
22.2731
 30
0.0
 10
15.5944
 20
22.2731
 30
0.0
 10
15.5944
 20
22.2731
 30
0.0
 10
15.5944
 20
22.2731
 30
0.0
 10
15.5944
 20
22.2731
 30
0.0
 10
15.5944
 20
22.2731
 30
0.0
 10
15.5944
 20
22.2731
 30
0.0
 10
15.5944
 20
22.2731
 30
0.0
 10
15.5944
 20
22.2731
 30
0.0
 10
15.5944
 20
22.2731
 30
0.0
 10
15.5944
 20
21.3863
 30
0.0
 10
15.5944
 20
21.3863
 30
0.0
  0
SPLINE
  5
149
330
1F
100
AcDbEntity
  8
Ilustrace
 62
   250
370
     9
100
AcDbSpline
210
0.0
220
0.0
230
1.0
 70
    11
 71
     3
 72
    32
 73
    28
 74
     0
 42
0.0000000001
 43
0.0000000001
 40
0.0
 40
0.0
 40
0.0
 40
0.0
 40
0.125
 40
0.125
 40
0.125
 40
0.125
 40
0.25
 40
0.25
 40
0.25
 40
0.25
 40
0.375
 40
0.375
 40
0.375
 40
0.375
 40
0.5
 40
0.5
 40
0.5
 40
0.5
 40
0.625
 40
0.625
 40
0.625
 40
0.625
 40
0.75
 40
0.75
 40
0.75
 40
0.75
 40
1.0
 40
1.0
 40
1.0
 40
1.0
 10
28.3385
 20
21.3643
 30
0.0
 10
28.3385
 20
21.3643
 30
0.0
 10
28.3385
 20
21.3643
 30
0.0
 10
28.3385
 20
21.3643
 30
0.0
 10
28.3385
 20
21.3643
 30
0.0
 10
28.3385
 20
21.3643
 30
0.0
 10
28.3385
 20
21.3643
 30
0.0
 10
28.3385
 20
21.3643
 30
0.0
 10
28.3385
 20
21.3643
 30
0.0
 10
28.3385
 20
21.3643
 30
0.0
 10
29.6113
 20
21.8077
 30
0.0
 10
29.6113
 20
21.8077
 30
0.0
 10
29.6113
 20
21.8077
 30
0.0
 10
29.6113
 20
21.8077
 30
0.0
 10
28.3385
 20
22.2511
 30
0.0
 10
28.3385
 20
22.2511
 30
0.0
 10
28.3385
 20
22.2511
 30
0.0
 10
28.3385
 20
22.2511
 30
0.0
 10
28.3385
 20
22.2511
 30
0.0
 10
28.3385
 20
22.2511
 30
0.0
 10
28.3385
 20
22.2511
 30
0.0
 10
28.3385
 20
22.2511
 30
0.0
 10
28.3385
 20
22.2511
 30
0.0
 10
28.3385
 20
22.2511
 30
0.0
 10
28.3385
 20
22.2511
 30
0.0
 10
28.3385
 20
22.2511
 30
0.0
 10
28.3385
 20
21.3643
 30
0.0
 10
28.3385
 20
21.3643
 30
0.0
  0
SPLINE
  5
14A
330
1F
100
AcDbEntity
  8
Ilustrace
 62
   250
370
     9
100
AcDbSpline
210
0.0
220
0.0
230
1.0
 70
    11
 71
     3
 72
    32
 73
    28
 74
     0
 42
0.0000000001
 43
0.0000000001
 40
0.0
 40
0.0
 40
0.0
 40
0.0
 40
0.125
 40
0.125
 40
0.125
 40
0.125
 40
0.25
 40
0.25
 40
0.25
 40
0.25
 40
0.375
 40
0.375
 40
0.375
 40
0.375
 40
0.5
 40
0.5
 40
0.5
 40
0.5
 40
0.625
 40
0.625
 40
0.625
 40
0.625
 40
0.75
 40
0.75
 40
0.75
 40
0.75
 40
1.0
 40
1.0
 40
1.0
 40
1.0
 10
33.0288
 20
21.3864
 30
0.0
 10
33.0288
 20
21.3864
 30
0.0
 10
33.0288
 20
21.3864
 30
0.0
 10
33.0288
 20
21.3864
 30
0.0
 10
33.0288
 20
21.3864
 30
0.0
 10
33.0288
 20
21.3864
 30
0.0
 10
33.0288
 20
21.3864
 30
0.0
 10
33.0288
 20
21.3864
 30
0.0
 10
33.0288
 20
21.3864
 30
0.0
 10
33.0288
 20
21.3864
 30
0.0
 10
31.756
 20
21.8298
 30
0.0
 10
31.756
 20
21.8298
 30
0.0
 10
31.756
 20
21.8298
 30
0.0
 10
31.756
 20
21.8298
 30
0.0
 10
33.0288
 20
22.2732
 30
0.0
 10
33.0288
 20
22.2732
 30
0.0
 10
33.0288
 20
22.2732
 30
0.0
 10
33.0288
 20
22.2732
 30
0.0
 10
33.0288
 20
22.2732
 30
0.0
 10
33.0288
 20
22.2732
 30
0.0
 10
33.0288
 20
22.2732
 30
0.0
 10
33.0288
 20
22.2732
 30
0.0
 10
33.0288
 20
22.2732
 30
0.0
 10
33.0288
 20
22.2732
 30
0.0
 10
33.0288
 20
22.2732
 30
0.0
 10
33.0288
 20
22.2732
 30
0.0
 10
33.0288
 20
21.3864
 30
0.0
 10
33.0288
 20
21.3864
 30
0.0
  0
SPLINE
  5
14B
330
1F
100
AcDbEntity
  8
Ilustrace
 62
   250
370
     9
100
AcDbSpline
210
0.0
220
0.0
230
1.0
 70
    11
 71
     3
 72
    32
 73
    28
 74
     0
 42
0.0000000001
 43
0.0000000001
 40
0.0
 40
0.0
 40
0.0
 40
0.0
 40
0.125
 40
0.125
 40
0.125
 40
0.125
 40
0.25
 40
0.25
 40
0.25
 40
0.25
 40
0.375
 40
0.375
 40
0.375
 40
0.375
 40
0.5
 40
0.5
 40
0.5
 40
0.5
 40
0.625
 40
0.625
 40
0.625
 40
0.625
 40
0.75
 40
0.75
 40
0.75
 40
0.75
 40
1.0
 40
1.0
 40
1.0
 40
1.0
 10
-29.78
 20
14.372
 30
0.0
 10
-29.78
 20
14.372
 30
0.0
 10
-29.78
 20
14.372
 30
0.0
 10
-29.78
 20
14.372
 30
0.0
 10
-29.78
 20
14.372
 30
0.0
 10
-29.78
 20
14.372
 30
0.0
 10
-29.78
 20
14.372
 30
0.0
 10
-29.78
 20
14.372
 30
0.0
 10
-29.78
 20
14.372
 30
0.0
 10
-29.78
 20
14.372
 30
0.0
 10
-30.2234
 20
15.6448
 30
0.0
 10
-30.2234
 20
15.6448
 30
0.0
 10
-30.2234
 20
15.6448
 30
0.0
 10
-30.2234
 20
15.6448
 30
0.0
 10
-30.6668
 20
14.372
 30
0.0
 10
-30.6668
 20
14.372
 30
0.0
 10
-30.6668
 20
14.372
 30
0.0
 10
-30.6668
 20
14.372
 30
0.0
 10
-30.6668
 20
14.372
 30
0.0
 10
-30.6668
 20
14.372
 30
0.0
 10
-30.6668
 20
14.372
 30
0.0
 10
-30.6668
 20
14.372
 30
0.0
 10
-30.6668
 20
14.372
 30
0.0
 10
-30.6668
 20
14.372
 30
0.0
 10
-30.6668
 20
14.372
 30
0.0
 10
-30.6668
 20
14.372
 30
0.0
 10
-29.78
 20
14.372
 30
0.0
 10
-29.78
 20
14.372
 30
0.0
  0
SPLINE
  5
14C
330
1F
100
AcDbEntity
  8
Ilustrace
 62
   250
370
     9
100
AcDbSpline
210
0.0
220
0.0
230
1.0
 70
    11
 71
     3
 72
    32
 73
    28
 74
     0
 42
0.0000000001
 43
0.0000000001
 40
0.0
 40
0.0
 40
0.0
 40
0.0
 40
0.125
 40
0.125
 40
0.125
 40
0.125
 40
0.25
 40
0.25
 40
0.25
 40
0.25
 40
0.375
 40
0.375
 40
0.375
 40
0.375
 40
0.5
 40
0.5
 40
0.5
 40
0.5
 40
0.625
 40
0.625
 40
0.625
 40
0.625
 40
0.75
 40
0.75
 40
0.75
 40
0.75
 40
1.0
 40
1.0
 40
1.0
 40
1.0
 10
-22.4679
 20
21.3693
 30
0.0
 10
-22.4679
 20
21.3693
 30
0.0
 10
-22.4679
 20
21.3693
 30
0.0
 10
-22.4679
 20
21.3693
 30
0.0
 10
-22.4679
 20
21.3693
 30
0.0
 10
-22.4679
 20
21.3693
 30
0.0
 10
-22.4679
 20
21.3693
 30
0.0
 10
-22.4679
 20
21.3693
 30
0.0
 10
-22.4679
 20
21.3693
 30
0.0
 10
-22.4679
 20
21.3693
 30
0.0
 10
-23.7407
 20
21.8127
 30
0.0
 10
-23.7407
 20
21.8127
 30
0.0
 10
-23.7407
 20
21.8127
 30
0.0
 10
-23.7407
 20
21.8127
 30
0.0
 10
-22.4679
 20
22.2561
 30
0.0
 10
-22.4679
 20
22.2561
 30
0.0
 10
-22.4679
 20
22.2561
 30
0.0
 10
-22.4679
 20
22.2561
 30
0.0
 10
-22.4679
 20
22.2561
 30
0.0
 10
-22.4679
 20
22.2561
 30
0.0
 10
-22.4679
 20
22.2561
 30
0.0
 10
-22.4679
 20
22.2561
 30
0.0
 10
-22.4679
 20
22.2561
 30
0.0
 10
-22.4679
 20
22.2561
 30
0.0
 10
-22.4679
 20
22.2561
 30
0.0
 10
-22.4679
 20
22.2561
 30
0.0
 10
-22.4679
 20
21.3693
 30
0.0
 10
-22.4679
 20
21.3693
 30
0.0
  0
SPLINE
  5
14D
330
1F
100
AcDbEntity
  8
Ilustrace
 62
   250
370
     9
100
AcDbSpline
210
0.0
220
0.0
230
1.0
 70
    11
 71
     3
 72
    32
 73
    28
 74
     0
 42
0.0000000001
 43
0.0000000001
 40
0.0
 40
0.0
 40
0.0
 40
0.0
 40
0.125
 40
0.125
 40
0.125
 40
0.125
 40
0.25
 40
0.25
 40
0.25
 40
0.25
 40
0.375
 40
0.375
 40
0.375
 40
0.375
 40
0.5
 40
0.5
 40
0.5
 40
0.5
 40
0.625
 40
0.625
 40
0.625
 40
0.625
 40
0.75
 40
0.75
 40
0.75
 40
0.75
 40
1.0
 40
1.0
 40
1.0
 40
1.0
 10
-29.763
 20
-23.6903
 30
0.0
 10
-29.763
 20
-23.6903
 30
0.0
 10
-29.763
 20
-23.6903
 30
0.0
 10
-29.763
 20
-23.6903
 30
0.0
 10
-29.763
 20
-23.6903
 30
0.0
 10
-29.763
 20
-23.6903
 30
0.0
 10
-29.763
 20
-23.6903
 30
0.0
 10
-29.763
 20
-23.6903
 30
0.0
 10
-29.763
 20
-23.6903
 30
0.0
 10
-29.763
 20
-23.6903
 30
0.0
 10
-30.2064
 20
-24.9631
 30
0.0
 10
-30.2064
 20
-24.9631
 30
0.0
 10
-30.2064
 20
-24.9631
 30
0.0
 10
-30.2064
 20
-24.9631
 30
0.0
 10
-30.6498
 20
-23.6903
 30
0.0
 10
-30.6498
 20
-23.6903
 30
0.0
 10
-30.6498
 20
-23.6903
 30
0.0
 10
-30.6498
 20
-23.6903
 30
0.0
 10
-30.6498
 20
-23.6903
 30
0.0
 10
-30.6498
 20
-23.6903
 30
0.0
 10
-30.6498
 20
-23.6903
 30
0.0
 10
-30.6498
 20
-23.6903
 30
0.0
 10
-30.6498
 20
-23.6903
 30
0.0
 10
-30.6498
 20
-23.6903
 30
0.0
 10
-30.6498
 20
-23.6903
 30
0.0
 10
-30.6498
 20
-23.6903
 30
0.0
 10
-29.763
 20
-23.6903
 30
0.0
 10
-29.763
 20
-23.6903
 30
0.0
  0
ENDSEC
  0
SECTION
  2
OBJECTS
  0
DICTIONARY
  5
C
330
0
100
AcDbDictionary
281
     1
  3
ACAD_GROUP
350
D
  3
ACAD_LAYOUT
350
1A
  3
ACAD_MATERIAL
350
3B
  3
ACAD_MLEADERSTYLE
350
150
  3
ACAD_MLINESTYLE
350
17
  3
ACAD_PLOTSETTINGS
350
19
  3
ACAD_PLOTSTYLENAME
350
E
  3
ACAD_SCALELIST
350
11C
  3
ACAD_VISUALSTYLE
350
2A
  3
AcDbVariableDictionary
350
14E
  0
DICTIONARY
  5
D
102
{ACAD_REACTORS
330
C
102
}
330
C
100
AcDbDictionary
281
     1
  0
DICTIONARY
  5
1A
102
{ACAD_REACTORS
330
C
102
}
330
C
100
AcDbDictionary
281
     1
  3
Layout1
350
1E
  3
Layout2
350
26
  3
Model
350
22
  0
DICTIONARY
  5
3B
102
{ACAD_REACTORS
330
C
102
}
330
C
100
AcDbDictionary
281
     1
  3
ByBlock
350
3D
  3
ByLayer
350
3C
  3
Global
350
3E
  0
DICTIONARY
  5
150
102
{ACAD_REACTORS
330
C
102
}
330
C
100
AcDbDictionary
281
     1
  0
DICTIONARY
  5
17
102
{ACAD_REACTORS
330
C
102
}
330
C
100
AcDbDictionary
281
     1
  3
Standard
350
18
  0
DICTIONARY
  5
19
102
{ACAD_REACTORS
330
C
102
}
330
C
100
AcDbDictionary
281
     1
  0
ACDBDICTIONARYWDFLT
  5
E
102
{ACAD_REACTORS
330
C
102
}
330
C
100
AcDbDictionary
281
     1
  3
Normal
350
F
100
AcDbDictionaryWithDefault
340
F
  0
DICTIONARY
  5
11C
102
{ACAD_REACTORS
330
C
102
}
330
C
100
AcDbDictionary
281
     1
  3
A0
350
11D
  3
A1
350
11E
  3
A2
350
11F
  3
A3
350
120
  3
A4
350
121
  3
A5
350
122
  3
A6
350
123
  3
A7
350
124
  3
A8
350
125
  3
A9
350
126
  3
B0
350
127
  3
B1
350
128
  3
B2
350
129
  3
B3
350
12A
  3
B4
350
12B
  3
B5
350
12C
  3
B6
350
12D
  3
B7
350
12E
  3
B8
350
12F
  3
B9
350
130
  3
C0
350
131
  3
C1
350
132
  3
C2
350
133
  3
C3
350
134
  3
C4
350
135
  3
C5
350
136
  3
C6
350
137
  3
C7
350
138
  3
C8
350
139
  3
C9
350
13A
  3
D0
350
13B
  3
D1
350
13C
  3
D2
350
13D
  0
DICTIONARY
  5
2A
102
{ACAD_REACTORS
330
C
102
}
330
C
100
AcDbDictionary
281
     1
  3
2dWireframe
350
2F
  3
3D Hidden
350
31
  3
3dWireframe
350
30
  3
Basic
350
32
  3
Brighten
350
36
  3
ColorChange
350
3A
  3
Conceptual
350
34
  3
Dim
350
35
  3
Facepattern
350
39
  3
Flat
350
2B
  3
FlatWithEdges
350
2C
  3
Gouraud
350
2D
  3
GouraudWithEdges
350
2E
  3
Linepattern
350
38
  3
Realistic
350
33
  3
Thicken
350
37
  0
DICTIONARY
  5
14E
102
{ACAD_REACTORS
330
C
102
}
330
C
100
AcDbDictionary
281
     1
  3
CANNOSCALE
350
151
  3
DIMASSOC
350
152
  3
HIDETEXT
350
153
  0
LAYOUT
  5
1E
102
{ACAD_REACTORS
330
1A
102
}
330
1A
100
AcDbPlotSettings
  1

  2
none_device
  4

  6

 40
0.0
 41
0.0
 42
0.0
 43
0.0
 44
0.0
 45
0.0
 46
0.0
 47
0.0
 48
0.0
 49
0.0
140
0.0
141
0.0
142
1.0
143
1.0
 70
   688
 72
     0
 73
     0
 74
     5
  7

 75
    16
147
1.0
148
0.0
149
0.0
100
AcDbLayout
  1
Layout1
 70
     1
 71
     1
 10
0.0
 20
0.0
 11
12.0
 21
9.0
 12
0.0
 22
0.0
 32
0.0
 14
1.000000000000000E+20
 24
1.000000000000000E+20
 34
1.000000000000000E+20
 15
-1.000000000000000E+20
 25
-1.000000000000000E+20
 35
-1.000000000000000E+20
146
0.0
 13
0.0
 23
0.0
 33
0.0
 16
1.0
 26
0.0
 36
0.0
 17
0.0
 27
1.0
 37
0.0
 76
     0
330
1B
  0
LAYOUT
  5
26
102
{ACAD_REACTORS
330
1A
102
}
330
1A
100
AcDbPlotSettings
  1

  2
none_device
  4

  6

 40
0.0
 41
0.0
 42
0.0
 43
0.0
 44
0.0
 45
0.0
 46
0.0
 47
0.0
 48
0.0
 49
0.0
140
0.0
141
0.0
142
1.0
143
1.0
 70
   688
 72
     0
 73
     0
 74
     5
  7

 75
    16
147
1.0
148
0.0
149
0.0
100
AcDbLayout
  1
Layout2
 70
     1
 71
     2
 10
0.0
 20
0.0
 11
0.0
 21
0.0
 12
0.0
 22
0.0
 32
0.0
 14
0.0
 24
0.0
 34
0.0
 15
0.0
 25
0.0
 35
0.0
146
0.0
 13
0.0
 23
0.0
 33
0.0
 16
1.0
 26
0.0
 36
0.0
 17
0.0
 27
1.0
 37
0.0
 76
     0
330
23
  0
LAYOUT
  5
22
102
{ACAD_REACTORS
330
1A
102
}
330
1A
100
AcDbPlotSettings
  1

  2
none_device
  4

  6

 40
0.0
 41
0.0
 42
0.0
 43
0.0
 44
0.0
 45
0.0
 46
0.0
 47
0.0
 48
0.0
 49
0.0
140
0.0
141
0.0
142
1.0
143
1.0
 70
  1712
 72
     0
 73
     0
 74
     0
  7

 75
     0
147
1.0
148
0.0
149
0.0
100
AcDbLayout
  1
Model
 70
     1
 71
     0
 10
0.0
 20
0.0
 11
12.0
 21
9.0
 12
0.0
 22
0.0
 32
0.0
 14
-33.5922
 24
-25.2627
 34
0.0
 15
33.5922
 25
25.1215
 35
0.0
146
0.0
 13
0.0
 23
0.0
 33
0.0
 16
1.0
 26
0.0
 36
0.0
 17
0.0
 27
1.0
 37
0.0
 76
     0
330
1F
331
29
  0
MATERIAL
  5
3D
102
{ACAD_REACTORS
330
3B
102
}
102
{ACAD_XDICTIONARY
360
176
102
}
330
3B
100
AcDbMaterial
  1
ByBlock
  0
MATERIAL
  5
3C
102
{ACAD_REACTORS
330
3B
102
}
102
{ACAD_XDICTIONARY
360
174
102
}
330
3B
100
AcDbMaterial
  1
ByLayer
  0
MATERIAL
  5
3E
102
{ACAD_REACTORS
330
3B
102
}
102
{ACAD_XDICTIONARY
360
178
102
}
330
3B
100
AcDbMaterial
  1
Global
  0
MLINESTYLE
  5
18
102
{ACAD_REACTORS
330
17
102
}
330
17
100
AcDbMlineStyle
  2
Standard
 70
     0
  3

 62
   256
 51
90.0
 52
90.0
 71
     2
 49
0.5
 62
   256
  6
BYLAYER
 49
-0.5
 62
   256
  6
BYLAYER
  0
ACDBPLACEHOLDER
  5
F
102
{ACAD_REACTORS
330
E
102
}
330
E
  0
SCALE
  5
11D
102
{ACAD_REACTORS
330
11C
102
}
330
11C
100
AcDbScale
 70
     0
300
1:1
140
1.0
141
1.0
290
     1
  0
SCALE
  5
11E
102
{ACAD_REACTORS
330
11C
102
}
330
11C
100
AcDbScale
 70
     0
300
1:2
140
1.0
141
2.0
290
     0
  0
SCALE
  5
11F
102
{ACAD_REACTORS
330
11C
102
}
330
11C
100
AcDbScale
 70
     0
300
1:4
140
1.0
141
4.0
290
     0
  0
SCALE
  5
120
102
{ACAD_REACTORS
330
11C
102
}
330
11C
100
AcDbScale
 70
     0
300
1:5
140
1.0
141
5.0
290
     0
  0
SCALE
  5
121
102
{ACAD_REACTORS
330
11C
102
}
330
11C
100
AcDbScale
 70
     0
300
1:8
140
1.0
141
8.0
290
     0
  0
SCALE
  5
122
102
{ACAD_REACTORS
330
11C
102
}
330
11C
100
AcDbScale
 70
     0
300
1:10
140
1.0
141
10.0
290
     0
  0
SCALE
  5
123
102
{ACAD_REACTORS
330
11C
102
}
330
11C
100
AcDbScale
 70
     0
300
1:16
140
1.0
141
16.0
290
     0
  0
SCALE
  5
124
102
{ACAD_REACTORS
330
11C
102
}
330
11C
100
AcDbScale
 70
     0
300
1:20
140
1.0
141
20.0
290
     0
  0
SCALE
  5
125
102
{ACAD_REACTORS
330
11C
102
}
330
11C
100
AcDbScale
 70
     0
300
1:30
140
1.0
141
30.0
290
     0
  0
SCALE
  5
126
102
{ACAD_REACTORS
330
11C
102
}
330
11C
100
AcDbScale
 70
     0
300
1:40
140
1.0
141
40.0
290
     0
  0
SCALE
  5
127
102
{ACAD_REACTORS
330
11C
102
}
330
11C
100
AcDbScale
 70
     0
300
1:50
140
1.0
141
50.0
290
     0
  0
SCALE
  5
128
102
{ACAD_REACTORS
330
11C
102
}
330
11C
100
AcDbScale
 70
     0
300
1:100
140
1.0
141
100.0
290
     0
  0
SCALE
  5
129
102
{ACAD_REACTORS
330
11C
102
}
330
11C
100
AcDbScale
 70
     0
300
2:1
140
2.0
141
1.0
290
     0
  0
SCALE
  5
12A
102
{ACAD_REACTORS
330
11C
102
}
330
11C
100
AcDbScale
 70
     0
300
4:1
140
4.0
141
1.0
290
     0
  0
SCALE
  5
12B
102
{ACAD_REACTORS
330
11C
102
}
330
11C
100
AcDbScale
 70
     0
300
8:1
140
8.0
141
1.0
290
     0
  0
SCALE
  5
12C
102
{ACAD_REACTORS
330
11C
102
}
330
11C
100
AcDbScale
 70
     0
300
10:1
140
10.0
141
1.0
290
     0
  0
SCALE
  5
12D
102
{ACAD_REACTORS
330
11C
102
}
330
11C
100
AcDbScale
 70
     0
300
100:1
140
100.0
141
1.0
290
     0
  0
SCALE
  5
12E
102
{ACAD_REACTORS
330
11C
102
}
330
11C
100
AcDbScale
 70
     0
300
1/128" = 1'-0"
140
0.0078125
141
12.0
290
     0
  0
SCALE
  5
12F
102
{ACAD_REACTORS
330
11C
102
}
330
11C
100
AcDbScale
 70
     0
300
1/64" = 1'-0"
140
0.015625
141
12.0
290
     0
  0
SCALE
  5
130
102
{ACAD_REACTORS
330
11C
102
}
330
11C
100
AcDbScale
 70
     0
300
1/32" = 1'-0"
140
0.03125
141
12.0
290
     0
  0
SCALE
  5
131
102
{ACAD_REACTORS
330
11C
102
}
330
11C
100
AcDbScale
 70
     0
300
1/16" = 1'-0"
140
0.0625
141
12.0
290
     0
  0
SCALE
  5
132
102
{ACAD_REACTORS
330
11C
102
}
330
11C
100
AcDbScale
 70
     0
300
3/32" = 1'-0"
140
0.09375
141
12.0
290
     0
  0
SCALE
  5
133
102
{ACAD_REACTORS
330
11C
102
}
330
11C
100
AcDbScale
 70
     0
300
1/8" = 1'-0"
140
0.125
141
12.0
290
     0
  0
SCALE
  5
134
102
{ACAD_REACTORS
330
11C
102
}
330
11C
100
AcDbScale
 70
     0
300
3/16" = 1'-0"
140
0.1875
141
12.0
290
     0
  0
SCALE
  5
135
102
{ACAD_REACTORS
330
11C
102
}
330
11C
100
AcDbScale
 70
     0
300
1/4" = 1'-0"
140
0.25
141
12.0
290
     0
  0
SCALE
  5
136
102
{ACAD_REACTORS
330
11C
102
}
330
11C
100
AcDbScale
 70
     0
300
3/8" = 1'-0"
140
0.375
141
12.0
290
     0
  0
SCALE
  5
137
102
{ACAD_REACTORS
330
11C
102
}
330
11C
100
AcDbScale
 70
     0
300
1/2" = 1'-0"
140
0.5
141
12.0
290
     0
  0
SCALE
  5
138
102
{ACAD_REACTORS
330
11C
102
}
330
11C
100
AcDbScale
 70
     0
300
3/4" = 1'-0"
140
0.75
141
12.0
290
     0
  0
SCALE
  5
139
102
{ACAD_REACTORS
330
11C
102
}
330
11C
100
AcDbScale
 70
     0
300
1" = 1'-0"
140
1.0
141
12.0
290
     0
  0
SCALE
  5
13A
102
{ACAD_REACTORS
330
11C
102
}
330
11C
100
AcDbScale
 70
     0
300
1-1/2" = 1'-0"
140
1.5
141
12.0
290
     0
  0
SCALE
  5
13B
102
{ACAD_REACTORS
330
11C
102
}
330
11C
100
AcDbScale
 70
     0
300
3" = 1'-0"
140
3.0
141
12.0
290
     0
  0
SCALE
  5
13C
102
{ACAD_REACTORS
330
11C
102
}
330
11C
100
AcDbScale
 70
     0
300
6" = 1'-0"
140
6.0
141
12.0
290
     0
  0
SCALE
  5
13D
102
{ACAD_REACTORS
330
11C
102
}
330
11C
100
AcDbScale
 70
     0
300
1'-0" = 1'-0"
140
12.0
141
12.0
290
     0
  0
VISUALSTYLE
  5
2F
102
{ACAD_REACTORS
330
2A
102
}
102
{ACAD_XDICTIONARY
360
15C
102
}
330
2A
100
AcDbVisualStyle
  2
2dWireframe
 70
     4
 71
     0
 72
     2
 73
     0
 90
        0
 40
-0.6
 41
-30.0
 62
     5
 63
     7
 74
     1
 91
        4
 64
     7
 65
   257
 75
     1
175
     1
 42
1.0
 92
        0
 66
   257
 43
1.0
 76
     1
 77
     6
 78
     2
 67
     7
 79
     5
170
     0
171
     0
290
     0
174
     0
 93
        1
 44
0.0
173
     0
291
     0
 45
0.0
1001
ACAD
1000
AcDbSavedByObjectVersion
1070
     0
  0
VISUALSTYLE
  5
31
102
{ACAD_REACTORS
330
2A
102
}
102
{ACAD_XDICTIONARY
360
160
102
}
330
2A
100
AcDbVisualStyle
  2
3D Hidden
 70
     6
 71
     1
 72
     2
 73
     2
 90
        0
 40
-0.6
 41
-30.0
 62
     5
 63
     7
 74
     2
 91
        2
 64
     7
 65
   257
 75
     2
175
     1
 42
40.0
 92
        0
 66
   257
 43
1.0
 76
     1
 77
     6
 78
     2
 67
     7
 79
     3
170
     0
171
     0
290
     0
174
     0
 93
        1
 44
0.0
173
     0
291
     0
 45
0.0
1001
ACAD
1000
AcDbSavedByObjectVersion
1070
     0
  0
VISUALSTYLE
  5
30
102
{ACAD_REACTORS
330
2A
102
}
102
{ACAD_XDICTIONARY
360
15E
102
}
330
2A
100
AcDbVisualStyle
  2
3dWireframe
 70
     5
 71
     0
 72
     2
 73
     0
 90
        0
 40
-0.6
 41
-30.0
 62
     5
 63
     7
 74
     1
 91
        4
 64
     7
 65
   257
 75
     1
175
     1
 42
1.0
 92
        0
 66
   257
 43
1.0
 76
     1
 77
     6
 78
     2
 67
     7
 79
     5
170
     0
171
     0
290
     0
174
     0
 93
        1
 44
0.0
173
     0
291
     0
 45
0.0
1001
ACAD
1000
AcDbSavedByObjectVersion
1070
     0
  0
VISUALSTYLE
  5
32
102
{ACAD_REACTORS
330
2A
102
}
102
{ACAD_XDICTIONARY
360
162
102
}
330
2A
100
AcDbVisualStyle
  2
Basic
 70
     7
 71
     1
 72
     0
 73
     1
 90
        0
 40
-0.6
 41
-30.0
 62
     5
 63
     7
 74
     0
 91
        4
 64
     7
 65
   257
 75
     1
175
     1
 42
1.0
 92
        8
 66
     7
 43
1.0
 76
     1
 77
     6
 78
     2
 67
     7
 79
     5
170
     0
171
     0
290
     0
174
     0
 93
        1
 44
0.0
173
     0
291
     1
 45
0.0
1001
ACAD
1000
AcDbSavedByObjectVersion
1070
     0
  0
VISUALSTYLE
  5
36
102
{ACAD_REACTORS
330
2A
102
}
102
{ACAD_XDICTIONARY
360
16A
102
}
330
2A
100
AcDbVisualStyle
  2
Brighten
 70
    12
 71
     2
 72
     2
 73
     0
 90
        0
 40
-0.6
 41
-30.0
 62
     5
 63
     7
 74
     1
 91
        4
 64
     7
 65
   257
 75
     1
175
     1
 42
1.0
 92
        8
 66
     7
 43
1.0
 76
     1
 77
     6
 78
     2
 67
     7
 79
     5
170
     0
171
     0
290
     0
174
     0
 93
        1
 44
50.0
173
     0
291
     1
 45
0.0
1001
ACAD
1000
AcDbSavedByObjectVersion
1070
     0
  0
VISUALSTYLE
  5
3A
102
{ACAD_REACTORS
330
2A
102
}
102
{ACAD_XDICTIONARY
360
172
102
}
330
2A
100
AcDbVisualStyle
  2
ColorChange
 70
    16
 71
     2
 72
     2
 73
     3
 90
        0
 40
-0.6
 41
-30.0
 62
     5
 63
     8
 74
     1
 91
        4
 64
     7
 65
   257
 75
     1
175
     1
 42
1.0
 92
        8
 66
     8
 43
1.0
 76
     1
 77
     6
 78
     2
 67
     7
 79
     5
170
     0
171
     0
290
     0
174
     0
 93
        1
 44
0.0
173
     0
291
     1
 45
0.0
1001
ACAD
1000
AcDbSavedByObjectVersion
1070
     0
  0
VISUALSTYLE
  5
34
102
{ACAD_REACTORS
330
2A
102
}
102
{ACAD_XDICTIONARY
360
166
102
}
330
2A
100
AcDbVisualStyle
  2
Conceptual
 70
     9
 71
     3
 72
     2
 73
     0
 90
        0
 40
-0.6
 41
-30.0
 62
     5
 63
     7
 74
     2
 91
        2
 64
     7
 65
   257
 75
     1
175
     1
 42
40.0
 92
        8
 66
     7
 43
1.0
 76
     1
 77
     6
 78
     2
 67
     7
 79
     3
170
     0
171
     0
290
     0
174
     0
 93
        1
 44
0.0
173
     0
291
     0
 45
0.0
1001
ACAD
1000
AcDbSavedByObjectVersion
1070
     0
  0
VISUALSTYLE
  5
35
102
{ACAD_REACTORS
330
2A
102
}
102
{ACAD_XDICTIONARY
360
168
102
}
330
2A
100
AcDbVisualStyle
  2
Dim
 70
    11
 71
     2
 72
     2
 73
     0
 90
        0
 40
-0.6
 41
-30.0
 62
     5
 63
     7
 74
     1
 91
        4
 64
     7
 65
   257
 75
     1
175
     1
 42
1.0
 92
        8
 66
     7
 43
1.0
 76
     1
 77
     6
 78
     2
 67
     7
 79
     5
170
     0
171
     0
290
     0
174
     0
 93
        1
 44
-50.0
173
     0
291
     1
 45
0.0
1001
ACAD
1000
AcDbSavedByObjectVersion
1070
     0
  0
VISUALSTYLE
  5
39
102
{ACAD_REACTORS
330
2A
102
}
102
{ACAD_XDICTIONARY
360
170
102
}
330
2A
100
AcDbVisualStyle
  2
Facepattern
 70
    15
 71
     2
 72
     2
 73
     0
 90
        0
 40
-0.6
 41
-30.0
 62
     5
 63
     7
 74
     1
 91
        4
 64
     7
 65
   257
 75
     1
175
     1
 42
1.0
 92
        8
 66
     7
 43
1.0
 76
     1
 77
     6
 78
     2
 67
     7
 79
     5
170
     0
171
     0
290
     0
174
     0
 93
        1
 44
0.0
173
     0
291
     1
 45
0.0
1001
ACAD
1000
AcDbSavedByObjectVersion
1070
     0
  0
VISUALSTYLE
  5
2B
102
{ACAD_REACTORS
330
2A
102
}
102
{ACAD_XDICTIONARY
360
154
102
}
330
2A
100
AcDbVisualStyle
  2
Flat
 70
     0
 71
     2
 72
     1
 73
     1
 90
        2
 40
-0.6
 41
30.0
 62
     5
 63
     7
 74
     0
 91
        4
 64
     7
 65
   257
 75
     1
175
     1
 42
1.0
 92
        8
 66
     7
 43
1.0
 76
     1
 77
     6
 78
     2
 67
     7
 79
     5
170
     0
171
     0
290
     0
174
     0
 93
       13
 44
0.0
173
     0
291
     1
 45
0.0
1001
ACAD
1000
AcDbSavedByObjectVersion
1070
     0
  0
VISUALSTYLE
  5
2C
102
{ACAD_REACTORS
330
2A
102
}
102
{ACAD_XDICTIONARY
360
156
102
}
330
2A
100
AcDbVisualStyle
  2
FlatWithEdges
 70
     1
 71
     2
 72
     1
 73
     1
 90
        2
 40
-0.6
 41
30.0
 62
     5
 63
     7
 74
     1
 91
        4
 64
     7
 65
   257
 75
     1
175
     1
 42
1.0
 92
        0
 66
   257
 43
1.0
 76
     1
 77
     6
 78
     2
 67
     7
 79
     5
170
     0
171
     0
290
     0
174
     0
 93
       13
 44
0.0
173
     0
291
     1
 45
0.0
1001
ACAD
1000
AcDbSavedByObjectVersion
1070
     0
  0
VISUALSTYLE
  5
2D
102
{ACAD_REACTORS
330
2A
102
}
102
{ACAD_XDICTIONARY
360
158
102
}
330
2A
100
AcDbVisualStyle
  2
Gouraud
 70
     2
 71
     2
 72
     2
 73
     1
 90
        2
 40
-0.6
 41
30.0
 62
     5
 63
     7
 74
     0
 91
        4
 64
     7
 65
   257
 75
     1
175
     1
 42
1.0
 92
        0
 66
     7
 43
1.0
 76
     1
 77
     6
 78
     2
 67
     7
 79
     5
170
     0
171
     0
290
     0
174
     0
 93
       13
 44
0.0
173
     0
291
     1
 45
0.0
1001
ACAD
1000
AcDbSavedByObjectVersion
1070
     0
  0
VISUALSTYLE
  5
2E
102
{ACAD_REACTORS
330
2A
102
}
102
{ACAD_XDICTIONARY
360
15A
102
}
330
2A
100
AcDbVisualStyle
  2
GouraudWithEdges
 70
     3
 71
     2
 72
     2
 73
     1
 90
        2
 40
-0.6
 41
30.0
 62
     5
 63
     7
 74
     1
 91
        4
 64
     7
 65
   257
 75
     1
175
     1
 42
1.0
 92
        0
 66
   257
 43
1.0
 76
     1
 77
     6
 78
     2
 67
     7
 79
     5
170
     0
171
     0
290
     0
174
     0
 93
       13
 44
0.0
173
     0
291
     1
 45
0.0
1001
ACAD
1000
AcDbSavedByObjectVersion
1070
     0
  0
VISUALSTYLE
  5
38
102
{ACAD_REACTORS
330
2A
102
}
102
{ACAD_XDICTIONARY
360
16E
102
}
330
2A
100
AcDbVisualStyle
  2
Linepattern
 70
    14
 71
     2
 72
     2
 73
     0
 90
        0
 40
-0.6
 41
-30.0
 62
     5
 63
     7
 74
     1
 91
        4
 64
     7
 65
   257
 75
     7
175
     7
 42
1.0
 92
        8
 66
     7
 43
1.0
 76
     1
 77
     6
 78
     2
 67
     7
 79
     5
170
     0
171
     0
290
     0
174
     0
 93
        1
 44
0.0
173
     0
291
     1
 45
0.0
1001
ACAD
1000
AcDbSavedByObjectVersion
1070
     0
  0
VISUALSTYLE
  5
33
102
{ACAD_REACTORS
330
2A
102
}
102
{ACAD_XDICTIONARY
360
164
102
}
330
2A
100
AcDbVisualStyle
  2
Realistic
 70
     8
 71
     2
 72
     2
 73
     0
 90
        0
 40
-0.6
 41
-30.0
 62
     5
 63
     7
 74
     1
 91
        0
 64
     7
 65
   257
 75
     1
175
     1
 42
1.0
 92
        8
 66
     8
 43
1.0
 76
     1
 77
     6
 78
     2
 67
     7
 79
     5
170
     0
171
     0
290
     0
174
     0
 93
       13
 44
0.0
173
     0
291
     0
 45
0.0
1001
ACAD
1000
AcDbSavedByObjectVersion
1070
     0
  0
VISUALSTYLE
  5
37
102
{ACAD_REACTORS
330
2A
102
}
102
{ACAD_XDICTIONARY
360
16C
102
}
330
2A
100
AcDbVisualStyle
  2
Thicken
 70
    13
 71
     2
 72
     2
 73
     0
 90
        0
 40
-0.6
 41
-30.0
 62
     5
 63
     7
 74
     1
 91
        4
 64
     7
 65
   257
 75
     1
175
     1
 42
1.0
 92
       12
 66
     7
 43
1.0
 76
     1
 77
     6
 78
     2
 67
     7
 79
     5
170
     0
171
     0
290
     0
174
     0
 93
        1
 44
0.0
173
     0
291
     1
 45
0.0
1001
ACAD
1000
AcDbSavedByObjectVersion
1070
     0
  0
DICTIONARYVAR
  5
151
102
{ACAD_REACTORS
330
14E
102
}
330
14E
100
DictionaryVariables
280
     0
  1
1:1
  0
DICTIONARYVAR
  5
152
102
{ACAD_REACTORS
330
14E
102
}
330
14E
100
DictionaryVariables
280
     0
  1
2
  0
DICTIONARYVAR
  5
153
102
{ACAD_REACTORS
330
14E
102
}
330
14E
100
DictionaryVariables
280
     0
  1
1
  0
DICTIONARY
  5
176
330
3D
100
AcDbDictionary
280
     1
281
     1
  3
ACAD_XREC_ROUNDTRIP
360
177
  0
DICTIONARY
  5
174
330
3C
100
AcDbDictionary
280
     1
281
     1
  3
ACAD_XREC_ROUNDTRIP
360
175
  0
DICTIONARY
  5
178
330
3E
100
AcDbDictionary
280
     1
281
     1
  3
ACAD_XREC_ROUNDTRIP
360
179
  0
DICTIONARY
  5
15C
330
2F
100
AcDbDictionary
280
     1
281
     1
  3
ACAD_XREC_ROUNDTRIP
360
15D
  0
DICTIONARY
  5
160
330
31
100
AcDbDictionary
280
     1
281
     1
  3
ACAD_XREC_ROUNDTRIP
360
161
  0
DICTIONARY
  5
15E
330
30
100
AcDbDictionary
280
     1
281
     1
  3
ACAD_XREC_ROUNDTRIP
360
15F
  0
DICTIONARY
  5
162
330
32
100
AcDbDictionary
280
     1
281
     1
  3
ACAD_XREC_ROUNDTRIP
360
163
  0
DICTIONARY
  5
16A
330
36
100
AcDbDictionary
280
     1
281
     1
  3
ACAD_XREC_ROUNDTRIP
360
16B
  0
DICTIONARY
  5
172
330
3A
100
AcDbDictionary
280
     1
281
     1
  3
ACAD_XREC_ROUNDTRIP
360
173
  0
DICTIONARY
  5
166
330
34
100
AcDbDictionary
280
     1
281
     1
  3
ACAD_XREC_ROUNDTRIP
360
167
  0
DICTIONARY
  5
168
330
35
100
AcDbDictionary
280
     1
281
     1
  3
ACAD_XREC_ROUNDTRIP
360
169
  0
DICTIONARY
  5
170
330
39
100
AcDbDictionary
280
     1
281
     1
  3
ACAD_XREC_ROUNDTRIP
360
171
  0
DICTIONARY
  5
154
330
2B
100
AcDbDictionary
280
     1
281
     1
  3
ACAD_XREC_ROUNDTRIP
360
155
  0
DICTIONARY
  5
156
330
2C
100
AcDbDictionary
280
     1
281
     1
  3
ACAD_XREC_ROUNDTRIP
360
157
  0
DICTIONARY
  5
158
330
2D
100
AcDbDictionary
280
     1
281
     1
  3
ACAD_XREC_ROUNDTRIP
360
159
  0
DICTIONARY
  5
15A
330
2E
100
AcDbDictionary
280
     1
281
     1
  3
ACAD_XREC_ROUNDTRIP
360
15B
  0
DICTIONARY
  5
16E
330
38
100
AcDbDictionary
280
     1
281
     1
  3
ACAD_XREC_ROUNDTRIP
360
16F
  0
DICTIONARY
  5
164
330
33
100
AcDbDictionary
280
     1
281
     1
  3
ACAD_XREC_ROUNDTRIP
360
165
  0
DICTIONARY
  5
16C
330
37
100
AcDbDictionary
280
     1
281
     1
  3
ACAD_XREC_ROUNDTRIP
360
16D
  0
XRECORD
  5
177
102
{ACAD_REACTORS
330
176
102
}
330
176
100
AcDbXrecord
280
     1
102
MATERIAL
148
0.0
149
0.0
149
0.0
 93
        0
 94
      127
282
     0
 72
     1
 77
     1
171
     1
175
     1
179
     1
273
     0
  0
XRECORD
  5
175
102
{ACAD_REACTORS
330
174
102
}
330
174
100
AcDbXrecord
280
     1
102
MATERIAL
148
0.0
149
0.0
149
0.0
 93
        0
 94
      127
282
     0
 72
     1
 77
     1
171
     1
175
     1
179
     1
273
     0
  0
XRECORD
  5
179
102
{ACAD_REACTORS
330
178
102
}
330
178
100
AcDbXrecord
280
     1
102
MATERIAL
148
0.0
149
0.0
149
0.0
 93
        0
 94
      127
282
     0
 72
     1
 77
     1
171
     1
175
     1
179
     1
273
     0
  0
XRECORD
  5
15D
102
{ACAD_REACTORS
330
15C
102
}
330
15C
100
AcDbXrecord
280
     1
102
RTVSPropertyOp0
 70
     1
102
RTVSPropertyOp1
 70
     1
102
RTVSPropertyOp2
 70
     1
102
RTVSPropertyOp3
 70
     1
102
RTVSPropertyOp4
 70
     1
102
RTVSPropertyOp5
 70
     1
102
RTVSPropertyOp6
 70
     1
102
RTVSPropertyOp7
 70
     1
102
RTVSPropertyOp8
 70
     1
102
RTVSPropertyOp9
 70
     1
102
RTVSPropertyOp10
 70
     1
102
RTVSPropertyOp11
 70
     1
102
RTVSPropertyOp12
 70
     1
102
RTVSPropertyOp13
 70
     1
102
RTVSPropertyOp14
 70
     1
102
RTVSPropertyOp15
 70
     1
102
RTVSPropertyOp16
 70
     1
102
RTVSPropertyOp17
 70
     1
102
RTVSPropertyOp18
 70
     1
102
RTVSPropertyOp19
 70
     1
102
RTVSPropertyOp20
 70
     1
102
RTVSPropertyOp21
 70
     1
102
RTVSPropertyOp22
 70
     1
102
RTVSPropertyOp23
 70
     1
102
RTVSPropertyOp24
 70
     1
102
RTVSPropertyOp25
 70
     1
102
RTVSPropertyOp26
 70
     1
102
RTVSPropertyOp27
 70
     1
  0
XRECORD
  5
161
102
{ACAD_REACTORS
330
160
102
}
330
160
100
AcDbXrecord
280
     1
102
RTVSPropertyOp0
 70
     1
102
RTVSPropertyOp1
 70
     1
102
RTVSPropertyOp2
 70
     1
102
RTVSPropertyOp3
 70
     1
102
RTVSPropertyOp4
 70
     1
102
RTVSPropertyOp5
 70
     1
102
RTVSPropertyOp6
 70
     1
102
RTVSPropertyOp7
 70
     1
102
RTVSPropertyOp8
 70
     1
102
RTVSPropertyOp9
 70
     1
102
RTVSPropertyOp10
 70
     1
102
RTVSPropertyOp11
 70
     1
102
RTVSPropertyOp12
 70
     1
102
RTVSPropertyOp13
 70
     1
102
RTVSPropertyOp14
 70
     1
102
RTVSPropertyOp15
 70
     1
102
RTVSPropertyOp16
 70
     1
102
RTVSPropertyOp17
 70
     1
102
RTVSPropertyOp18
 70
     1
102
RTVSPropertyOp19
 70
     1
102
RTVSPropertyOp20
 70
     1
102
RTVSPropertyOp21
 70
     1
102
RTVSPropertyOp22
 70
     1
102
RTVSPropertyOp23
 70
     1
102
RTVSPropertyOp24
 70
     1
102
RTVSPropertyOp25
 70
     1
102
RTVSPropertyOp26
 70
     1
102
RTVSPropertyOp27
 70
     1
  0
XRECORD
  5
15F
102
{ACAD_REACTORS
330
15E
102
}
330
15E
100
AcDbXrecord
280
     1
102
RTVSPropertyOp0
 70
     1
102
RTVSPropertyOp1
 70
     1
102
RTVSPropertyOp2
 70
     1
102
RTVSPropertyOp3
 70
     1
102
RTVSPropertyOp4
 70
     1
102
RTVSPropertyOp5
 70
     1
102
RTVSPropertyOp6
 70
     1
102
RTVSPropertyOp7
 70
     1
102
RTVSPropertyOp8
 70
     1
102
RTVSPropertyOp9
 70
     1
102
RTVSPropertyOp10
 70
     1
102
RTVSPropertyOp11
 70
     1
102
RTVSPropertyOp12
 70
     1
102
RTVSPropertyOp13
 70
     1
102
RTVSPropertyOp14
 70
     1
102
RTVSPropertyOp15
 70
     1
102
RTVSPropertyOp16
 70
     1
102
RTVSPropertyOp17
 70
     1
102
RTVSPropertyOp18
 70
     1
102
RTVSPropertyOp19
 70
     1
102
RTVSPropertyOp20
 70
     1
102
RTVSPropertyOp21
 70
     1
102
RTVSPropertyOp22
 70
     1
102
RTVSPropertyOp23
 70
     1
102
RTVSPropertyOp24
 70
     1
102
RTVSPropertyOp25
 70
     1
102
RTVSPropertyOp26
 70
     1
102
RTVSPropertyOp27
 70
     1
  0
XRECORD
  5
163
102
{ACAD_REACTORS
330
162
102
}
330
162
100
AcDbXrecord
280
     1
102
RTVSPropertyOp0
 70
     1
102
RTVSPropertyOp1
 70
     1
102
RTVSPropertyOp2
 70
     1
102
RTVSPropertyOp3
 70
     1
102
RTVSPropertyOp4
 70
     1
102
RTVSPropertyOp5
 70
     1
102
RTVSPropertyOp6
 70
     1
102
RTVSPropertyOp7
 70
     1
102
RTVSPropertyOp8
 70
     1
102
RTVSPropertyOp9
 70
     1
102
RTVSPropertyOp10
 70
     1
102
RTVSPropertyOp11
 70
     1
102
RTVSPropertyOp12
 70
     1
102
RTVSPropertyOp13
 70
     1
102
RTVSPropertyOp14
 70
     1
102
RTVSPropertyOp15
 70
     1
102
RTVSPropertyOp16
 70
     1
102
RTVSPropertyOp17
 70
     1
102
RTVSPropertyOp18
 70
     1
102
RTVSPropertyOp19
 70
     1
102
RTVSPropertyOp20
 70
     1
102
RTVSPropertyOp21
 70
     1
102
RTVSPropertyOp22
 70
     1
102
RTVSPropertyOp23
 70
     1
102
RTVSPropertyOp24
 70
     1
102
RTVSPropertyOp25
 70
     1
102
RTVSPropertyOp26
 70
     1
102
RTVSPropertyOp27
 70
     1
  0
XRECORD
  5
16B
102
{ACAD_REACTORS
330
16A
102
}
330
16A
100
AcDbXrecord
280
     1
102
RTVSPropertyOp0
 70
     1
102
RTVSPropertyOp1
 70
     1
102
RTVSPropertyOp2
 70
     1
102
RTVSPropertyOp3
 70
     1
102
RTVSPropertyOp4
 70
     1
102
RTVSPropertyOp5
 70
     1
102
RTVSPropertyOp6
 70
     1
102
RTVSPropertyOp7
 70
     1
102
RTVSPropertyOp8
 70
     1
102
RTVSPropertyOp9
 70
     1
102
RTVSPropertyOp10
 70
     1
102
RTVSPropertyOp11
 70
     1
102
RTVSPropertyOp12
 70
     1
102
RTVSPropertyOp13
 70
     1
102
RTVSPropertyOp14
 70
     1
102
RTVSPropertyOp15
 70
     1
102
RTVSPropertyOp16
 70
     1
102
RTVSPropertyOp17
 70
     1
102
RTVSPropertyOp18
 70
     1
102
RTVSPropertyOp19
 70
     1
102
RTVSPropertyOp20
 70
     1
102
RTVSPropertyOp21
 70
     1
102
RTVSPropertyOp22
 70
     1
102
RTVSPropertyOp23
 70
     1
102
RTVSPropertyOp24
 70
     1
102
RTVSPropertyOp25
 70
     1
102
RTVSPropertyOp26
 70
     1
102
RTVSPropertyOp27
 70
     1
  0
XRECORD
  5
173
102
{ACAD_REACTORS
330
172
102
}
330
172
100
AcDbXrecord
280
     1
102
RTVSPropertyOp0
 70
     1
102
RTVSPropertyOp1
 70
     1
102
RTVSPropertyOp2
 70
     1
102
RTVSPropertyOp3
 70
     1
102
RTVSPropertyOp4
 70
     1
102
RTVSPropertyOp5
 70
     1
102
RTVSPropertyOp6
 70
     1
102
RTVSPropertyOp7
 70
     1
102
RTVSPropertyOp8
 70
     1
102
RTVSPropertyOp9
 70
     1
102
RTVSPropertyOp10
 70
     1
102
RTVSPropertyOp11
 70
     1
102
RTVSPropertyOp12
 70
     1
102
RTVSPropertyOp13
 70
     1
102
RTVSPropertyOp14
 70
     1
102
RTVSPropertyOp15
 70
     1
102
RTVSPropertyOp16
 70
     1
102
RTVSPropertyOp17
 70
     1
102
RTVSPropertyOp18
 70
     1
102
RTVSPropertyOp19
 70
     1
102
RTVSPropertyOp20
 70
     1
102
RTVSPropertyOp21
 70
     1
102
RTVSPropertyOp22
 70
     1
102
RTVSPropertyOp23
 70
     1
102
RTVSPropertyOp24
 70
     1
102
RTVSPropertyOp25
 70
     1
102
RTVSPropertyOp26
 70
     1
102
RTVSPropertyOp27
 70
     1
  0
XRECORD
  5
167
102
{ACAD_REACTORS
330
166
102
}
330
166
100
AcDbXrecord
280
     1
102
RTVSPropertyOp0
 70
     1
102
RTVSPropertyOp1
 70
     1
102
RTVSPropertyOp2
 70
     1
102
RTVSPropertyOp3
 70
     1
102
RTVSPropertyOp4
 70
     1
102
RTVSPropertyOp5
 70
     1
102
RTVSPropertyOp6
 70
     1
102
RTVSPropertyOp7
 70
     1
102
RTVSPropertyOp8
 70
     1
102
RTVSPropertyOp9
 70
     1
102
RTVSPropertyOp10
 70
     1
102
RTVSPropertyOp11
 70
     1
102
RTVSPropertyOp12
 70
     1
102
RTVSPropertyOp13
 70
     1
102
RTVSPropertyOp14
 70
     1
102
RTVSPropertyOp15
 70
     1
102
RTVSPropertyOp16
 70
     1
102
RTVSPropertyOp17
 70
     1
102
RTVSPropertyOp18
 70
     1
102
RTVSPropertyOp19
 70
     1
102
RTVSPropertyOp20
 70
     1
102
RTVSPropertyOp21
 70
     1
102
RTVSPropertyOp22
 70
     1
102
RTVSPropertyOp23
 70
     1
102
RTVSPropertyOp24
 70
     1
102
RTVSPropertyOp25
 70
     1
102
RTVSPropertyOp26
 70
     1
102
RTVSPropertyOp27
 70
     1
  0
XRECORD
  5
169
102
{ACAD_REACTORS
330
168
102
}
330
168
100
AcDbXrecord
280
     1
102
RTVSPropertyOp0
 70
     1
102
RTVSPropertyOp1
 70
     1
102
RTVSPropertyOp2
 70
     1
102
RTVSPropertyOp3
 70
     1
102
RTVSPropertyOp4
 70
     1
102
RTVSPropertyOp5
 70
     1
102
RTVSPropertyOp6
 70
     1
102
RTVSPropertyOp7
 70
     1
102
RTVSPropertyOp8
 70
     1
102
RTVSPropertyOp9
 70
     1
102
RTVSPropertyOp10
 70
     1
102
RTVSPropertyOp11
 70
     1
102
RTVSPropertyOp12
 70
     1
102
RTVSPropertyOp13
 70
     1
102
RTVSPropertyOp14
 70
     1
102
RTVSPropertyOp15
 70
     1
102
RTVSPropertyOp16
 70
     1
102
RTVSPropertyOp17
 70
     1
102
RTVSPropertyOp18
 70
     1
102
RTVSPropertyOp19
 70
     1
102
RTVSPropertyOp20
 70
     1
102
RTVSPropertyOp21
 70
     1
102
RTVSPropertyOp22
 70
     1
102
RTVSPropertyOp23
 70
     1
102
RTVSPropertyOp24
 70
     1
102
RTVSPropertyOp25
 70
     1
102
RTVSPropertyOp26
 70
     1
102
RTVSPropertyOp27
 70
     1
  0
XRECORD
  5
171
102
{ACAD_REACTORS
330
170
102
}
330
170
100
AcDbXrecord
280
     1
102
RTVSPropertyOp0
 70
     1
102
RTVSPropertyOp1
 70
     1
102
RTVSPropertyOp2
 70
     1
102
RTVSPropertyOp3
 70
     1
102
RTVSPropertyOp4
 70
     1
102
RTVSPropertyOp5
 70
     1
102
RTVSPropertyOp6
 70
     1
102
RTVSPropertyOp7
 70
     1
102
RTVSPropertyOp8
 70
     1
102
RTVSPropertyOp9
 70
     1
102
RTVSPropertyOp10
 70
     1
102
RTVSPropertyOp11
 70
     1
102
RTVSPropertyOp12
 70
     1
102
RTVSPropertyOp13
 70
     1
102
RTVSPropertyOp14
 70
     1
102
RTVSPropertyOp15
 70
     1
102
RTVSPropertyOp16
 70
     1
102
RTVSPropertyOp17
 70
     1
102
RTVSPropertyOp18
 70
     1
102
RTVSPropertyOp19
 70
     1
102
RTVSPropertyOp20
 70
     1
102
RTVSPropertyOp21
 70
     1
102
RTVSPropertyOp22
 70
     1
102
RTVSPropertyOp23
 70
     1
102
RTVSPropertyOp24
 70
     1
102
RTVSPropertyOp25
 70
     1
102
RTVSPropertyOp26
 70
     1
102
RTVSPropertyOp27
 70
     1
  0
XRECORD
  5
155
102
{ACAD_REACTORS
330
154
102
}
330
154
100
AcDbXrecord
280
     1
102
RTVSPropertyOp0
 70
     1
102
RTVSPropertyOp1
 70
     1
102
RTVSPropertyOp2
 70
     1
102
RTVSPropertyOp3
 70
     1
102
RTVSPropertyOp4
 70
     1
102
RTVSPropertyOp5
 70
     1
102
RTVSPropertyOp6
 70
     1
102
RTVSPropertyOp7
 70
     1
102
RTVSPropertyOp8
 70
     1
102
RTVSPropertyOp9
 70
     1
102
RTVSPropertyOp10
 70
     1
102
RTVSPropertyOp11
 70
     1
102
RTVSPropertyOp12
 70
     1
102
RTVSPropertyOp13
 70
     1
102
RTVSPropertyOp14
 70
     1
102
RTVSPropertyOp15
 70
     1
102
RTVSPropertyOp16
 70
     1
102
RTVSPropertyOp17
 70
     1
102
RTVSPropertyOp18
 70
     1
102
RTVSPropertyOp19
 70
     1
102
RTVSPropertyOp20
 70
     1
102
RTVSPropertyOp21
 70
     1
102
RTVSPropertyOp22
 70
     1
102
RTVSPropertyOp23
 70
     1
102
RTVSPropertyOp24
 70
     1
102
RTVSPropertyOp25
 70
     1
102
RTVSPropertyOp26
 70
     1
102
RTVSPropertyOp27
 70
     1
  0
XRECORD
  5
157
102
{ACAD_REACTORS
330
156
102
}
330
156
100
AcDbXrecord
280
     1
102
RTVSPropertyOp0
 70
     1
102
RTVSPropertyOp1
 70
     1
102
RTVSPropertyOp2
 70
     1
102
RTVSPropertyOp3
 70
     1
102
RTVSPropertyOp4
 70
     1
102
RTVSPropertyOp5
 70
     1
102
RTVSPropertyOp6
 70
     1
102
RTVSPropertyOp7
 70
     1
102
RTVSPropertyOp8
 70
     1
102
RTVSPropertyOp9
 70
     1
102
RTVSPropertyOp10
 70
     1
102
RTVSPropertyOp11
 70
     1
102
RTVSPropertyOp12
 70
     1
102
RTVSPropertyOp13
 70
     1
102
RTVSPropertyOp14
 70
     1
102
RTVSPropertyOp15
 70
     1
102
RTVSPropertyOp16
 70
     1
102
RTVSPropertyOp17
 70
     1
102
RTVSPropertyOp18
 70
     1
102
RTVSPropertyOp19
 70
     1
102
RTVSPropertyOp20
 70
     1
102
RTVSPropertyOp21
 70
     1
102
RTVSPropertyOp22
 70
     1
102
RTVSPropertyOp23
 70
     1
102
RTVSPropertyOp24
 70
     1
102
RTVSPropertyOp25
 70
     1
102
RTVSPropertyOp26
 70
     1
102
RTVSPropertyOp27
 70
     1
  0
XRECORD
  5
159
102
{ACAD_REACTORS
330
158
102
}
330
158
100
AcDbXrecord
280
     1
102
RTVSPropertyOp0
 70
     1
102
RTVSPropertyOp1
 70
     1
102
RTVSPropertyOp2
 70
     1
102
RTVSPropertyOp3
 70
     1
102
RTVSPropertyOp4
 70
     1
102
RTVSPropertyOp5
 70
     1
102
RTVSPropertyOp6
 70
     1
102
RTVSPropertyOp7
 70
     1
102
RTVSPropertyOp8
 70
     1
102
RTVSPropertyOp9
 70
     1
102
RTVSPropertyOp10
 70
     1
102
RTVSPropertyOp11
 70
     1
102
RTVSPropertyOp12
 70
     1
102
RTVSPropertyOp13
 70
     1
102
RTVSPropertyOp14
 70
     1
102
RTVSPropertyOp15
 70
     1
102
RTVSPropertyOp16
 70
     1
102
RTVSPropertyOp17
 70
     1
102
RTVSPropertyOp18
 70
     1
102
RTVSPropertyOp19
 70
     1
102
RTVSPropertyOp20
 70
     1
102
RTVSPropertyOp21
 70
     1
102
RTVSPropertyOp22
 70
     1
102
RTVSPropertyOp23
 70
     1
102
RTVSPropertyOp24
 70
     1
102
RTVSPropertyOp25
 70
     1
102
RTVSPropertyOp26
 70
     1
102
RTVSPropertyOp27
 70
     1
  0
XRECORD
  5
15B
102
{ACAD_REACTORS
330
15A
102
}
330
15A
100
AcDbXrecord
280
     1
102
RTVSPropertyOp0
 70
     1
102
RTVSPropertyOp1
 70
     1
102
RTVSPropertyOp2
 70
     1
102
RTVSPropertyOp3
 70
     1
102
RTVSPropertyOp4
 70
     1
102
RTVSPropertyOp5
 70
     1
102
RTVSPropertyOp6
 70
     1
102
RTVSPropertyOp7
 70
     1
102
RTVSPropertyOp8
 70
     1
102
RTVSPropertyOp9
 70
     1
102
RTVSPropertyOp10
 70
     1
102
RTVSPropertyOp11
 70
     1
102
RTVSPropertyOp12
 70
     1
102
RTVSPropertyOp13
 70
     1
102
RTVSPropertyOp14
 70
     1
102
RTVSPropertyOp15
 70
     1
102
RTVSPropertyOp16
 70
     1
102
RTVSPropertyOp17
 70
     1
102
RTVSPropertyOp18
 70
     1
102
RTVSPropertyOp19
 70
     1
102
RTVSPropertyOp20
 70
     1
102
RTVSPropertyOp21
 70
     1
102
RTVSPropertyOp22
 70
     1
102
RTVSPropertyOp23
 70
     1
102
RTVSPropertyOp24
 70
     1
102
RTVSPropertyOp25
 70
     1
102
RTVSPropertyOp26
 70
     1
102
RTVSPropertyOp27
 70
     1
  0
XRECORD
  5
16F
102
{ACAD_REACTORS
330
16E
102
}
330
16E
100
AcDbXrecord
280
     1
102
RTVSPropertyOp0
 70
     1
102
RTVSPropertyOp1
 70
     1
102
RTVSPropertyOp2
 70
     1
102
RTVSPropertyOp3
 70
     1
102
RTVSPropertyOp4
 70
     1
102
RTVSPropertyOp5
 70
     1
102
RTVSPropertyOp6
 70
     1
102
RTVSPropertyOp7
 70
     1
102
RTVSPropertyOp8
 70
     1
102
RTVSPropertyOp9
 70
     1
102
RTVSPropertyOp10
 70
     1
102
RTVSPropertyOp11
 70
     1
102
RTVSPropertyOp12
 70
     1
102
RTVSPropertyOp13
 70
     1
102
RTVSPropertyOp14
 70
     1
102
RTVSPropertyOp15
 70
     1
102
RTVSPropertyOp16
 70
     1
102
RTVSPropertyOp17
 70
     1
102
RTVSPropertyOp18
 70
     1
102
RTVSPropertyOp19
 70
     1
102
RTVSPropertyOp20
 70
     1
102
RTVSPropertyOp21
 70
     1
102
RTVSPropertyOp22
 70
     1
102
RTVSPropertyOp23
 70
     1
102
RTVSPropertyOp24
 70
     1
102
RTVSPropertyOp25
 70
     1
102
RTVSPropertyOp26
 70
     1
102
RTVSPropertyOp27
 70
     1
  0
XRECORD
  5
165
102
{ACAD_REACTORS
330
164
102
}
330
164
100
AcDbXrecord
280
     1
102
RTVSPropertyOp0
 70
     1
102
RTVSPropertyOp1
 70
     1
102
RTVSPropertyOp2
 70
     1
102
RTVSPropertyOp3
 70
     1
102
RTVSPropertyOp4
 70
     1
102
RTVSPropertyOp5
 70
     1
102
RTVSPropertyOp6
 70
     1
102
RTVSPropertyOp7
 70
     1
102
RTVSPropertyOp8
 70
     1
102
RTVSPropertyOp9
 70
     1
102
RTVSPropertyOp10
 70
     1
102
RTVSPropertyOp11
 70
     1
102
RTVSPropertyOp12
 70
     1
102
RTVSPropertyOp13
 70
     1
102
RTVSPropertyOp14
 70
     1
102
RTVSPropertyOp15
 70
     1
102
RTVSPropertyOp16
 70
     1
102
RTVSPropertyOp17
 70
     1
102
RTVSPropertyOp18
 70
     1
102
RTVSPropertyOp19
 70
     1
102
RTVSPropertyOp20
 70
     1
102
RTVSPropertyOp21
 70
     1
102
RTVSPropertyOp22
 70
     1
102
RTVSPropertyOp23
 70
     1
102
RTVSPropertyOp24
 70
     1
102
RTVSPropertyOp25
 70
     1
102
RTVSPropertyOp26
 70
     1
102
RTVSPropertyOp27
 70
     1
  0
XRECORD
  5
16D
102
{ACAD_REACTORS
330
16C
102
}
330
16C
100
AcDbXrecord
280
     1
102
RTVSPropertyOp0
 70
     1
102
RTVSPropertyOp1
 70
     1
102
RTVSPropertyOp2
 70
     1
102
RTVSPropertyOp3
 70
     1
102
RTVSPropertyOp4
 70
     1
102
RTVSPropertyOp5
 70
     1
102
RTVSPropertyOp6
 70
     1
102
RTVSPropertyOp7
 70
     1
102
RTVSPropertyOp8
 70
     1
102
RTVSPropertyOp9
 70
     1
102
RTVSPropertyOp10
 70
     1
102
RTVSPropertyOp11
 70
     1
102
RTVSPropertyOp12
 70
     1
102
RTVSPropertyOp13
 70
     1
102
RTVSPropertyOp14
 70
     1
102
RTVSPropertyOp15
 70
     1
102
RTVSPropertyOp16
 70
     1
102
RTVSPropertyOp17
 70
     1
102
RTVSPropertyOp18
 70
     1
102
RTVSPropertyOp19
 70
     1
102
RTVSPropertyOp20
 70
     1
102
RTVSPropertyOp21
 70
     1
102
RTVSPropertyOp22
 70
     1
102
RTVSPropertyOp23
 70
     1
102
RTVSPropertyOp24
 70
     1
102
RTVSPropertyOp25
 70
     1
102
RTVSPropertyOp26
 70
     1
102
RTVSPropertyOp27
 70
     1
  0
ENDSEC
  0
EOF
